  0
SECTION
  2
HEADER
  9
$ACADVER
  1
AC1021
  9
$ACADMAINTVER
 70
    50
  9
$DWGCODEPAGE
  3
ANSI_1252
  9
$INSBASE
 10
0.0000000000000675
 20
2082.0
 30
0.0
  9
$EXTMIN
 10
-20.91322003435198
 20
-119.0442289505772
 30
-0.0000000000009873
  9
$EXTMAX
 10
8932.926939688398
 20
4775.295139391508
 30
0.0000000000004265
  9
$LIMMIN
 10
0.0
 20
0.0
  9
$LIMMAX
 10
297.0
 20
210.0
  9
$ORTHOMODE
 70
     0
  9
$REGENMODE
 70
     1
  9
$FILLMODE
 70
     1
  9
$QTEXTMODE
 70
     0
  9
$MIRRTEXT
 70
     1
  9
$LTSCALE
 40
10.0
  9
$ATTMODE
 70
     1
  9
$TEXTSIZE
 40
3.5
  9
$TRACEWID
 40
0.05
  9
$TEXTSTYLE
  7
SIMPLEX
  9
$CLAYER
  8
Kasten
  9
$CELTYPE
  6
ByLayer
  9
$CECOLOR
 62
   256
  9
$CELTSCALE
 40
1.0
  9
$DISPSILH
 70
     0
  9
$DIMSCALE
 40
1.0
  9
$DIMASZ
 40
3.5
  9
$DIMEXO
 40
0.1
  9
$DIMDLI
 40
0.4
  9
$DIMRND
 40
0.0
  9
$DIMDLE
 40
0.0
  9
$DIMEXE
 40
1.8
  9
$DIMTP
 40
0.0
  9
$DIMTM
 40
0.0
  9
$DIMTXT
 40
3.5
  9
$DIMCEN
 40
5.0
  9
$DIMTSZ
 40
0.0
  9
$DIMTOL
 70
     0
  9
$DIMLIM
 70
     0
  9
$DIMTIH
 70
     0
  9
$DIMTOH
 70
     0
  9
$DIMSE1
 70
     0
  9
$DIMSE2
 70
     0
  9
$DIMTAD
 70
     1
  9
$DIMZIN
 70
     8
  9
$DIMBLK
  1

  9
$DIMASO
 70
     1
  9
$DIMSHO
 70
     1
  9
$DIMPOST
  1

  9
$DIMAPOST
  1

  9
$DIMALT
 70
     0
  9
$DIMALTD
 70
     2
  9
$DIMALTF
 40
25.4
  9
$DIMLFAC
 40
1.0
  9
$DIMTOFL
 70
     1
  9
$DIMTVP
 40
0.0
  9
$DIMTIX
 70
     0
  9
$DIMSOXD
 70
     0
  9
$DIMSAH
 70
     1
  9
$DIMBLK1
  1

  9
$DIMBLK2
  1

  9
$DIMSTYLE
  2
BEMASSUNG
  9
$DIMCLRD
 70
     1
  9
$DIMCLRE
 70
     1
  9
$DIMCLRT
 70
     1
  9
$DIMTFAC
 40
0.5714285714285714
  9
$DIMGAP
 40
0.1
  9
$DIMJUST
 70
     0
  9
$DIMSD1
 70
     0
  9
$DIMSD2
 70
     0
  9
$DIMTOLJ
 70
     1
  9
$DIMTZIN
 70
     8
  9
$DIMALTZ
 70
     8
  9
$DIMALTTZ
 70
     8
  9
$DIMUPT
 70
     0
  9
$DIMDEC
 70
     1
  9
$DIMTDEC
 70
     1
  9
$DIMALTU
 70
     2
  9
$DIMALTTD
 70
     2
  9
$DIMTXSTY
  7
STANDARD
  9
$DIMAUNIT
 70
     0
  9
$DIMADEC
 70
     0
  9
$DIMALTRND
 40
0.0
  9
$DIMAZIN
 70
     0
  9
$DIMDSEP
 70
    46
  9
$DIMATFIT
 70
     3
  9
$DIMFRAC
 70
     0
  9
$DIMLDRBLK
  1

  9
$DIMLUNIT
 70
     2
  9
$DIMLWD
 70
    -2
  9
$DIMLWE
 70
    -2
  9
$DIMTMOVE
 70
     2
  9
$DIMFXL
 40
1.0
  9
$DIMFXLON
 70
     0
  9
$DIMJOGANG
 40
0.7853981633974483
  9
$DIMTFILL
 70
     0
  9
$DIMTFILLCLR
 70
     0
  9
$DIMARCSYM
 70
     0
  9
$DIMLTYPE
  6

  9
$DIMLTEX1
  6

  9
$DIMLTEX2
  6

  9
$LUNITS
 70
     2
  9
$LUPREC
 70
     1
  9
$SKETCHINC
 40
12.0
  9
$FILLETRAD
 40
0.0
  9
$AUNITS
 70
     0
  9
$AUPREC
 70
     0
  9
$MENU
  1
acad
  9
$ELEVATION
 40
0.0
  9
$PELEVATION
 40
0.0
  9
$THICKNESS
 40
0.0
  9
$LIMCHECK
 70
     0
  9
$CHAMFERA
 40
0.0
  9
$CHAMFERB
 40
0.0
  9
$CHAMFERC
 40
0.0
  9
$CHAMFERD
 40
0.0
  9
$SKPOLY
 70
     0
  9
$TDCREATE
 40
2449974.465972223
  9
$TDUCREATE
 40
2449974.382643287
  9
$TDUPDATE
 40
2457462.644583333
  9
$TDUUPDATE
 40
2457462.602920359
  9
$TDINDWG
 40
2.6719885995
  9
$TDUSRTIMER
 40
2.6719885995
  9
$USRTIMER
 70
     1
  9
$ANGBASE
 50
0.0
  9
$ANGDIR
 70
     0
  9
$PDMODE
 70
     1
  9
$PDSIZE
 40
0.0
  9
$PLINEWID
 40
0.0
  9
$SPLFRAME
 70
     0
  9
$SPLINETYPE
 70
     6
  9
$SPLINESEGS
 70
     8
  9
$HANDSEED
  5
3D4
  9
$SURFTAB1
 70
     6
  9
$SURFTAB2
 70
     6
  9
$SURFTYPE
 70
     6
  9
$SURFU
 70
     6
  9
$SURFV
 70
     6
  9
$UCSBASE
  2

  9
$UCSNAME
  2

  9
$UCSORG
 10
0.0
 20
0.0
 30
0.0
  9
$UCSXDIR
 10
1.0
 20
0.0
 30
0.0
  9
$UCSYDIR
 10
0.0
 20
1.0
 30
0.0
  9
$UCSORTHOREF
  2

  9
$UCSORTHOVIEW
 70
     0
  9
$UCSORGTOP
 10
0.0
 20
0.0
 30
0.0
  9
$UCSORGBOTTOM
 10
0.0
 20
0.0
 30
0.0
  9
$UCSORGLEFT
 10
0.0
 20
0.0
 30
0.0
  9
$UCSORGRIGHT
 10
0.0
 20
0.0
 30
0.0
  9
$UCSORGFRONT
 10
0.0
 20
0.0
 30
0.0
  9
$UCSORGBACK
 10
0.0
 20
0.0
 30
0.0
  9
$PUCSBASE
  2

  9
$PUCSNAME
  2

  9
$PUCSORG
 10
0.0
 20
0.0
 30
0.0
  9
$PUCSXDIR
 10
1.0
 20
0.0
 30
0.0
  9
$PUCSYDIR
 10
0.0
 20
1.0
 30
0.0
  9
$PUCSORTHOREF
  2

  9
$PUCSORTHOVIEW
 70
     0
  9
$PUCSORGTOP
 10
0.0
 20
0.0
 30
0.0
  9
$PUCSORGBOTTOM
 10
0.0
 20
0.0
 30
0.0
  9
$PUCSORGLEFT
 10
0.0
 20
0.0
 30
0.0
  9
$PUCSORGRIGHT
 10
0.0
 20
0.0
 30
0.0
  9
$PUCSORGFRONT
 10
0.0
 20
0.0
 30
0.0
  9
$PUCSORGBACK
 10
0.0
 20
0.0
 30
0.0
  9
$USERI1
 70
     0
  9
$USERI2
 70
     0
  9
$USERI3
 70
     0
  9
$USERI4
 70
     0
  9
$USERI5
 70
     0
  9
$USERR1
 40
0.0
  9
$USERR2
 40
0.0
  9
$USERR3
 40
0.0
  9
$USERR4
 40
0.0
  9
$USERR5
 40
0.0
  9
$WORLDVIEW
 70
     1
  9
$SHADEDGE
 70
     3
  9
$SHADEDIF
 70
    70
  9
$TILEMODE
 70
     1
  9
$MAXACTVP
 70
    16
  9
$PINSBASE
 10
0.0
 20
0.0
 30
0.0
  9
$PLIMCHECK
 70
     0
  9
$PEXTMIN
 10
1.000000000000000E+20
 20
1.000000000000000E+20
 30
1.000000000000000E+20
  9
$PEXTMAX
 10
-1.000000000000000E+20
 20
-1.000000000000000E+20
 30
-1.000000000000000E+20
  9
$PLIMMIN
 10
0.0
 20
0.0
  9
$PLIMMAX
 10
12.0
 20
9.0
  9
$UNITMODE
 70
     0
  9
$VISRETAIN
 70
     0
  9
$PLINEGEN
 70
     0
  9
$PSLTSCALE
 70
     1
  9
$TREEDEPTH
 70
  3020
  9
$CMLSTYLE
  2
Standard
  9
$CMLJUST
 70
     0
  9
$CMLSCALE
 40
1.0
  9
$PROXYGRAPHICS
 70
     1
  9
$MEASUREMENT
 70
     0
  9
$CELWEIGHT
370
    -1
  9
$ENDCAPS
280
     0
  9
$JOINSTYLE
280
     0
  9
$LWDISPLAY
290
     0
  9
$INSUNITS
 70
     0
  9
$HYPERLINKBASE
  1

  9
$STYLESHEET
  1

  9
$XEDIT
290
     1
  9
$CEPSNTYPE
380
     0
  9
$PSTYLEMODE
290
     1
  9
$FINGERPRINTGUID
  2
{1B098DC3-931A-AE46-A21B-50DEDDDE48DE}
  9
$VERSIONGUID
  2
{421A83A3-5A17-6446-8F5C-778B48BC0D61}
  9
$EXTNAMES
290
     1
  9
$PSVPSCALE
 40
0.0
  9
$OLESTARTUP
290
     0
  9
$SORTENTS
280
   127
  9
$INDEXCTL
280
     0
  9
$HIDETEXT
280
     1
  9
$XCLIPFRAME
290
     0
  9
$HALOGAP
280
     0
  9
$OBSCOLOR
 70
   257
  9
$OBSLTYPE
280
     0
  9
$INTERSECTIONDISPLAY
280
     0
  9
$INTERSECTIONCOLOR
 70
   257
  9
$DIMASSOC
280
     2
  9
$PROJECTNAME
  1

  9
$CAMERADISPLAY
290
     0
  9
$LENSLENGTH
 40
50.0
  9
$CAMERAHEIGHT
 40
0.0
  9
$STEPSPERSEC
 40
2.0
  9
$STEPSIZE
 40
6.0
  9
$3DDWFPREC
 40
2.0
  9
$PSOLWIDTH
 40
0.25
  9
$PSOLHEIGHT
 40
4.0
  9
$LOFTANG1
 40
1.570796326794896
  9
$LOFTANG2
 40
1.570796326794896
  9
$LOFTMAG1
 40
0.0
  9
$LOFTMAG2
 40
0.0
  9
$LOFTPARAM
 70
     7
  9
$LOFTNORMALS
280
     1
  9
$LATITUDE
 40
37.795
  9
$LONGITUDE
 40
-122.394
  9
$NORTHDIRECTION
 40
0.0
  9
$TIMEZONE
 70
 -8000
  9
$LIGHTGLYPHDISPLAY
280
     1
  9
$TILEMODELIGHTSYNCH
280
     1
  9
$CMATERIAL
347
38
  9
$SOLIDHIST
280
     0
  9
$SHOWHIST
280
     1
  9
$DWFFRAME
280
     2
  9
$DGNFRAME
280
     0
  9
$REALWORLDSCALE
290
     1
  9
$INTERFERECOLOR
 62
     1
  9
$INTERFEREOBJVS
345
53
  9
$INTERFEREVPVS
346
54
  9
$CSHADOW
280
     0
  9
$SHADOWPLANELOCATION
 40
0.0
  0
ENDSEC
  0
SECTION
  2
CLASSES
  0
CLASS
  1
ACDBDICTIONARYWDFLT
  2
AcDbDictionaryWithDefault
  3
ObjectDBX Classes
 90
        0
 91
        1
280
     0
281
     0
  0
CLASS
  1
MATERIAL
  2
AcDbMaterial
  3
ObjectDBX Classes
 90
     1153
 91
        3
280
     0
281
     0
  0
CLASS
  1
VISUALSTYLE
  2
AcDbVisualStyle
  3
ObjectDBX Classes
 90
     4095
 91
        3
280
     0
281
     0
  0
CLASS
  1
SCALE
  2
AcDbScale
  3
ObjectDBX Classes
 90
     1153
 91
       17
280
     0
281
     0
  0
CLASS
  1
TABLESTYLE
  2
AcDbTableStyle
  3
ObjectDBX Classes
 90
     4095
 91
        1
280
     0
281
     0
  0
CLASS
  1
MLEADERSTYLE
  2
AcDbMLeaderStyle
  3
ACDB_MLEADERSTYLE_CLASS
 90
     4095
 91
        0
280
     0
281
     0
  0
CLASS
  1
ACDB_TEXTOBJECTCONTEXTDATA_CLASS
  2
AcDbTextObjectContextData
  3
ObjectDBX Classes
 90
     1153
 91
        0
280
     0
281
     0
  0
CLASS
  1
SORTENTSTABLE
  2
AcDbSortentsTable
  3
ObjectDBX Classes
 90
        0
 91
        2
280
     0
281
     0
  0
CLASS
  1
DICTIONARYVAR
  2
AcDbDictionaryVar
  3
ObjectDBX Classes
 90
        0
 91
        6
280
     0
281
     0
  0
CLASS
  1
ACDBSECTIONVIEWSTYLE
  2
AcDbSectionViewStyle
  3
ObjectDBX Classes
 90
     1025
 91
        0
280
     0
281
     0
  0
CLASS
  1
ACDBDETAILVIEWSTYLE
  2
AcDbDetailViewStyle
  3
ObjectDBX Classes
 90
     1025
 91
        0
280
     0
281
     0
  0
CLASS
  1
DIMASSOC
  2
AcDbDimAssoc
  3
"AcDbDimAssoc|Product Desc:     AcDim ARX App For Dimension|Company:          Autodesk, Inc.|WEB Address:      www.autodesk.com"
 90
        0
 91
        0
280
     0
281
     0
  0
CLASS
  1
MULTILEADER
  2
AcDbMLeader
  3
ACDB_MLEADER_CLASS
 90
     1025
 91
        0
280
     0
281
     1
  0
CLASS
  1
ACDB_MLEADEROBJECTCONTEXTDATA_CLASS
  2
AcDbMLeaderObjectContextData
  3
ObjectDBX Classes
 90
     1153
 91
        0
280
     0
281
     0
  0
CLASS
  1
ACDB_MTEXTOBJECTCONTEXTDATA_CLASS
  2
AcDbMTextObjectContextData
  3
ObjectDBX Classes
 90
     1153
 91
        0
280
     0
281
     0
  0
CLASS
  1
SOLID_BACKGROUND
  2
AcDbSolidBackground
  3
SCENEOE
 90
     4095
 91
        0
280
     0
281
     0
  0
CLASS
  1
NPOCOLLECTION
  2
AcDbImpNonPersistentObjectsCollection
  3
ObjectDBX Classes
 90
     1153
 91
        0
280
     0
281
     0
  0
CLASS
  1
LSDEFINITION
  2
AcDbLSDefinition
  3
AcDgnLS
 90
        0
 91
        0
280
     0
281
     0
  0
CLASS
  1
LSCOMPOUNDCOMPONENT
  2
AcDbLSCompoundComponent
  3
AcDgnLS
 90
        0
 91
        0
280
     0
281
     0
  0
CLASS
  1
LSSTROKEPATTERNCOMPONENT
  2
AcDbLSStrokePatternComponent
  3
AcDgnLS
 90
        0
 91
        0
280
     0
281
     0
  0
CLASS
  1
CELLSTYLEMAP
  2
AcDbCellStyleMap
  3
ObjectDBX Classes
 90
     1152
 91
        1
280
     0
281
     0
  0
ENDSEC
  0
SECTION
  2
TABLES
  0
TABLE
  2
VPORT
  5
2C
330
0
100
AcDbSymbolTable
 70
     1
  0
VPORT
  5
2D
330
2C
100
AcDbSymbolTableRecord
100
AcDbViewportTableRecord
  2
*ACTIVE
 70
     0
 10
0.0
 20
0.0
 11
1.0
 21
1.0
 12
992.9214148437434
 22
2569.360770186264
 13
0.0
 23
0.0
 14
1.0
 24
1.0
 15
10.0
 25
10.0
 16
0.0
 26
0.0
 36
1.0
 17
0.0
 27
0.0
 37
0.0
 40
1092.782006102829
 41
2.300498753117206
 42
50.0
 43
0.0
 44
0.0
 50
0.0
 51
0.0
 71
     0
 72
  2000
 73
     1
 74
     0
 75
     0
 76
     0
 77
     0
 78
     0
281
     0
 65
     1
110
0.0
120
0.0
130
0.0
111
1.0
121
0.0
131
0.0
112
0.0
122
1.0
132
0.0
 79
     0
146
0.0
348
2E
 60
     3
 61
     5
292
     1
282
     0
141
0.0
142
0.0
 63
   250
421
  3355443
1001
ACAD_NAV_VCDISPLAY
1070
     3
  0
ENDTAB
  0
TABLE
  2
LTYPE
  5
27
330
0
100
AcDbSymbolTable
 70
     7
  0
LTYPE
  5
28
330
27
100
AcDbSymbolTableRecord
100
AcDbLinetypeTableRecord
  2
ByBlock
 70
     0
  3

 72
    65
 73
     0
 40
0.0
  0
LTYPE
  5
29
330
27
100
AcDbSymbolTableRecord
100
AcDbLinetypeTableRecord
  2
ByLayer
 70
     0
  3

 72
    65
 73
     0
 40
0.0
  0
LTYPE
  5
14
330
27
100
AcDbSymbolTableRecord
100
AcDbLinetypeTableRecord
  2
CONTINUOUS
 70
     0
  3
Durchgezogene Linie
 72
    65
 73
     0
 40
0.0
  0
LTYPE
  5
159
330
27
100
AcDbSymbolTableRecord
100
AcDbLinetypeTableRecord
  2
STRICHPUNKT2
 70
     0
  3
_._._._._._._._._._._._._._._._._._._._._._._._
 72
    65
 73
     4
 40
0.5
 49
0.25
 74
     0
 49
-0.125
 74
     0
 49
0.0
 74
     0
 49
-0.125
 74
     0
  0
LTYPE
  5
BA
330
27
100
AcDbSymbolTableRecord
100
AcDbLinetypeTableRecord
  2
VERDECKT2
 70
     0
  3
_ _ _ _ _ _ _ _ _ _ _ _ _ _ _ _ _ _ _ _ _ _ _ _
 72
    65
 73
     2
 40
0.1875
 49
0.125
 74
     0
 49
-0.0625
 74
     0
  0
LTYPE
  5
CD
330
27
100
AcDbSymbolTableRecord
100
AcDbLinetypeTableRecord
  2
VERDECKT
 70
     0
  3
__ __ __ __ __ __ __ __ __ __ __ __ __ __ __ __
 72
    65
 73
     2
 40
0.375
 49
0.25
 74
     0
 49
-0.125
 74
     0
  0
LTYPE
  5
203
330
27
100
AcDbSymbolTableRecord
100
AcDbLinetypeTableRecord
  2
STRICHPUNKT
 70
     0
  3
__ . __ . __ . __ . __ . __ . __ . __ . __ . __
 72
    65
 73
     4
 40
1.0
 49
0.5
 74
     0
 49
-0.25
 74
     0
 49
0.0
 74
     0
 49
-0.25
 74
     0
  0
LTYPE
  5
1CC
330
27
100
AcDbSymbolTableRecord
100
AcDbLinetypeTableRecord
  2
AUSGEZOGEN
 70
     0
  3
Ausgezogene Linie
 72
    65
 73
     0
 40
0.0
  0
LTYPE
  5
1C9
330
27
100
AcDbSymbolTableRecord
100
AcDbLinetypeTableRecord
  2
DOTS
 70
     0
  3
close
 72
    65
 73
     2
 40
0.1
 49
0.05
 74
     0
 49
-0.05
 74
     0
  0
ENDTAB
  0
TABLE
  2
LAYER
  5
1E
102
{ACAD_XDICTIONARY
360
1F
102
}
330
0
100
AcDbSymbolTable
 70
     7
  0
LAYER
  5
6
330
1E
100
AcDbSymbolTableRecord
100
AcDbLayerTableRecord
  2
0
 70
     0
 62
     7
  6
CONTINUOUS
370
    -3
390
7
347
A
  0
LAYER
  5
3AE
330
1E
100
AcDbSymbolTableRecord
100
AcDbLayerTableRecord
  2
Beschriftung
 70
     0
 62
     1
  6
CONTINUOUS
370
    -3
390
7
347
A
  0
LAYER
  5
6C
102
{ACAD_XDICTIONARY
360
6D
102
}
330
1E
100
AcDbSymbolTableRecord
100
AcDbLayerTableRecord
  2
Plankopf
 70
     0
 62
     7
  6
CONTINUOUS
370
     9
390
7
347
A
1001
AcAecLayerStandard
1000

1000

  0
LAYER
  5
4C
330
1E
100
AcDbSymbolTableRecord
100
AcDbLayerTableRecord
  2
Kasten
 70
     0
 62
     7
  6
CONTINUOUS
370
    30
390
7
347
A
1001
AcAecLayerStandard
1000

1000

1001
AcCmTransparency
1071
        0
  0
LAYER
  5
67
330
1E
100
AcDbSymbolTableRecord
100
AcDbLayerTableRecord
  2
Bauseitig_Beton
 70
     0
 62
     3
  6
CONTINUOUS
370
     5
390
7
347
A
1001
AcAecLayerStandard
1000

1000

1001
AcCmTransparency
1071
        0
  0
LAYER
  5
12E
330
1E
100
AcDbSymbolTableRecord
100
AcDbLayerTableRecord
  2
Zeichnung
 70
     0
 62
     7
  6
CONTINUOUS
370
    30
390
7
347
A
1001
AcAecLayerStandard
1000

1000

1001
AcCmTransparency
1071
        0
  0
LAYER
  5
AE
330
1E
100
AcDbSymbolTableRecord
100
AcDbLayerTableRecord
  2
3-t. Klapptreppe
 70
     0
 62
     7
  6
CONTINUOUS
370
    20
390
7
347
A
1001
AcAecLayerStandard
1000

1000

1001
AcCmTransparency
1071
        0
  0
ENDTAB
  0
TABLE
  2
STYLE
  5
24
330
0
100
AcDbSymbolTable
 70
     4
  0
STYLE
  5
25
330
24
100
AcDbSymbolTableRecord
100
AcDbTextStyleTableRecord
  2
STANDARD
 70
     0
 40
0.0
 41
1.0
 50
0.0
 71
     0
 42
3.5
  3
txt
  4

  0
STYLE
  5
4F
330
24
100
AcDbSymbolTableRecord
100
AcDbTextStyleTableRecord
  2
SIMPLEX
 70
     0
 40
0.0
 41
1.0
 50
0.0
 71
     0
 42
3.5
  3
C:\ACADWIN\FONTS\ISO.SHX
  4

1001
AcadAnnotative
1000
AnnotativeData
1002
{
1070
     1
1070
     1
1002
}
  0
STYLE
  5
84
330
24
100
AcDbSymbolTableRecord
100
AcDbTextStyleTableRecord
  2
TECHNICBOLD
 70
     0
 40
0.0
 41
1.0
 50
0.0
 71
     0
 42
3.5
  3
teb_____.pfb
  4

  0
STYLE
  5
3B0
330
24
100
AcDbSymbolTableRecord
100
AcDbTextStyleTableRecord
  2
Arial
 70
     0
 40
25.0
 41
1.0
 50
0.0
 71
     0
 42
25.0
  3
arial.ttf
  4

1001
ACAD
1000
Arial
1071
       34
  0
ENDTAB
  0
TABLE
  2
VIEW
  5
2A
330
0
100
AcDbSymbolTable
 70
     0
  0
ENDTAB
  0
TABLE
  2
UCS
  5
2B
330
0
100
AcDbSymbolTable
 70
     0
  0
ENDTAB
  0
TABLE
  2
APPID
  5
31
330
0
100
AcDbSymbolTable
 70
     8
  0
APPID
  5
23
330
31
100
AcDbSymbolTableRecord
100
AcDbRegAppTableRecord
  2
ACAD
 70
     0
  0
APPID
  5
50
330
31
100
AcDbSymbolTableRecord
100
AcDbRegAppTableRecord
  2
AcadAnnotative
 70
     0
  0
APPID
  5
30
330
31
100
AcDbSymbolTableRecord
100
AcDbRegAppTableRecord
  2
ACAD_NAV_VCDISPLAY
 70
     0
  0
APPID
  5
68
330
31
100
AcDbSymbolTableRecord
100
AcDbRegAppTableRecord
  2
GradientColor1ACI
 70
     0
  0
APPID
  5
69
330
31
100
AcDbSymbolTableRecord
100
AcDbRegAppTableRecord
  2
GradientColor2ACI
 70
     0
  0
APPID
  5
19
330
31
100
AcDbSymbolTableRecord
100
AcDbRegAppTableRecord
  2
ACAD_PSEXT
 70
     0
  0
APPID
  5
4D
330
31
100
AcDbSymbolTableRecord
100
AcDbRegAppTableRecord
  2
AcAecLayerStandard
 70
     0
  0
APPID
  5
4E
330
31
100
AcDbSymbolTableRecord
100
AcDbRegAppTableRecord
  2
AcCmTransparency
 70
     0
  0
ENDTAB
  0
TABLE
  2
DIMSTYLE
  5
32
330
0
100
AcDbSymbolTable
 70
     1
100
AcDbDimStyleTable
 71
     1
340
33
  0
DIMSTYLE
105
33
330
32
100
AcDbSymbolTableRecord
100
AcDbDimStyleTableRecord
  2
BEMASSUNG
 70
     0
 41
3.5
 42
0.1
 43
0.4
 44
1.8
 73
     0
 74
     0
 77
     1
 78
     8
140
3.5
141
5.0
146
0.5714285714285714
147
0.1
172
     1
176
     1
177
     1
178
     1
271
     1
272
     1
279
     2
284
     8
285
     8
286
     8
340
25
  0
ENDTAB
  0
TABLE
  2
BLOCK_RECORD
  5
1
330
0
100
AcDbSymbolTable
 70
     0
  0
BLOCK_RECORD
  5
2
102
{ACAD_XDICTIONARY
360
3
102
}
330
1
100
AcDbSymbolTableRecord
100
AcDbBlockTableRecord
  2
*Model_Space
340
16
 70
     0
280
     1
281
     0
  0
BLOCK_RECORD
  5
1A
330
1
100
AcDbSymbolTableRecord
100
AcDbBlockTableRecord
  2
*Paper_Space
340
1D
 70
     0
280
     1
281
     0
  0
ENDTAB
  0
ENDSEC
  0
SECTION
  2
BLOCKS
  0
BLOCK
  5
5
330
2
100
AcDbEntity
  8
0
100
AcDbBlockBegin
  2
*Model_Space
 70
     0
 10
0.0
 20
0.0
 30
0.0
  3
*Model_Space
  1

  0
ENDBLK
  5
15
330
2
100
AcDbEntity
  8
0
100
AcDbBlockEnd
  0
BLOCK
  5
1B
330
1A
100
AcDbEntity
 67
     1
  8
0
100
AcDbBlockBegin
  2
*Paper_Space
 70
     0
 10
0.0
 20
0.0
 30
0.0
  3
*Paper_Space
  1

  0
ENDBLK
  5
1C
330
1A
100
AcDbEntity
 67
     1
  8
0
100
AcDbBlockEnd
  0
ENDSEC
  0
SECTION
  2
ENTITIES
  0
HATCH
  5
66
330
2
100
AcDbEntity
  8
Bauseitig_Beton
100
AcDbHatch
 10
0.0
 20
0.0
 30
0.0
210
0.0
220
0.0
230
1.0
  2
ANSI33
 70
     0
 71
     1
 91
        1
 92
        1
 93
        4
 72
     1
 10
193.7999999999999
 20
2485.893391009476
 11
94.60336926743616
 21
2485.893391009476
 72
     1
 10
94.60336926743616
 20
2485.893391009476
 11
94.60336926743616
 21
2717.893391009476
 72
     1
 10
94.60336926743616
 20
2717.893391009476
 11
193.7999999999999
 21
2717.893391009476
 72
     1
 10
193.7999999999999
 20
2717.893391009476
 11
193.7999999999999
 21
2485.893391009476
 97
        1
330
2EB
 75
     1
 76
     1
 52
90.0
 41
40.0
 77
     0
 78
     2
 53
135.0
 43
2.500000000000682
 44
2042.000000000001
 45
-7.071067811865475
 46
-7.071067811865475
 79
     0
 53
135.0
 43
2.500000000000682
 44
2049.071067800001
 45
-7.071067811865475
 46
-7.071067811865475
 79
     2
 49
5.0
 49
-2.5
 98
        1
 10
2.500000000000682
 20
2042.000000000001
1001
GradientColor1ACI
1070
     5
1001
GradientColor2ACI
1070
     2
1001
ACAD
1010
0.0
1020
0.0
1030
0.0
  0
HATCH
  5
6A
330
2
100
AcDbEntity
  8
Bauseitig_Beton
100
AcDbHatch
 10
0.0
 20
0.0
 30
0.0
210
0.0
220
0.0
230
1.0
  2
ANSI33
 70
     0
 71
     1
 91
        1
 92
        1
 93
        4
 72
     1
 10
1302.996220898765
 20
2485.893391009474
 11
1203.799590166201
 21
2485.893391009474
 72
     1
 10
1203.799590166201
 20
2485.893391009474
 11
1203.799590166201
 21
2717.893391009476
 72
     1
 10
1203.799590166201
 20
2717.893391009476
 11
1302.996220898765
 21
2717.893391009476
 72
     1
 10
1302.996220898765
 20
2717.893391009476
 11
1302.996220898765
 21
2485.893391009474
 97
        1
330
25C
 75
     1
 76
     1
 52
90.0
 41
40.0
 77
     0
 78
     2
 53
135.0
 43
1111.696220898766
 44
2042.000000000001
 45
-7.071067811865475
 46
-7.071067811865475
 79
     0
 53
135.0
 43
1111.696220898766
 44
2049.071067800001
 45
-7.071067811865475
 46
-7.071067811865475
 79
     2
 49
5.0
 49
-2.5
 98
        1
 10
1111.696220898766
 20
2042.000000000001
1001
GradientColor1ACI
1070
     5
1001
GradientColor2ACI
1070
     2
1001
ACAD
1010
0.0
1020
0.0
1030
0.0
  0
LWPOLYLINE
  5
6B
330
2
100
AcDbEntity
  8
Plankopf
100
AcDbPolyline
 90
        4
 70
     1
 43
0.0
 10
0.0000000000000675
 20
2082.0
 10
1397.6
 20
2082.0
 10
1397.6
 20
3057.0
 10
0.0000000000000675
 20
3057.0
  0
LINE
  5
6E
330
2
100
AcDbEntity
  8
Plankopf
 62
     0
100
AcDbLine
 10
1144.159999999999
 20
2129.684265728
 30
0.0
 11
1310.303999999999
 21
2129.684265728
 31
0.0
  0
LINE
  5
6F
330
2
100
AcDbEntity
  8
Plankopf
 62
     0
100
AcDbLine
 10
1144.159999999999
 20
2141.60531456
 30
0.0
 11
1397.6
 21
2141.60531456
 31
0.0
  0
LINE
  5
70
330
2
100
AcDbEntity
  8
Plankopf
 62
     0
100
AcDbLine
 10
1003.359999999999
 20
2117.7632
 30
0.0
 11
1397.6
 21
2117.7632
 31
0.0
  0
LINE
  5
71
330
2
100
AcDbEntity
  8
Plankopf
 62
     0
100
AcDbLine
 10
862.5599999999993
 20
2153.5264
 30
0.0
 11
1353.952
 21
2153.5264
 31
0.0
  0
LINE
  5
72
330
2
100
AcDbEntity
  8
Plankopf
 62
     0
100
AcDbLine
 10
862.5599999999991
 20
2177.4624
 30
0.0
 11
1397.6
 21
2177.4624
 31
0.0
  0
LINE
  5
73
330
2
100
AcDbEntity
  8
Plankopf
 62
     0
100
AcDbLine
 10
862.5599999999989
 20
2177.4624
 30
0.0
 11
862.5599999999991
 21
2153.5264
 31
0.0
  0
LINE
  5
74
330
2
100
AcDbEntity
  8
Plankopf
 62
     0
100
AcDbLine
 10
862.5599999999991
 20
2153.5264
 30
0.0
 11
862.5599999999993
 21
2082.0
 31
0.0
  0
LINE
  5
75
330
2
100
AcDbEntity
  8
Plankopf
 62
     0
100
AcDbLine
 10
948.4479999999994
 20
2153.5264
 30
0.0
 11
948.4479999999996
 21
2177.4624
 31
0.0
  0
LINE
  5
76
330
2
100
AcDbEntity
  8
Plankopf
 62
     0
100
AcDbLine
 10
1062.495999999999
 20
2153.5264
 30
0.0
 11
1062.495999999999
 21
2177.4624
 31
0.0
  0
LINE
  5
77
330
2
100
AcDbEntity
  8
Plankopf
 62
     0
100
AcDbLine
 10
890.7199999999992
 20
2153.5264
 30
0.0
 11
890.7199999999994
 21
2177.4624
 31
0.0
  0
LINE
  5
78
330
2
100
AcDbEntity
  8
Plankopf
 62
     0
100
AcDbLine
 10
925.9199999999994
 20
2153.5264
 30
0.0
 11
925.9199999999994
 21
2177.4624
 31
0.0
  0
LINE
  5
79
330
2
100
AcDbEntity
  8
Plankopf
 62
     0
100
AcDbLine
 10
1003.359999999999
 20
2129.684265728
 30
0.0
 11
1144.159999999999
 21
2129.684265728
 31
0.0
  0
LINE
  5
7A
330
2
100
AcDbEntity
  8
Plankopf
 62
     0
100
AcDbLine
 10
1025.888
 20
2141.5584
 30
0.0
 11
1144.159999999999
 21
2141.5584
 31
0.0
  0
LINE
  5
7B
330
2
100
AcDbEntity
  8
Plankopf
 62
     0
100
AcDbLine
 10
1003.359999999999
 20
2082.0
 30
0.0
 11
1003.359999999999
 21
2153.5264
 31
0.0
  0
LINE
  5
7C
330
2
100
AcDbEntity
  8
Plankopf
 62
     0
100
AcDbLine
 10
1039.968
 20
2117.7632
 30
0.0
 11
1039.968
 21
2129.684265728
 31
0.0
  0
LINE
  5
7D
330
2
100
AcDbEntity
  8
Plankopf
 62
     0
100
AcDbLine
 10
1197.067143682837
 20
2117.7632
 30
0.0
 11
1197.067143682837
 21
2153.5264
 31
0.0
  0
LINE
  5
7E
330
2
100
AcDbEntity
  8
Plankopf
 62
     0
100
AcDbLine
 10
1144.159999999999
 20
2117.7632
 30
0.0
 11
1144.159999999999
 21
2153.5264
 31
0.0
  0
LINE
  5
7F
330
2
100
AcDbEntity
  8
Plankopf
 62
     0
100
AcDbLine
 10
1353.952
 20
2117.7632
 30
0.0
 11
1353.952
 21
2153.5264
 31
0.0
  0
LINE
  5
80
330
2
100
AcDbEntity
  8
Plankopf
 62
     0
100
AcDbLine
 10
1353.952
 20
2153.5264
 30
0.0
 11
1353.952
 21
2177.4624
 31
0.0
  0
LINE
  5
81
330
2
100
AcDbEntity
  8
Plankopf
 62
     0
100
AcDbLine
 10
1259.0528
 20
2153.5264
 30
0.0
 11
1259.0528
 21
2141.60531456
 31
0.0
  0
LINE
  5
82
330
2
100
AcDbEntity
  8
Plankopf
 62
     0
100
AcDbLine
 10
1310.303999999999
 20
2117.7632
 30
0.0
 11
1310.303999999999
 21
2141.60531456
 31
0.0
  0
TEXT
  5
83
330
2
100
AcDbEntity
  8
Plankopf
 62
     0
100
AcDbText
 10
915.4192174273019
 20
2125.286359070174
 30
0.0
 40
5.588351999999999
  1
Columbus Treppen AG
  7
TECHNICBOLD
100
AcDbText
  0
TEXT
  5
85
330
2
100
AcDbEntity
  8
Plankopf
 62
     0
100
AcDbText
 10
915.4192174273019
 20
2116.903831070174
 30
0.0
 40
5.588351999999999
  1
Industriestrasse 12
  7
TECHNICBOLD
100
AcDbText
  0
TEXT
  5
86
330
2
100
AcDbEntity
  8
Plankopf
 62
     0
100
AcDbText
 10
915.4192174273019
 20
2108.521303070174
 30
0.0
 40
5.588351999999999
  1
9245 Oberbüren
  7
TECHNICBOLD
100
AcDbText
  0
TEXT
  5
87
330
2
100
AcDbEntity
  8
Plankopf
 62
     0
100
AcDbText
 10
914.8296937720649
 20
2100.138775070174
 30
0.0
 40
5.588351999999999
  1
Tel. 071 - 955 96 00
  7
TECHNICBOLD
100
AcDbText
  0
TEXT
  5
88
330
2
100
AcDbEntity
  8
Plankopf
 62
     0
100
AcDbText
 10
915.4192174273019
 20
2091.756247070174
 30
0.0
 40
5.588351999999999
  1
Fax 071 - 955 96 60
  7
TECHNICBOLD
100
AcDbText
  0
TEXT
  5
89
330
2
100
AcDbEntity
  8
Plankopf
 62
     0
100
AcDbText
 10
873.4612291465452
 20
2139.679837904296
 30
0.0
 40
8.0256
  1
COLUMBUS TREPPEN
  7
TECHNICBOLD
100
AcDbText
  0
ARC
  5
8A
330
2
100
AcDbEntity
  8
Plankopf
 62
     0
100
AcDbCircle
 10
888.2564556567038
 20
2109.160313296623
 30
0.0
 40
7.73696
100
AcDbArc
 50
27.00000000000166
 51
332.9999999999983
  0
ARC
  5
8B
330
2
100
AcDbEntity
  8
Plankopf
 62
     0
100
AcDbCircle
 10
888.2564556567038
 20
2109.160313296623
 30
0.0
 40
13.11552
100
AcDbArc
 50
27.00000000000166
 51
332.9999999999983
  0
ARC
  5
8C
330
2
100
AcDbEntity
  8
Plankopf
 62
     0
100
AcDbCircle
 10
888.2564556567038
 20
2109.160313296623
 30
0.0
 40
20.33856
100
AcDbArc
 50
207.0000000000016
 51
152.9999999999983
  0
ARC
  5
8D
330
2
100
AcDbEntity
  8
Plankopf
 62
     0
100
AcDbCircle
 10
888.2564556567038
 20
2109.160313296623
 30
0.0
 40
14.96
100
AcDbArc
 50
207.0000000000016
 51
152.9999999999983
  0
LWPOLYLINE
  5
8E
330
2
100
AcDbEntity
  8
Plankopf
 62
     0
100
AcDbPolyline
 90
        2
 70
     0
 43
5.378559999999999
 10
877.830215656704
 20
2109.160313296623
 42
0.7883364345850938
 10
897.5463035194577
 20
2104.426899388619
 42
1.0
  0
LWPOLYLINE
  5
8F
330
2
100
AcDbEntity
  8
Plankopf
 62
     0
100
AcDbPolyline
 90
        2
 70
     0
 43
5.378559999999999
 10
897.5463035194577
 20
2113.893727204628
 42
0.7883364345850913
 10
877.830215656704
 20
2109.160313296623
 42
1.0
  0
LWPOLYLINE
  5
90
330
2
100
AcDbEntity
  8
Plankopf
 62
     0
100
AcDbPolyline
 90
        3
 70
     0
 43
5.378560000000001
 10
872.5308320294768
 20
2101.14770784938
 42
0.7883364345850931
 10
905.9057356567043
 20
2109.160313296623
 42
0.7883364345850921
 10
872.5308320294768
 20
2117.172918743866
 42
1.0
  0
LINE
  5
91
330
2
100
AcDbEntity
  8
Plankopf
 62
     0
100
AcDbLine
 10
874.9269980548458
 20
2102.36861542052
 30
0.0
 11
870.1346660041069
 21
2099.92680027824
 31
0.0
  0
LINE
  5
92
330
2
100
AcDbEntity
  8
Plankopf
 62
     0
100
AcDbLine
 10
874.9269980548458
 20
2115.952011172727
 30
0.0
 11
870.1346660041069
 21
2118.393826315006
 31
0.0
  0
CIRCLE
  5
93
330
2
100
AcDbEntity
  8
Plankopf
 62
     0
100
AcDbCircle
 10
888.2564556567038
 20
2109.160313296623
 30
0.0
 40
5.892480000000001
  0
LWPOLYLINE
  5
94
330
2
100
AcDbEntity
  8
Plankopf
 62
     0
100
AcDbPolyline
 90
        2
 70
     1
 43
5.892480000000001
 10
885.3102156567036
 20
2109.160313296623
 42
1.0
 10
891.2026956567039
 20
2109.160313296623
 42
1.0
  0
LINE
  5
95
330
2
100
AcDbEntity
  8
Plankopf
 62
     0
100
AcDbLine
 10
895.1501374940887
 20
2105.647806959758
 30
0.0
 11
899.9424695448267
 21
2103.205991817479
 31
0.0
  0
LINE
  5
96
330
2
100
AcDbEntity
  8
Plankopf
 62
     0
100
AcDbLine
 10
895.1501374940887
 20
2112.672819633488
 30
0.0
 11
899.9424695448267
 21
2115.114634775767
 31
0.0
  0
CIRCLE
  5
97
330
2
100
AcDbEntity
  8
Plankopf
 62
     0
100
AcDbCircle
 10
996.2238317771232
 20
2144.321588139085
 30
0.0
 40
3.223971823094429
  0
TEXT
  5
98
330
2
100
AcDbEntity
  8
Plankopf
 62
     0
100
AcDbText
 10
994.558454369864
 20
2142.699851632732
 30
0.0
 40
4.35950592
  1
c
  7
TECHNICBOLD
100
AcDbText
  0
TEXT
  5
99
330
2
100
AcDbEntity
  8
Plankopf
 62
     0
100
AcDbText
 10
1006.158304045347
 20
2120.90771456
 30
0.0
 40
5.632
  1
Sach-Nr.
  7
TECHNICBOLD
100
AcDbText
  0
TEXT
  5
9A
330
2
100
AcDbEntity
  8
Plankopf
 62
     0
100
AcDbText
 10
1007.865599999998
 20
2108.986666666669
 30
0.0
 40
5.632
  1
Benennung
  7
TECHNICBOLD
100
AcDbText
  0
TEXT
  5
9B
330
2
100
AcDbEntity
  8
Plankopf
 62
     0
100
AcDbText
 10
1146.068742732146
 20
2132.828780288
 30
0.0
 40
5.632
  1
Ursprung
  7
TECHNICBOLD
100
AcDbText
  0
TEXT
  5
9C
330
2
100
AcDbEntity
  8
Plankopf
 62
     0
100
AcDbText
 10
1146.068742732146
 20
2120.90771456
 30
0.0
 40
5.632
  1
Ersatz für
  7
TECHNICBOLD
100
AcDbText
  0
TEXT
  5
9D
330
2
100
AcDbEntity
  8
Plankopf
 62
     0
100
AcDbText
 10
1146.068742732146
 20
2144.74982912
 30
0.0
 40
5.632
  1
Gezeichnet
  7
TECHNICBOLD
100
AcDbText
  0
TEXT
  5
9E
330
2
100
AcDbEntity
  8
Plankopf
 62
     0
100
AcDbText
 10
1311.804732345299
 20
2133.485838553405
 30
0.0
 40
4.5056
  1
Anzahl Blatt
  7
TECHNICBOLD
100
AcDbText
  0
TEXT
  5
9F
330
2
100
AcDbEntity
  8
Plankopf
 62
     0
100
AcDbText
 10
1362.532152321873
 20
2133.485838553405
 30
0.0
 40
4.5056
  1
Blatt-Nr.
  7
TECHNICBOLD
100
AcDbText
  0
TEXT
  5
A0
330
2
100
AcDbEntity
  8
Plankopf
 62
     0
100
AcDbText
 10
1358.457599999997
 20
2168.685866666669
 30
0.0
 40
5.632
  1
Massstab
  7
TECHNICBOLD
100
AcDbText
  0
TEXT
  5
A1
330
2
100
AcDbEntity
  8
Plankopf
 62
     0
100
AcDbText
 10
874.4497777777759
 20
2161.789649839667
 30
0.0
 40
5.632
  1
*
  7
TECHNICBOLD
 72
     1
 11
876.6399999999981
 21
2161.789649839667
 31
0.0
100
AcDbText
  0
TEXT
  5
A2
330
2
100
AcDbEntity
  8
Plankopf
 62
     0
100
AcDbText
 10
906.1297777777758
 20
2161.789649839667
 30
0.0
 40
5.632
  1
*
  7
TECHNICBOLD
 72
     1
 11
908.319999999998
 21
2161.789649839667
 31
0.0
100
AcDbText
  0
TEXT
  5
A3
330
2
100
AcDbEntity
  8
Plankopf
 62
     0
100
AcDbText
 10
1366.44607233358
 20
2148.776242037114
 30
0.0
 40
12.672
  1
1:5
  7
TECHNICBOLD
100
AcDbText
  0
TEXT
  5
A4
330
2
100
AcDbEntity
  8
Plankopf
 62
     0
100
AcDbText
 10
1326.794390702388
 20
2124.193875544901
 30
0.0
 40
4.5056
  1
1
  7
TECHNICBOLD
100
AcDbText
  0
TEXT
  5
A5
330
2
100
AcDbEntity
  8
Plankopf
 62
     0
100
AcDbText
 10
1377.521810678961
 20
2124.193875544901
 30
0.0
 40
4.5056
  1
1
  7
TECHNICBOLD
100
AcDbText
  0
LINE
  5
A6
330
2
100
AcDbEntity
  8
Plankopf
 62
     0
100
AcDbLine
 10
1039.968
 20
2129.5904
 30
0.0
 11
1039.968
 21
2153.5264
 31
0.0
  0
LINE
  5
A7
330
2
100
AcDbEntity
  8
Plankopf
 62
     0
100
AcDbLine
 10
1025.888
 20
2129.5904
 30
0.0
 11
1025.888
 21
2153.5264
 31
0.0
  0
TEXT
  5
A8
330
2
100
AcDbEntity
  8
Plankopf
 62
     0
100
AcDbText
 10
1005.905951342074
 20
2139.600120536971
 30
0.0
 40
5.632
  1
änd.
  7
TECHNICBOLD
 72
     1
 11
1013.917553681255
 21
2139.600120536971
 31
0.0
100
AcDbText
  0
TEXT
  5
A9
102
{ACAD_XDICTIONARY
360
AA
102
}
330
2
100
AcDbEntity
  8
Plankopf
 62
     0
100
AcDbText
 10
1125.604206366644
 20
2164.480007550543
 30
0.0
 40
7.601428799999998
  1
Deckenanschluss 10 Schnitt längs
  7
TECHNICBOLD
100
AcDbText
1001
AcadAnnotative
1000
AnnotativeData
1002
{
1070
     1
1070
     0
1002
}
  0
CIRCLE
  5
AD
330
2
100
AcDbEntity
  8
3-t. Klapptreppe
100
AcDbCircle
 10
1086.421557955048
 20
2864.866327314869
 30
0.0
 40
2.93684204
  0
CIRCLE
  5
AF
330
2
100
AcDbEntity
  8
3-t. Klapptreppe
100
AcDbCircle
 10
1114.475074294875
 20
2835.985156414474
 30
0.0
 40
2.93684204
  0
CIRCLE
  5
B0
330
2
100
AcDbEntity
  8
3-t. Klapptreppe
100
AcDbCircle
 10
1058.368041615223
 20
2893.747498215263
 30
0.0
 40
2.93684204
  0
LINE
  5
B1
330
2
100
AcDbEntity
  8
3-t. Klapptreppe
100
AcDbLine
 10
1029.269958775377
 20
2896.510283810901
 30
0.0
 11
1120.686417169288
 21
2802.396792796042
 31
0.0
  0
LINE
  5
B2
330
2
100
AcDbEntity
  8
3-t. Klapptreppe
100
AcDbLine
 10
1127.619690333956
 20
2818.47030333043
 30
0.0
 11
1128.066213519688
 21
2849.186811140839
 31
0.0
  0
LINE
  5
B3
330
2
100
AcDbEntity
  8
3-t. Klapptreppe
100
AcDbLine
 10
1029.395849242916
 20
2905.17033921877
 30
0.0
 11
1074.321381828906
 21
2904.517260683446
 31
0.0
  0
LINE
  5
B4
330
2
100
AcDbEntity
  8
3-t. Klapptreppe
100
AcDbLine
 10
1029.269958775377
 20
2896.510283810901
 30
0.0
 11
1029.395849242916
 21
2905.17033921877
 31
0.0
  0
LINE
  5
B5
330
2
100
AcDbEntity
  8
3-t. Klapptreppe
100
AcDbLine
 10
1074.321381828906
 20
2904.517260683446
 30
0.0
 11
1128.066213520331
 21
2849.186811185056
 31
0.0
  0
CIRCLE
  5
B6
330
2
100
AcDbEntity
  8
3-t. Klapptreppe
100
AcDbCircle
 10
1114.475074294875
 20
2835.985156414474
 30
0.0
 40
3.031578879999999
  0
CIRCLE
  5
B7
330
2
100
AcDbEntity
  8
3-t. Klapptreppe
100
AcDbCircle
 10
1086.421557955048
 20
2864.866327314869
 30
0.0
 40
3.031578879999999
  0
CIRCLE
  5
B8
330
2
100
AcDbEntity
  8
3-t. Klapptreppe
100
AcDbCircle
 10
1058.368041615223
 20
2893.747498215263
 30
0.0
 40
3.031578879999999
  0
CIRCLE
  5
B9
330
2
100
AcDbEntity
  8
3-t. Klapptreppe
  6
VERDECKT2
100
AcDbCircle
 10
1127.481986767899
 20
2808.997620169901
 30
0.0
 40
3.789473599999999
  0
ARC
  5
BB
330
2
100
AcDbEntity
  8
3-t. Klapptreppe
100
AcDbCircle
 10
1127.48198679348
 20
2808.99762016953
 30
0.0
 40
9.473683999999998
100
AcDbArc
 50
224.167154930559
 51
89.16715508524211
  0
LWPOLYLINE
  5
BC
330
2
100
AcDbEntity
  8
3-t. Klapptreppe
100
AcDbPolyline
 90
        5
 70
     1
 43
0.0
 10
299.2792067525081
 20
2899.97882159685
 10
308.3997318136064
 20
2918.81796462593
 10
1128.905044828613
 20
2906.890350624059
 10
1127.596860942621
 20
2816.899860599165
 10
331.3652170613607
 20
2828.474610394986
  0
CIRCLE
  5
BD
330
2
100
AcDbEntity
  8
3-t. Klapptreppe
100
AcDbCircle
 10
376.102612742327
 20
2779.050569972031
 30
0.0
 40
2.93684204
  0
CIRCLE
  5
BE
330
2
100
AcDbEntity
  8
3-t. Klapptreppe
100
AcDbCircle
 10
346.6672160571134
 20
2751.579143783696
 30
0.0
 40
2.93684204
  0
CIRCLE
  5
BF
330
2
100
AcDbEntity
  8
3-t. Klapptreppe
100
AcDbCircle
 10
405.5380092164869
 20
2806.521995963396
 30
0.0
 40
2.93684204
  0
CIRCLE
  5
C0
330
2
100
AcDbEntity
  8
3-t. Klapptreppe
100
AcDbCircle
 10
1083.732528404644
 20
2755.208623710367
 30
0.0
 40
2.93684204
  0
CIRCLE
  5
C1
330
2
100
AcDbEntity
  8
3-t. Klapptreppe
100
AcDbCircle
 10
1054.297131935085
 20
2727.737197713769
 30
0.0
 40
2.93684204
  0
CIRCLE
  5
C2
330
2
100
AcDbEntity
  8
3-t. Klapptreppe
100
AcDbCircle
 10
1113.167924514255
 20
2782.680050287334
 30
0.0
 40
2.93684204
  0
LINE
  5
C3
330
2
100
AcDbEntity
  8
3-t. Klapptreppe
100
AcDbLine
 10
1124.105162575632
 20
2711.152799671225
 30
0.0
 11
332.8087295686573
 21
2738.462052986305
 31
0.0
  0
LINE
  5
C4
330
2
100
AcDbEntity
  8
3-t. Klapptreppe
100
AcDbLine
 10
332.8087295686573
 20
2738.462052986305
 30
0.0
 11
335.9129648575067
 21
2828.408500182798
 31
0.0
  0
LINE
  5
C5
330
2
100
AcDbEntity
  8
3-t. Klapptreppe
100
AcDbLine
 10
335.9129648575067
 20
2828.408500182798
 30
0.0
 11
1127.20939786448
 21
2801.099246867718
 31
0.0
  0
LINE
  5
C6
330
2
100
AcDbEntity
  8
3-t. Klapptreppe
100
AcDbLine
 10
1127.20939786448
 20
2801.099246867718
 30
0.0
 11
1124.105162575632
 21
2711.152799671225
 31
0.0
  0
LINE
  5
C7
330
2
100
AcDbEntity
  8
3-t. Klapptreppe
100
AcDbLine
 10
332.6799157089254
 20
2734.729620397555
 30
0.0
 11
333.7394862000933
 21
2765.431095042864
 31
0.0
  0
CIRCLE
  5
C8
330
2
100
AcDbEntity
  8
3-t. Klapptreppe
100
AcDbCircle
 10
346.6672160571134
 20
2751.579143783696
 30
0.0
 40
3.031578879999999
  0
CIRCLE
  5
C9
330
2
100
AcDbEntity
  8
3-t. Klapptreppe
100
AcDbCircle
 10
376.1026125314247
 20
2779.050569775201
 30
0.0
 40
3.031578879999999
  0
CIRCLE
  5
CA
330
2
100
AcDbEntity
  8
3-t. Klapptreppe
100
AcDbCircle
 10
405.5380090057355
 20
2806.521995766704
 30
0.0
 40
3.031578879999999
  0
CIRCLE
  5
CB
330
2
100
AcDbEntity
  8
3-t. Klapptreppe
  6
VERDECKT2
100
AcDbCircle
 10
332.3531540988147
 20
2725.261573324264
 30
0.0
 40
3.789473599999999
  0
ARC
  5
CC
330
2
100
AcDbEntity
  8
3-t. Klapptreppe
  6
VERDECKT
100
AcDbCircle
 10
332.3531540732461
 20
2725.261573325147
 30
0.0
 40
9.473683999999998
100
AcDbArc
 50
88.02339018480408
 51
313.0233903395224
  0
CIRCLE
  5
CE
330
2
100
AcDbEntity
  8
3-t. Klapptreppe
100
AcDbCircle
 10
-405.5380092213895
 20
2806.521995958444
 30
-0.0000000000002174
 40
3.03157888
210
0.0000000000000001
220
-0.0000000000000001
230
-1.0
  0
CIRCLE
  5
CF
330
2
100
AcDbEntity
  8
3-t. Klapptreppe
100
AcDbCircle
 10
-362.4655680207597
 20
2808.008513737639
 30
-0.0000000000002174
 40
3.789473599999999
210
0.0000000000000001
220
-0.0000000000000001
230
-1.0
  0
CIRCLE
  5
D0
330
2
100
AcDbEntity
  8
3-t. Klapptreppe
100
AcDbCircle
 10
-376.102612742327
 20
2779.050569972031
 30
-0.0000000000002174
 40
3.03157888
210
0.0000000000000001
220
-0.0000000000000001
230
-1.0
  0
CIRCLE
  5
D1
330
2
100
AcDbEntity
  8
3-t. Klapptreppe
100
AcDbCircle
 10
1054.297131935085
 20
2727.737197713769
 30
0.0
 40
3.031578879999999
  0
CIRCLE
  5
D2
330
2
100
AcDbEntity
  8
3-t. Klapptreppe
100
AcDbCircle
 10
1083.732528404644
 20
2755.208623710367
 30
0.0
 40
3.031578879999999
  0
CIRCLE
  5
D3
330
2
100
AcDbEntity
  8
3-t. Klapptreppe
100
AcDbCircle
 10
1113.167924874201
 20
2782.680049706966
 30
0.0
 40
3.031578879999999
  0
CIRCLE
  5
D4
330
2
100
AcDbEntity
  8
3-t. Klapptreppe
100
AcDbCircle
 10
399.0393682916224
 20
2641.57592546097
 30
0.0
 40
3.031578879999999
  0
CIRCLE
  5
D5
330
2
100
AcDbEntity
  8
3-t. Klapptreppe
100
AcDbCircle
 10
370.5690169449467
 20
2670.04627680765
 30
0.0
 40
3.031578879999999
  0
CIRCLE
  5
D6
330
2
100
AcDbEntity
  8
3-t. Klapptreppe
100
AcDbCircle
 10
342.098665598271
 20
2698.516628154332
 30
0.0
 40
3.031578879999999
  0
LINE
  5
D7
330
2
100
AcDbEntity
  8
3-t. Klapptreppe
100
AcDbLine
 10
318.5130542916227
 20
2646.312767460969
 30
0.0
 11
376.3025266916224
 21
2646.312767460969
 31
0.0
  0
LINE
  5
D8
330
2
100
AcDbEntity
  8
3-t. Klapptreppe
100
AcDbLine
 10
376.3025266916224
 20
2677.575924660968
 30
0.0
 11
376.3025266916224
 21
2646.312767460969
 31
0.0
  0
LINE
  5
D9
330
2
100
AcDbEntity
  8
3-t. Klapptreppe
100
AcDbLine
 10
318.5130542916227
 20
2658.628556660969
 30
0.0
 11
318.5130542916227
 21
2646.312767460969
 31
0.0
  0
LINE
  5
DA
330
2
100
AcDbEntity
  8
3-t. Klapptreppe
100
AcDbLine
 10
285.3551602916227
 20
2658.628556660969
 30
0.0
 11
285.3551602916227
 21
2655.786451460969
 31
0.0
  0
LINE
  5
DB
330
2
100
AcDbEntity
  8
3-t. Klapptreppe
100
AcDbLine
 10
306.197265091625
 20
2632.102241460968
 30
0.0
 11
399.0393682916224
 21
2632.102241460968
 31
0.0
  0
LINE
  5
DC
330
2
100
AcDbEntity
  8
3-t. Klapptreppe
100
AcDbLine
 10
376.3025266916224
 20
2677.575924660968
 30
0.0
 11
404.7235786916399
 21
2649.154872660956
 31
0.0
  0
ARC
  5
DD
330
2
100
AcDbEntity
  8
3-t. Klapptreppe
100
AcDbCircle
 10
399.0393682916224
 20
2641.57592546097
 30
0.0
 40
9.473684
100
AcDbArc
 50
270.0
 51
53.13010235417881
  0
CIRCLE
  5
DE
330
2
100
AcDbEntity
  8
3-t. Klapptreppe
100
AcDbCircle
 10
399.0393682916224
 20
2641.57592546097
 30
0.0
 40
4.78421042
  0
LINE
  5
DF
330
2
100
AcDbEntity
  8
3-t. Klapptreppe
100
AcDbLine
 10
285.355160291625
 20
2658.628556660969
 30
0.0
 11
318.5130542916227
 21
2658.628556660969
 31
0.0
  0
LINE
  5
E0
330
2
100
AcDbEntity
  8
3-t. Klapptreppe
100
AcDbLine
 10
285.355160291625
 20
2655.786451460969
 30
0.0
 11
318.5130542916227
 21
2655.786451460969
 31
0.0
  0
LINE
  5
E1
330
2
100
AcDbEntity
  8
3-t. Klapptreppe
100
AcDbLine
 10
296.723581091625
 20
2641.575925460969
 30
0.0
 11
296.723581091625
 21
2632.102241460968
 31
0.0
  0
LINE
  5
E2
330
2
100
AcDbEntity
  8
3-t. Klapptreppe
100
AcDbLine
 10
293.0365256970322
 20
2632.102241460968
 30
0.0
 11
285.355160291625
 21
2655.786451460969
 31
0.0
  0
ARC
  5
E3
330
2
100
AcDbEntity
  8
3-t. Klapptreppe
100
AcDbCircle
 10
301.4604230916252
 20
2641.575925460969
 30
0.0
 40
4.736842
100
AcDbArc
 50
0.0
 51
180.0
  0
LINE
  5
E4
330
2
100
AcDbEntity
  8
3-t. Klapptreppe
100
AcDbLine
 10
306.197265091625
 20
2641.575925460969
 30
0.0
 11
306.197265091625
 21
2632.102241460968
 31
0.0
  0
LINE
  5
E5
330
2
100
AcDbEntity
  8
3-t. Klapptreppe
100
AcDbLine
 10
296.723581091625
 20
2632.102241460968
 30
0.0
 11
293.0365256970322
 21
2632.102241460968
 31
0.0
  0
CIRCLE
  5
E6
330
2
100
AcDbEntity
  8
3-t. Klapptreppe
100
AcDbCircle
 10
370.5690169449467
 20
2670.04627680765
 30
0.0
 40
2.93684204
  0
CIRCLE
  5
E7
330
2
100
AcDbEntity
  8
3-t. Klapptreppe
100
AcDbCircle
 10
342.0986655982706
 20
2698.516628154332
 30
0.0
 40
2.93684204
  0
CIRCLE
  5
E8
330
2
100
AcDbEntity
  8
3-t. Klapptreppe
100
AcDbCircle
 10
399.0393682916224
 20
2641.575925460969
 30
0.0
 40
2.93684204
  0
CIRCLE
  5
E9
330
2
100
AcDbEntity
  8
3-t. Klapptreppe
100
AcDbCircle
 10
503.7771018600117
 20
2661.893389009476
 30
0.0
 40
2.93684204
  0
CIRCLE
  5
EA
330
2
100
AcDbEntity
  8
3-t. Klapptreppe
100
AcDbCircle
 10
503.7771018600117
 20
2690.314441009476
 30
0.0
 40
2.93684204
  0
CIRCLE
  5
EB
330
2
100
AcDbEntity
  8
3-t. Klapptreppe
100
AcDbCircle
 10
1015.356037860012
 20
2661.893389009476
 30
0.0
 40
2.93684204
  0
CIRCLE
  5
EC
330
2
100
AcDbEntity
  8
3-t. Klapptreppe
100
AcDbCircle
 10
1015.356037860012
 20
2690.314441009476
 30
0.0
 40
2.93684204
  0
LINE
  5
ED
330
2
100
AcDbEntity
  8
3-t. Klapptreppe
100
AcDbLine
 10
1138.513929860011
 20
2622.103916209476
 30
0.0
 11
328.7008532242789
 21
2622.103916209475
 31
0.0
  0
LINE
  5
EE
330
2
100
AcDbEntity
  8
3-t. Klapptreppe
100
AcDbLine
 10
328.7008532242789
 20
2622.103916209475
 30
0.0
 11
328.7008532242789
 21
2712.103914209475
 31
0.0
  0
LINE
  5
EF
330
2
100
AcDbEntity
  8
3-t. Klapptreppe
100
AcDbLine
 10
328.7008532242789
 20
2712.103914209475
 30
0.0
 11
1096.546242055784
 21
2712.103914209476
 31
0.0
  0
LINE
  5
F0
330
2
100
AcDbEntity
  8
3-t. Klapptreppe
100
AcDbLine
 10
1096.546242055784
 20
2712.103914209476
 30
0.0
 11
1138.513929860011
 21
2622.103916209476
 31
0.0
  0
LINE
  5
F1
330
2
100
AcDbEntity
  8
3-t. Klapptreppe
  6
VERDECKT
100
AcDbLine
 10
484.8297338600125
 20
2575.682864609476
 30
0.0
 11
522.7244698600143
 21
2575.682864609477
 31
0.0
  0
LINE
  5
F2
330
2
100
AcDbEntity
  8
3-t. Klapptreppe
  6
VERDECKT
100
AcDbLine
 10
500.6507861400132
 20
2575.682864609476
 30
0.0
 11
500.6507861400132
 21
2571.893391009477
 31
0.0
  0
LINE
  5
F3
330
2
100
AcDbEntity
  8
3-t. Klapptreppe
  6
VERDECKT
100
AcDbLine
 10
506.9034175800136
 20
2575.682864609476
 30
0.0
 11
506.9034175800136
 21
2571.893391009476
 31
0.0
  0
LINE
  5
F4
330
2
100
AcDbEntity
  8
3-t. Klapptreppe
  6
VERDECKT
100
AcDbLine
 10
996.4086698600127
 20
2575.682864609476
 30
0.0
 11
1034.303405860012
 21
2575.682864609476
 31
0.0
  0
LINE
  5
F5
330
2
100
AcDbEntity
  8
3-t. Klapptreppe
  6
VERDECKT
100
AcDbLine
 10
1012.229722140011
 20
2575.682864609476
 30
0.0
 11
1012.229722140011
 21
2571.893391009475
 31
0.0
  0
LINE
  5
F6
330
2
100
AcDbEntity
  8
3-t. Klapptreppe
  6
VERDECKT
100
AcDbLine
 10
1018.482353580012
 20
2575.682864609476
 30
0.0
 11
1018.482353580012
 21
2571.893391009476
 31
0.0
  0
LWPOLYLINE
  5
F7
330
2
100
AcDbEntity
  8
3-t. Klapptreppe
100
AcDbPolyline
 90
        4
 70
     1
 43
0.0
 10
484.8297338600134
 20
2571.893391009476
 10
484.8297338600116
 20
2699.788125009476
 10
522.7244698600125
 20
2699.788125009476
 10
522.7244698600133
 20
2571.893391009476
  0
LWPOLYLINE
  5
F8
330
2
100
AcDbEntity
  8
3-t. Klapptreppe
100
AcDbPolyline
 90
        4
 70
     1
 43
0.0
 10
996.4086698600127
 20
2571.893391009475
 10
996.4086698600109
 20
2699.788125009476
 10
1034.303405860011
 20
2699.788125009476
 10
1034.303405860012
 20
2571.893391009476
  0
LWPOLYLINE
  5
F9
330
2
100
AcDbEntity
  8
3-t. Klapptreppe
100
AcDbPolyline
 90
        8
 70
     1
 43
0.0
 10
-377.9376551922805
 20
2769.100469554774
 10
-373.9207030182484
 20
2769.239102766019
 10
-350.9507106212291
 20
2793.851251900969
 10
-351.4804741900148
 20
2809.201361091301
 10
-362.0328927741411
 20
2819.049707668452
 10
-406.6210619060115
 20
2817.510879023619
 10
-415.4765568710438
 20
2808.022292393897
 10
-415.3379236597979
 20
2804.005340219863
210
0.0000000000000001
220
-0.0000000000000001
230
-1.0
  0
LWPOLYLINE
  5
FA
330
2
100
AcDbEntity
  8
3-t. Klapptreppe
100
AcDbPolyline
 90
        5
 70
     0
 43
0.0
 10
338.8170190130236
 20
2718.335597684692
 10
434.7365345741491
 20
2807.85523011696
 10
435.0352644694437
 20
2816.511047151005
 10
390.1317191794271
 20
2818.060760058536
 10
333.7394862016181
 20
2765.431095087059
  0
LWPOLYLINE
  5
FB
330
2
100
AcDbEntity
  8
3-t. Klapptreppe
100
AcDbPolyline
 90
        6
 70
     0
 43
0.0
 10
328.7008532246018
 20
2715.838568951207
 10
328.7008532219429
 20
2685.118815778007
 10
383.2442560345969
 20
2630.575412946488
 10
428.1745352172261
 20
2630.575412942601
 10
428.1745352179732
 20
2639.236383350587
 10
335.3997594508037
 20
2732.011159149846
  0
LWPOLYLINE
  5
FC
330
2
100
AcDbEntity
  8
3-t. Klapptreppe
100
AcDbPolyline
 90
        6
 70
     0
 43
0.0
 10
1121.018121861398
 20
2815.923595809092
 10
1025.098606367562
 20
2726.403963377545
 10
1024.799876473106
 20
2717.748146324365
 10
1069.70342173804
 20
2716.198433425479
 10
1126.095654733619
 20
2768.828098450035
 10
1127.155225219472
 20
2799.529573095528
  0
TEXT
  5
FD
330
2
100
AcDbEntity
  8
Plankopf
 62
     0
100
AcDbText
 10
1031.716376303638
 20
2144.70291456
 30
0.0
 40
5.632
  1
1
  7
TECHNICBOLD
100
AcDbText
  0
TEXT
  5
FE
330
2
100
AcDbEntity
  8
Plankopf
 62
     0
100
AcDbText
 10
1043.100412597007
 20
2144.524608079728
 30
0.0
 40
4.5056
  1
20.11.12 Neue Ausführung EI 30 
  7
TECHNICBOLD
100
AcDbText
  0
TEXT
  5
FF
330
2
100
AcDbEntity
  8
Plankopf
 62
     0
100
AcDbText
 10
1200.613235401876
 20
2144.702914560001
 30
0.0
 40
5.632
  1
02.03.12 TE
  7
TECHNICBOLD
100
AcDbText
  0
TEXT
  5
100
330
2
100
AcDbEntity
  8
Plankopf
 62
     0
100
AcDbText
 10
1262.598891719038
 20
2144.70291456
 30
0.0
 40
5.632
  1
EN 1363-1 ,EN 1634-1
  7
TECHNICBOLD
100
AcDbText
  0
TEXT
  5
101
330
2
100
AcDbEntity
  8
Plankopf
 62
     0
100
AcDbText
 10
1200.613235401876
 20
2132.78182912
 30
0.0
 40
5.632
  1
E8630
  7
TECHNICBOLD
100
AcDbText
  0
TEXT
  5
102
330
2
100
AcDbEntity
  8
Plankopf
 62
     0
100
AcDbText
 10
1200.613235401876
 20
2120.860780288
 30
0.0
 40
5.632
  1
E8630A
  7
TECHNICBOLD
100
AcDbText
  0
TEXT
  5
103
330
2
100
AcDbEntity
  8
Plankopf
 62
     0
100
AcDbText
 10
1031.716376303638
 20
2132.73491456
 30
0.0
 40
5.632
  1
2
  7
TECHNICBOLD
100
AcDbText
  0
TEXT
  5
104
330
2
100
AcDbEntity
  8
Plankopf
 62
     0
100
AcDbText
 10
1043.100412597007
 20
2132.556608079728
 30
0.0
 40
4.5056
  1
16.05.14 EK aktualisiert
  7
TECHNICBOLD
100
AcDbText
  0
LWPOLYLINE
  5
105
330
2
100
AcDbEntity
  8
Kasten
100
AcDbPolyline
 90
        4
 70
     1
 43
0.0
 10
201.2999999999999
 20
2547.893391009476
 10
239.3
 20
2547.893391009476
 10
239.3
 20
2717.893391009476
 10
201.2999999999999
 20
2717.893391009476
  0
LWPOLYLINE
  5
106
330
2
100
AcDbEntity
  8
Kasten
100
AcDbPolyline
 90
        4
 70
     1
 43
0.0
 10
1196.3
 20
2547.893391009476
 10
1158.3
 20
2547.893391009476
 10
1158.3
 20
2717.893391009476
 10
1196.3
 20
2717.893391009476
  0
LINE
  5
107
330
2
100
AcDbEntity
  8
Kasten
100
AcDbLine
 10
239.3
 20
2717.893391009476
 30
0.0
 11
1158.3
 21
2717.893391009476
 31
0.0
  0
LWPOLYLINE
  5
108
330
2
100
AcDbEntity
  8
Kasten
100
AcDbPolyline
 90
        4
 70
     1
 43
0.0
 10
157.2999999999999
 20
2474.893391009476
 10
215.3
 20
2474.893391009476
 10
215.3
 20
2477.893391009476
 10
157.2999999999999
 20
2477.893391009476
  0
LWPOLYLINE
  5
109
330
2
100
AcDbEntity
  8
Kasten
100
AcDbPolyline
 90
        4
 70
     1
 43
0.0
 10
1180.3
 20
2474.893391009476
 10
1240.3
 20
2474.893391009476
 10
1240.3
 20
2477.893391009476
 10
1180.3
 20
2477.893391009476
  0
LWPOLYLINE
  5
10A
330
2
100
AcDbEntity
  8
Kasten
100
AcDbPolyline
 90
       14
 70
     0
 43
0.0
 10
215.2999999999998
 20
2492.710617128088
 10
215.3
 20
2510.893391009476
 10
224.2999999999999
 20
2510.893391009476
 10
224.2999999999999
 20
2526.893391009476
 10
231.4000000000021
 20
2526.893391009476
 10
231.4000000000021
 20
2531.893391009476
 10
234.4000000000022
 20
2531.893391009476
 10
234.4000000000022
 20
2526.893391009476
 10
239.3
 20
2526.893391009476
 10
239.3
 20
2547.893391009476
 10
201.2999999999999
 20
2547.893391009476
 10
201.2999999999999
 20
2477.893391009476
 10
215.3
 20
2477.893391009476
 10
215.3
 20
2486.893391009477
  0
LWPOLYLINE
  5
10B
330
2
100
AcDbEntity
  8
Kasten
100
AcDbPolyline
 90
       13
 70
     0
 43
0.0
 10
1180.3
 20
2477.893391009476
 10
1180.3
 20
2510.893391009476
 10
1173.3
 20
2510.893391009476
 10
1173.3
 20
2526.893391009476
 10
1166.199999999998
 20
2526.893391009476
 10
1166.199999999998
 20
2531.893391009476
 10
1163.199999999998
 20
2531.893391009476
 10
1163.199999999998
 20
2526.893391009476
 10
1158.3
 20
2526.893391009476
 10
1158.3
 20
2547.893391009476
 10
1196.3
 20
2547.893391009476
 10
1196.3
 20
2477.893391009476
 10
1180.3
 20
2477.893391009476
  0
HATCH
  5
10C
330
2
100
AcDbEntity
  8
Kasten
100
AcDbHatch
 10
0.0
 20
0.0
 30
0.0
210
0.0
220
0.0
230
1.0
  2
SOLID
 70
     1
 71
     1
 91
        1
 92
        5
 93
        1
 72
     3
 10
232.9000000000021
 20
2525.393391009476
 11
6.0
 21
0.0000000000000029
 40
0.25
 50
0.0
 51
360.0
 73
     1
 97
        1
330
10D
 75
     1
 76
     1
 47
0.0359378219476232
 98
        1
 10
233.2420877253464
 20
2525.910570046971
450
        0
451
        0
460
0.0
461
0.0
452
        0
462
1.0
453
        2
463
0.0
 63
     5
421
      255
463
1.0
 63
     2
421
 16776960
470
LINEAR
1001
GradientColor1ACI
1070
     5
1001
GradientColor2ACI
1070
     2
1001
ACAD
1010
0.0
1020
0.0
1030
0.0
  0
ELLIPSE
  5
10D
102
{ACAD_REACTORS
330
10C
102
}
330
2
100
AcDbEntity
  8
Kasten
100
AcDbEllipse
 10
232.9000000000021
 20
2525.393391009476
 30
0.0
 11
6.0
 21
0.0000000000000029
 31
0.0
210
0.0
220
0.0
230
1.0
 40
0.25
 41
0.0
 42
6.283185307179586
  0
HATCH
  5
10E
330
2
100
AcDbEntity
  8
Kasten
100
AcDbHatch
 10
0.0
 20
0.0
 30
0.0
210
0.0
220
0.0
230
1.0
  2
SOLID
 70
     1
 71
     1
 91
        1
 92
        7
 72
     0
 73
     1
 93
        4
 10
224.2999999999999
 20
2510.893391009476
 10
226.0999999999999
 20
2510.893391009476
 10
226.0999999999999
 20
2526.893391009476
 10
224.2999999999999
 20
2526.893391009476
 97
        1
330
10F
 75
     1
 76
     1
 47
0.0574849674306893
 98
        1
 10
225.1361693765214
 20
2519.902611790761
450
        0
451
        0
460
0.0
461
0.0
452
        0
462
1.0
453
        2
463
0.0
 63
     5
421
      255
463
1.0
 63
     2
421
 16776960
470
LINEAR
1001
GradientColor1ACI
1070
     5
1001
GradientColor2ACI
1070
     2
1001
ACAD
1010
0.0
1020
0.0
1030
0.0
  0
LWPOLYLINE
  5
10F
102
{ACAD_REACTORS
330
10E
102
}
330
2
100
AcDbEntity
  8
Kasten
100
AcDbPolyline
 90
        4
 70
     1
 43
0.0
 10
224.2999999999999
 20
2510.893391009476
 10
226.0999999999999
 20
2510.893391009476
 10
226.0999999999999
 20
2526.893391009476
 10
224.2999999999999
 20
2526.893391009476
  0
HATCH
  5
110
330
2
100
AcDbEntity
  8
Kasten
100
AcDbHatch
 10
0.0
 20
0.0
 30
0.0
210
0.0
220
0.0
230
1.0
  2
SOLID
 70
     1
 71
     1
 91
        1
 92
        7
 72
     1
 73
     1
 93
        4
 10
219.0999999999999
 20
2510.893391009476
 42
0.0
 10
217.3
 20
2510.893391009476
 42
0.0
 10
217.3
 20
2494.961927176515
 42
-0.0308334079195739
 10
219.0999999999999
 20
2496.490889863822
 42
0.0
 97
        2
330
111
330
128
 75
     1
 76
     1
 47
0.0922004065021923
 98
        1
 10
218.2023349540325
 20
2505.966029037602
450
        0
451
        0
460
0.0
461
0.0
452
        0
462
1.0
453
        2
463
0.0
 63
     5
421
      255
463
1.0
 63
     2
421
 16776960
470
LINEAR
1001
GradientColor1ACI
1070
     5
1001
GradientColor2ACI
1070
     2
1001
ACAD
1010
0.0
1020
0.0
1030
0.0
  0
LWPOLYLINE
  5
111
102
{ACAD_REACTORS
330
110
102
}
330
2
100
AcDbEntity
  8
Kasten
100
AcDbPolyline
 90
        4
 70
     1
 43
0.0
 10
217.3
 20
2494.893391009476
 10
219.0999999999999
 20
2496.490889863823
 10
219.0999999999999
 20
2510.893391009476
 10
217.3
 20
2510.893391009476
  0
LWPOLYLINE
  5
112
330
2
100
AcDbEntity
  8
Kasten
100
AcDbPolyline
 90
        4
 70
     0
 43
0.0
 10
215.3
 20
2486.893391009477
 10
215.3
 20
2469.893391009476
 10
217.3
 20
2469.893391009476
 10
217.3
 20
2486.893391009477
  0
LWPOLYLINE
  5
113
330
2
100
AcDbEntity
  8
Kasten
100
AcDbPolyline
 90
        4
 70
     0
 43
0.0
 10
217.3
 20
2494.961927176515
 10
217.3
 20
2510.893391009476
 10
215.3
 20
2510.893391009476
 10
215.2999999999998
 20
2492.710617128089
  0
HATCH
  5
114
330
2
100
AcDbEntity
  8
Kasten
100
AcDbHatch
 10
0.0
 20
0.0
 30
0.0
210
0.0
220
0.0
230
1.0
  2
SOLID
 70
     1
 71
     1
 91
        1
 92
        5
 93
        1
 72
     3
 10
1164.699999999998
 20
2525.393391009476
 11
6.0
 21
0.0000000000000029
 40
0.25
 50
0.0
 51
360.0
 73
     1
 97
        1
330
115
 75
     1
 76
     1
 47
0.0366751639579389
 98
        1
 10
1164.100062965554
 20
2525.272283501393
450
        0
451
        0
460
0.0
461
0.0
452
        0
462
1.0
453
        2
463
0.0
 63
     5
421
      255
463
1.0
 63
     2
421
 16776960
470
LINEAR
1001
GradientColor1ACI
1070
     5
1001
GradientColor2ACI
1070
     2
1001
ACAD
1010
0.0
1020
0.0
1030
0.0
  0
ELLIPSE
  5
115
102
{ACAD_REACTORS
330
114
102
}
330
2
100
AcDbEntity
  8
Kasten
100
AcDbEllipse
 10
1164.699999999998
 20
2525.393391009476
 30
0.0
 11
6.0
 21
0.0000000000000029
 31
0.0
210
0.0
220
0.0
230
1.0
 40
0.25
 41
0.0
 42
6.283185307179586
  0
HATCH
  5
116
330
2
100
AcDbEntity
  8
Kasten
100
AcDbHatch
 10
0.0
 20
0.0
 30
0.0
210
0.0
220
0.0
230
1.0
  2
SOLID
 70
     1
 71
     1
 91
        1
 92
        7
 72
     0
 73
     1
 93
        4
 10
1171.5
 20
2510.893391009476
 10
1173.3
 20
2510.893391009476
 10
1173.3
 20
2526.893391009476
 10
1171.5
 20
2526.893391009476
 97
        1
330
117
 75
     1
 76
     1
 47
0.0966336791426784
 98
        1
 10
1172.210789504065
 20
2520.481459372414
450
        0
451
        0
460
0.0
461
0.0
452
        0
462
1.0
453
        2
463
0.0
 63
     5
421
      255
463
1.0
 63
     2
421
 16776960
470
LINEAR
1001
GradientColor1ACI
1070
     5
1001
GradientColor2ACI
1070
     2
1001
ACAD
1010
0.0
1020
0.0
1030
0.0
  0
LWPOLYLINE
  5
117
102
{ACAD_REACTORS
330
116
102
}
330
2
100
AcDbEntity
  8
Kasten
100
AcDbPolyline
 90
        4
 70
     1
 43
0.0
 10
1171.5
 20
2510.893391009476
 10
1173.3
 20
2510.893391009476
 10
1173.3
 20
2526.893391009476
 10
1171.5
 20
2526.893391009476
  0
HATCH
  5
118
330
2
100
AcDbEntity
  8
Kasten
100
AcDbHatch
 10
0.0
 20
0.0
 30
0.0
210
0.0
220
0.0
230
1.0
  2
SOLID
 70
     1
 71
     1
 91
        1
 92
        7
 72
     0
 73
     1
 93
        4
 10
1177.0
 20
2489.893391009475
 10
1178.8
 20
2489.893391009475
 10
1178.8
 20
2505.893391009475
 10
1177.0
 20
2505.893391009475
 97
        1
330
119
 75
     1
 76
     1
 47
0.0966336791426784
 98
        1
 10
1177.710789504065
 20
2499.481459372414
450
        0
451
        0
460
0.0
461
0.0
452
        0
462
1.0
453
        2
463
0.0
 63
     5
421
      255
463
1.0
 63
     2
421
 16776960
470
LINEAR
1001
GradientColor1ACI
1070
     5
1001
GradientColor2ACI
1070
     2
1001
ACAD
1010
0.0
1020
0.0
1030
0.0
  0
LWPOLYLINE
  5
119
102
{ACAD_REACTORS
330
118
102
}
330
2
100
AcDbEntity
  8
Kasten
100
AcDbPolyline
 90
        4
 70
     1
 43
0.0
 10
1177.0
 20
2489.893391009475
 10
1178.8
 20
2489.893391009475
 10
1178.8
 20
2505.893391009475
 10
1177.0
 20
2505.893391009475
  0
LWPOLYLINE
  5
11A
330
2
100
AcDbEntity
  8
Kasten
100
AcDbPolyline
 90
        8
 70
     0
 43
0.0
 10
1178.8
 20
2505.893391009475
 10
1180.3
 20
2505.893391009475
 10
1180.3
 20
2475.893391009476
 42
-3.732050807568986
 10
1178.55
 20
2478.924479922721
 10
1178.8
 20
2478.765672332744
 10
1177.942857142859
 20
2477.534694622772
 42
4.075101114960545
 10
1178.8
 20
2475.893391009476
 10
1178.8
 20
2505.893391009475
  0
LWPOLYLINE
  5
11B
330
2
100
AcDbEntity
  8
Kasten
100
AcDbPolyline
 90
        5
 70
     0
 43
0.0
 10
1174.799999999999
 20
2505.893391009475
 10
1173.299999999999
 20
2505.893391009475
 10
1173.299999999999
 20
2475.893391009476
 42
3.732050807568986
 10
1175.049999999999
 20
2478.924479922721
 10
1174.800000000004
 20
2478.765672332736
  0
LWPOLYLINE
  5
11C
330
2
100
AcDbEntity
  8
Kasten
100
AcDbPolyline
 90
        2
 70
     0
 43
0.0
 10
1174.799999999999
 20
2478.765672332744
 10
1174.799999999999
 20
2505.893391009475
  0
LINE
  5
11D
330
2
100
AcDbEntity
  8
Kasten
100
AcDbLine
 10
1180.3
 20
2474.893391009476
 30
0.0
 11
217.3
 21
2474.893391009476
 31
0.0
  0
LWPOLYLINE
  5
11E
330
2
100
AcDbEntity
  8
Kasten
100
AcDbPolyline
 90
        4
 70
     1
 43
0.0
 10
1168.299999999999
 20
2523.893391009476
 10
229.3
 20
2523.893391009476
 10
229.3
 20
2519.893391009476
 10
1168.299999999999
 20
2519.893391009476
  0
LWPOLYLINE
  5
11F
330
2
100
AcDbEntity
  8
Kasten
100
AcDbPolyline
 90
        6
 70
     1
 43
0.0
 10
280.2999999999999
 20
2503.293391009477
 10
280.2999999999999
 20
2481.893391009476
 10
1150.299999999999
 20
2481.893391009476
 10
1150.299999999999
 20
2519.893391009476
 10
247.2999999999999
 20
2519.893391009476
 10
247.2999999999999
 20
2503.293391009477
  0
LWPOLYLINE
  5
120
330
2
100
AcDbEntity
  8
Kasten
100
AcDbPolyline
 90
        6
 70
     0
 43
0.0
 10
262.1911992780576
 20
2477.893391009476
 10
1173.299999999999
 20
2477.893391009476
 10
1173.299999999999
 20
2481.893391009476
 10
222.3000000000001
 20
2481.893391009476
 10
222.3000000000001
 20
2477.893391009476
 10
246.1938741060375
 20
2477.893391009476
  0
LWPOLYLINE
  5
121
330
2
100
AcDbEntity
  8
Kasten
100
AcDbPolyline
 90
        9
 70
     0
 43
0.0
 10
247.2999999999999
 20
2519.893391009476
 10
229.3
 20
2519.893391009476
 10
229.3
 20
2508.893391009477
 10
222.2999999999999
 20
2508.893391009476
 10
222.2999999999999
 20
2506.893391009477
 10
224.2999999999999
 20
2506.893391009477
 10
224.2999999999999
 20
2503.293391009477
 10
247.2999999999999
 20
2503.293391009477
 10
247.2999999999999
 20
2519.893391009476
  0
LWPOLYLINE
  5
122
330
2
100
AcDbEntity
  8
Kasten
100
AcDbPolyline
 90
        4
 70
     0
 43
0.0
 10
222.2999999999999
 20
2498.429799386103
 10
222.2999999999999
 20
2506.893391009477
 10
224.2999999999999
 20
2506.893391009477
 10
224.2999999999999
 20
2499.253180429617
  0
LWPOLYLINE
  5
123
330
2
100
AcDbEntity
  8
Kasten
100
AcDbPolyline
 90
        4
 70
     0
 43
0.0
 10
224.2999999999999
 20
2486.893391009477
 10
224.2999999999999
 20
2481.893391009478
 10
222.2999999999999
 20
2481.893391009478
 10
222.2999999999999
 20
2486.893391009477
  0
LINE
  5
124
330
2
100
AcDbEntity
  8
Kasten
100
AcDbLine
 10
259.1700696539017
 20
2481.893391009479
 30
0.0
 11
272.8838094378523
 21
2463.73628887879
 31
0.0
  0
LINE
  5
125
330
2
100
AcDbEntity
  8
Kasten
100
AcDbLine
 10
243.2999999999999
 20
2481.893391009479
 30
0.0
 11
274.4022264922758
 21
2438.902956246039
 31
0.0
  0
ARC
  5
126
330
2
100
AcDbEntity
  8
Kasten
100
AcDbCircle
 10
287.0990831787537
 20
2447.793391009479
 30
0.0
 40
15.5
100
AcDbArc
 50
215.0000000000139
 51
115.6310844215347
  0
ARC
  5
127
330
2
100
AcDbEntity
  8
Kasten
100
AcDbCircle
 10
277.798721703585
 20
2467.177747496896
 30
0.0
 40
6.0
100
AcDbArc
 50
215.0000000000139
 51
295.6310844215346
  0
ARC
  5
128
102
{ACAD_REACTORS
330
110
102
}
330
2
100
AcDbEntity
  8
Kasten
100
AcDbCircle
 10
230.5851789909691
 20
2481.14572426357
 30
0.0
 40
19.16724924849058
100
AcDbArc
 50
109.1421164656779
 51
162.5502558397748
  0
LINE
  5
129
330
2
100
AcDbEntity
  8
Kasten
100
AcDbLine
 10
212.3
 20
2486.893391009477
 30
0.0
 11
224.2999999999999
 21
2486.893391009477
 31
0.0
  0
LWPOLYLINE
  5
12A
330
2
100
AcDbEntity
  8
Kasten
100
AcDbPolyline
 90
        4
 70
     1
 43
0.0
 10
224.2999999999999
 20
2503.293391009477
 10
280.2999999999999
 20
2503.293391009477
 10
280.2999999999999
 20
2481.893391009478
 10
224.2999999999999
 20
2481.893391009478
  0
LWPOLYLINE
  5
12B
330
2
100
AcDbEntity
  8
Kasten
100
AcDbPolyline
 90
        7
 70
     0
 43
0.0
 10
1150.299999999999
 20
2519.893391009476
 10
1168.299999999999
 20
2519.893391009476
 10
1168.299999999999
 20
2508.893391009477
 10
1173.299999999999
 20
2508.893391009476
 10
1173.299999999999
 20
2481.893391009476
 10
1150.299999999999
 20
2481.893391009476
 10
1150.299999999999
 20
2519.893391009476
  0
LWPOLYLINE
  5
12C
330
2
100
AcDbEntity
  8
Kasten
100
AcDbPolyline
 90
        4
 70
     1
 43
0.0
 10
1196.3
 20
2487.893391009476
 10
1201.3
 20
2487.893391009476
 10
1201.3
 20
2632.893391009476
 10
1196.3
 20
2632.893391009476
  0
LWPOLYLINE
  5
12D
330
2
100
AcDbEntity
  8
Zeichnung
100
AcDbPolyline
 90
        4
 70
     1
 43
0.0
 10
247.2999999999998
 20
2523.893391009476
 10
317.2999999999998
 20
2523.893391009476
 10
317.2999999999998
 20
2538.893391009476
 10
247.2999999999998
 20
2538.893391009476
  0
LINE
  5
12F
330
2
100
AcDbEntity
  8
Zeichnung
100
AcDbLine
 10
239.2999999999998
 20
2526.893391009476
 30
0.0
 11
247.2999999999998
 21
2526.893391009476
 31
0.0
  0
LINE
  5
130
330
2
100
AcDbEntity
  8
Zeichnung
100
AcDbLine
 10
1154.299999999999
 20
2526.893391009476
 30
0.0
 11
1158.299999999999
 21
2526.893391009476
 31
0.0
  0
LWPOLYLINE
  5
131
330
2
100
AcDbEntity
  8
Zeichnung
100
AcDbPolyline
 90
        4
 70
     1
 43
0.0
 10
1134.299999999998
 20
2523.893391009476
 10
1154.299999999999
 20
2523.893391009476
 10
1154.299999999999
 20
2563.893391009476
 10
1134.299999999998
 20
2563.893391009476
  0
LWPOLYLINE
  5
132
330
2
100
AcDbEntity
  8
Zeichnung
100
AcDbPolyline
 90
        4
 70
     1
 43
0.0
 10
247.2999999999998
 20
2538.893391009476
 10
267.2999999999998
 20
2538.893391009476
 10
267.2999999999998
 20
2563.893391009476
 10
247.2999999999998
 20
2563.893391009476
  0
LWPOLYLINE
  5
133
330
2
100
AcDbEntity
  8
Zeichnung
100
AcDbPolyline
 90
        4
 70
     1
 43
0.0
 10
247.2999999999998
 20
2563.893391009476
 10
1154.299999999999
 20
2563.893391009476
 10
1154.299999999999
 20
2571.893391009476
 10
247.2999999999998
 20
2571.893391009476
  0
HATCH
  5
134
330
2
100
AcDbEntity
  8
Kasten
 62
     9
100
AcDbHatch
 10
0.0
 20
0.0
 30
0.0
210
0.0
220
0.0
230
1.0
  2
AR-SAND
 70
     0
 71
     1
 91
        1
 92
        7
 72
     0
 73
     1
 93
        6
 10
267.2999999999998
 20
2563.893391009476
 10
267.2999999999998
 20
2538.893391009476
 10
317.2999999999999
 20
2538.893391009476
 10
317.2999999999999
 20
2523.893391009476
 10
1134.299999999998
 20
2523.893391009476
 10
1134.299999999998
 20
2563.893391009476
 97
        1
330
135
 75
     1
 76
     1
 52
0.0
 41
3.0
 77
     0
 78
     4
 53
37.5
 43
38.87991228538215
 44
683.196346216836
 45
-0.1889800743288245
 46
5.780471307039475
 79
     6
 49
0.0
 49
-4.56
 49
0.0
 49
-5.099999999999999
 49
0.0
 49
-4.875
 53
7.499999999999999
 43
38.87991228538215
 44
683.196346216836
 45
5.309330115803181
 46
8.466438195689221
 79
     6
 49
0.0
 49
-2.459999999999999
 49
0.0
 49
-4.11
 49
0.0
 49
-1.575
 53
327.5
 43
35.18991228538215
 44
683.196346216836
 45
9.342425585254485
 46
0.0169771606108948
 79
     6
 49
0.0
 49
-1.5
 49
0.0
 49
-5.4
 49
0.0
 49
-7.05
 53
317.5
 43
35.18991228538215
 44
683.196346216836
 45
9.01837981371688
 46
2.633026694802747
 79
     6
 49
0.0
 49
-0.75
 49
0.0
 49
-3.54
 49
0.0
 49
-4.05
 47
0.6524924211441164
 98
        1
 10
672.534888412975
 20
2548.979550944808
1001
GradientColor1ACI
1070
     5
1001
GradientColor2ACI
1070
     2
1001
ACAD
1010
0.0
1020
0.0
1030
0.0
  0
LWPOLYLINE
  5
135
102
{ACAD_REACTORS
330
134
102
}
330
2
100
AcDbEntity
  8
Kasten
100
AcDbPolyline
 90
        6
 70
     1
 43
0.0
 10
267.2999999999998
 20
2563.893391009476
 10
1134.299999999998
 20
2563.893391009476
 10
1134.299999999998
 20
2523.893391009476
 10
317.2999999999998
 20
2523.893391009476
 10
317.2999999999998
 20
2538.893391009476
 10
267.2999999999998
 20
2538.893391009476
  0
TEXT
  5
136
102
{ACAD_XDICTIONARY
360
137
102
}
330
2
100
AcDbEntity
  8
Plankopf
 62
     0
100
AcDbText
 10
1069.11825495251
 20
2104.510638620435
 30
0.0
 40
8.001503999999998
  1
Schnitt Längs
  7
TECHNICBOLD
100
AcDbText
1001
AcadAnnotative
1000
AnnotativeData
1002
{
1070
     1
1070
     0
1002
}
  0
TEXT
  5
13A
102
{ACAD_XDICTIONARY
360
13B
102
}
330
2
100
AcDbEntity
  8
Plankopf
 62
     0
100
AcDbText
 10
1039.755174061236
 20
2090.452385438283
 30
0.0
 40
7.7
  1
Deckenanschluss 10, 40mm Isolierung U=0.5
  7
TECHNICBOLD
100
AcDbText
1001
AcadAnnotative
1000
AnnotativeData
1002
{
1070
     1
1070
     0
1002
}
  0
TEXT
  5
13E
102
{ACAD_XDICTIONARY
360
13F
102
}
330
2
100
AcDbEntity
  8
Plankopf
 62
     0
100
AcDbText
 10
1152.192898074066
 20
2104.510638620435
 30
0.0
 40
8.001503999999998
  1
EI30
  7
TECHNICBOLD
100
AcDbText
1001
AcadAnnotative
1000
AnnotativeData
1002
{
1070
     1
1070
     0
1002
}
  0
TEXT
  5
142
102
{ACAD_XDICTIONARY
360
143
102
}
330
2
100
AcDbEntity
  8
Plankopf
 62
     0
100
AcDbText
 10
1177.307582092864
 20
2104.510638620435
 30
0.0
 40
6.0
  1
feuerhemmend
  7
TECHNICBOLD
100
AcDbText
1001
AcadAnnotative
1000
AnnotativeData
1002
{
1070
     1
1070
     0
1002
}
  0
LWPOLYLINE
  5
146
330
2
100
AcDbEntity
  8
3-t. Klapptreppe
100
AcDbPolyline
 90
        4
 70
     1
 43
0.0
 10
5.000000000000454
 20
2389.753718797486
 10
239.2687613526287
 20
2389.753718797486
 10
239.2687613526287
 20
2087.0
 10
5.000000000000454
 20
2087.0
  0
CIRCLE
  5
147
330
2
100
AcDbEntity
  8
3-t. Klapptreppe
100
AcDbCircle
 10
93.21205106909088
 20
2176.309146392384
 30
0.0
 40
0.3303947295
  0
CIRCLE
  5
148
330
2
100
AcDbEntity
  8
3-t. Klapptreppe
100
AcDbCircle
 10
97.46848761449269
 20
2177.85836260167
 30
0.0
 40
0.3303947295
  0
CIRCLE
  5
149
330
2
100
AcDbEntity
  8
3-t. Klapptreppe
100
AcDbCircle
 10
88.95561452368928
 20
2174.759930183097
 30
0.0
 40
0.3303947295
  0
LINE
  5
14A
330
2
100
AcDbEntity
  8
3-t. Klapptreppe
100
AcDbLine
 10
93.7936981587029
 20
2176.043414877939
 30
0.0
 11
92.63040397947884
 21
2176.574877906829
 31
0.0
  0
LINE
  5
14B
330
2
100
AcDbEntity
  8
3-t. Klapptreppe
100
AcDbLine
 10
98.0501347041045
 20
2177.592631087225
 30
0.0
 11
96.88684052488065
 21
2178.124094116115
 31
0.0
  0
LINE
  5
14C
330
2
100
AcDbEntity
  8
3-t. Klapptreppe
100
AcDbLine
 10
97.20275610004774
 20
2177.276715512058
 30
0.0
 11
97.73421912893741
 21
2178.440009691282
 31
0.0
  0
LINE
  5
14D
330
2
100
AcDbEntity
  8
3-t. Klapptreppe
100
AcDbLine
 10
92.94631955464593
 20
2175.727499302772
 30
0.0
 11
93.47778258353583
 21
2176.890793481996
 31
0.0
  0
LINE
  5
14E
330
2
100
AcDbEntity
  8
3-t. Klapptreppe
100
AcDbLine
 10
89.53726161330155
 20
2174.494198668653
 30
0.0
 11
88.37396743407726
 21
2175.025661697542
 31
0.0
  0
LINE
  5
14F
330
2
100
AcDbEntity
  8
3-t. Klapptreppe
100
AcDbLine
 10
87.41482533067415
 20
2171.930749892453
 30
0.0
 11
101.202073980236
 21
2176.948898022123
 31
0.0
  0
LINE
  5
150
330
2
100
AcDbEntity
  8
3-t. Klapptreppe
100
AcDbLine
 10
99.87161924000611
 20
2178.400834585096
 30
0.0
 11
96.73944469367848
 21
2179.861391560907
 31
0.0
  0
ARC
  5
151
330
2
100
AcDbEntity
  8
3-t. Klapptreppe
  6
VERDECKT2
100
AcDbCircle
 10
100.8375525193141
 20
2177.950412503425
 30
0.0
 40
1.065789449999999
100
AcDbArc
 50
155.0000001820584
 51
290.0000000273416
  0
LINE
  5
152
330
2
100
AcDbEntity
  8
3-t. Klapptreppe
100
AcDbLine
 10
86.53887226910365
 20
2172.505520579269
 30
0.0
 11
88.54766376891621
 21
2176.813387857846
 31
0.0
  0
LINE
  5
153
330
2
100
AcDbEntity
  8
3-t. Klapptreppe
100
AcDbLine
 10
87.25183662161658
 20
2171.937866133089
 30
0.0
 11
86.64197450786605
 21
2172.222249506795
 31
0.0
  0
ARC
  5
154
330
2
100
AcDbEntity
  8
3-t. Klapptreppe
100
AcDbCircle
 10
86.73205892472196
 20
2172.415436162413
 30
0.0
 40
0.21315789
100
AcDbArc
 50
155.0000000273643
 51
245.0000000273706
  0
ARC
  5
155
330
2
100
AcDbEntity
  8
3-t. Klapptreppe
100
AcDbCircle
 10
87.34192103847249
 20
2172.131052788707
 30
0.0
 40
0.21315789
100
AcDbArc
 50
245.0000000273706
 51
290.0000000322545
  0
LINE
  5
156
330
2
100
AcDbEntity
  8
3-t. Klapptreppe
100
AcDbLine
 10
88.66794613233286
 20
2176.923606337245
 30
0.0
 11
96.73944468916966
 21
2179.861391563009
 31
0.0
  0
ARC
  5
157
330
2
100
AcDbEntity
  8
3-t. Klapptreppe
100
AcDbCircle
 10
88.74085042453453
 20
2176.72330344099
 30
0.0
 40
0.21315789
100
AcDbArc
 50
110.0000000322668
 51
155.0000000273643
  0
LINE
  5
158
330
2
100
AcDbEntity
  8
3-t. Klapptreppe
  6
STRICHPUNKT2
 62
     1
100
AcDbLine
 10
97.18421760797287
 20
2178.639388024241
 30
0.0
 11
97.75275762101205
 21
2177.0773371791
 31
0.0
  0
CIRCLE
  5
15A
330
2
100
AcDbEntity
  8
3-t. Klapptreppe
100
AcDbCircle
 10
97.46848761449269
 20
2177.85836260167
 30
0.0
 40
0.3410526239999999
  0
LINE
  5
15B
330
2
100
AcDbEntity
  8
3-t. Klapptreppe
  6
STRICHPUNKT2
 62
     1
100
AcDbLine
 10
88.39507816173137
 20
2174.555911631763
 30
0.0
 11
98.02902397645084
 21
2178.062381153004
 31
0.0
  0
LINE
  5
15C
330
2
100
AcDbEntity
  8
3-t. Klapptreppe
  6
STRICHPUNKT2
 62
     1
100
AcDbLine
 10
92.92778106257106
 20
2177.090171814954
 30
0.0
 11
93.49632107561024
 21
2175.528120969813
 31
0.0
  0
CIRCLE
  5
15D
330
2
100
AcDbEntity
  8
3-t. Klapptreppe
100
AcDbCircle
 10
93.21205106909088
 20
2176.309146392384
 30
0.0
 40
0.3410526239999999
  0
LINE
  5
15E
330
2
100
AcDbEntity
  8
3-t. Klapptreppe
  6
STRICHPUNKT2
 62
     1
100
AcDbLine
 10
88.67134451716948
 20
2175.540955605668
 30
0.0
 11
89.23988453020887
 21
2173.978904760526
 31
0.0
  0
CIRCLE
  5
15F
330
2
100
AcDbEntity
  8
3-t. Klapptreppe
100
AcDbCircle
 10
88.95561452368928
 20
2174.759930183097
 30
0.0
 40
0.3410526239999999
  0
CIRCLE
  5
160
330
2
100
AcDbEntity
  8
3-t. Klapptreppe
  6
VERDECKT2
100
AcDbCircle
 10
100.8375525180977
 20
2177.950412500817
 30
0.0
 40
0.42631578
  0
CIRCLE
  5
161
330
2
100
AcDbEntity
  8
3-t. Klapptreppe
100
AcDbCircle
 10
100.8375525207061
 20
2177.9504124996
 30
0.0
 40
0.7460526149999998
  0
ARC
  5
162
330
2
100
AcDbEntity
  8
3-t. Klapptreppe
100
AcDbCircle
 10
100.8375525193141
 20
2177.950412503425
 30
0.0
 40
1.065789449999999
100
AcDbArc
 50
290.0000000273416
 51
155.0000001820584
  0
LINE
  5
163
330
2
100
AcDbEntity
  8
3-t. Klapptreppe
  6
STRICHPUNKT2
 62
     1
100
AcDbLine
 10
100.1410246615614
 20
2176.455857425906
 30
0.0
 11
101.5347286507581
 21
2179.444665279605
 31
0.0
  0
LINE
  5
164
330
2
100
AcDbEntity
  8
3-t. Klapptreppe
  6
STRICHPUNKT2
 62
     1
100
AcDbLine
 10
99.79323024893439
 20
2178.437387971902
 30
0.0
 11
101.8825230633852
 21
2177.463134733609
 31
0.0
  0
ARC
  5
165
330
2
100
AcDbEntity
  8
3-t. Klapptreppe
  6
VERDECKT2
100
AcDbCircle
 10
100.8375525180977
 20
2177.950412500817
 30
0.0
 40
1.492105229999999
100
AcDbArc
 50
155.0000000273643
 51
200.0000000322623
  0
LINE
  5
166
330
2
100
AcDbEntity
  8
3-t. Klapptreppe
  6
VERDECKT2
100
AcDbLine
 10
99.43543224431847
 20
2177.440082455404
 30
0.0
 11
99.79995370463075
 21
2176.438567976046
 31
0.0
  0
LINE
  5
167
330
2
100
AcDbEntity
  8
3-t. Klapptreppe
100
AcDbLine
 10
99.33528079619145
 20
2177.403630309303
 30
0.0
 11
99.69980225650353
 21
2176.402115829945
 31
0.0
  0
ARC
  5
168
330
2
100
AcDbEntity
  8
3-t. Klapptreppe
100
AcDbCircle
 10
100.8375525180977
 20
2177.950412500817
 30
0.0
 40
1.598684174999999
100
AcDbArc
 50
155.0000000273643
 51
200.0000000322623
  0
LINE
  5
169
330
2
100
AcDbEntity
  8
3-t. Klapptreppe
100
AcDbLine
 10
98.83452355555574
 20
2177.221369578799
 30
0.0
 11
99.19904501586826
 21
2176.219855099441
 31
0.0
  0
ARC
  5
16A
330
2
100
AcDbEntity
  8
3-t. Klapptreppe
100
AcDbCircle
 10
100.8375525180977
 20
2177.950412500817
 30
0.0
 40
2.131578899999999
100
AcDbArc
 50
155.0000000273643
 51
200.0000000322623
  0
LWPOLYLINE
  5
16B
330
2
100
AcDbEntity
  8
3-t. Klapptreppe
100
AcDbPolyline
 90
        5
 70
     1
 43
0.0
 10
53.35429029753072
 20
2097.134102548267
 10
51.8407106004795
 20
2098.937916644867
 10
90.85539176976249
 20
2182.605170497602
 10
100.0317579112293
 20
2178.326160696084
 10
62.17127945951574
 20
2097.134102561324
  0
LINE
  5
16C
330
2
100
AcDbEntity
  8
3-t. Klapptreppe
100
AcDbLine
 10
88.68988300924456
 20
2174.178283093485
 30
0.0
 11
89.22134603813423
 21
2175.34157727271
 31
0.0
  0
CIRCLE
  5
16D
330
2
100
AcDbEntity
  8
3-t. Klapptreppe
100
AcDbCircle
 10
130.7972045341769
 20
2257.065019010889
 30
0.0
 40
0.3303947295
  0
CIRCLE
  5
16E
330
2
100
AcDbEntity
  8
3-t. Klapptreppe
100
AcDbCircle
 10
129.2479883168482
 20
2261.3214555879
 30
0.0
 40
0.3303947295
  0
CIRCLE
  5
16F
330
2
100
AcDbEntity
  8
3-t. Klapptreppe
100
AcDbCircle
 10
132.3464207403976
 20
2252.808582464396
 30
0.0
 40
0.3303947295
  0
CIRCLE
  5
170
330
2
100
AcDbEntity
  8
3-t. Klapptreppe
100
AcDbCircle
 10
97.19325744669095
 20
2184.84687102747
 30
0.0
 40
0.3303947295
  0
CIRCLE
  5
171
330
2
100
AcDbEntity
  8
3-t. Klapptreppe
100
AcDbCircle
 10
95.64404123972598
 20
2189.103307573717
 30
0.0
 40
0.3303947295
  0
CIRCLE
  5
172
330
2
100
AcDbEntity
  8
3-t. Klapptreppe
100
AcDbCircle
 10
98.74247372958462
 20
2180.590434492956
 30
0.0
 40
0.3303947295
  0
LINE
  5
173
330
2
100
AcDbEntity
  8
3-t. Klapptreppe
100
AcDbLine
 10
90.85539173455277
 20
2182.605170517435
 30
0.0
 11
128.4996267319016
 21
2263.333492989006
 31
0.0
  0
LINE
  5
174
330
2
100
AcDbEntity
  8
3-t. Klapptreppe
100
AcDbLine
 10
128.4996267319016
 20
2263.333492989006
 30
0.0
 11
137.6759928717783
 21
2259.054483184078
 31
0.0
  0
LINE
  5
175
330
2
100
AcDbEntity
  8
3-t. Klapptreppe
100
AcDbLine
 10
137.6759928717783
 20
2259.054483184078
 30
0.0
 11
100.0317578744298
 21
2178.326160712507
 31
0.0
  0
LINE
  5
176
330
2
100
AcDbEntity
  8
3-t. Klapptreppe
100
AcDbLine
 10
100.0317578744298
 20
2178.326160712507
 30
0.0
 11
90.85539173455277
 21
2182.605170517435
 31
0.0
  0
LINE
  5
177
330
2
100
AcDbEntity
  8
3-t. Klapptreppe
100
AcDbLine
 10
130.211250447516
 20
2257.321113491401
 30
0.0
 11
131.3831586208375
 21
2256.808924530377
 31
0.0
  0
LINE
  5
178
330
2
100
AcDbEntity
  8
3-t. Klapptreppe
100
AcDbLine
 10
130.5411100536648
 20
2256.479064924228
 30
0.0
 11
131.0532990146889
 21
2257.65097309755
 31
0.0
  0
LINE
  5
179
330
2
100
AcDbEntity
  8
3-t. Klapptreppe
100
AcDbLine
 10
128.991893836336
 20
2260.73550150124
 30
0.0
 11
129.5040827973603
 21
2261.907409674561
 31
0.0
  0
LINE
  5
17A
330
2
100
AcDbEntity
  8
3-t. Klapptreppe
100
AcDbLine
 10
128.6620342301874
 20
2261.577550068412
 30
0.0
 11
129.8339424035091
 21
2261.065361107388
 31
0.0
  0
LINE
  5
17B
330
2
100
AcDbEntity
  8
3-t. Klapptreppe
100
AcDbLine
 10
131.7604666537368
 20
2253.064676944908
 30
0.0
 11
132.9323748270585
 21
2252.552487983884
 31
0.0
  0
LINE
  5
17C
330
2
100
AcDbEntity
  8
3-t. Klapptreppe
100
AcDbLine
 10
132.0903262598856
 20
2252.222628377735
 30
0.0
 11
132.6025152209097
 21
2253.394536551057
 31
0.0
  0
LINE
  5
17D
330
2
100
AcDbEntity
  8
3-t. Klapptreppe
100
AcDbLine
 10
97.77921153335206
 20
2184.590776546958
 30
0.0
 11
96.6073033600303
 21
2185.102965507982
 31
0.0
  0
LINE
  5
17E
330
2
100
AcDbEntity
  8
3-t. Klapptreppe
100
AcDbLine
 10
96.22999532638665
 20
2188.847213093205
 30
0.0
 11
95.05808715306512
 21
2189.359402054229
 31
0.0
  0
LINE
  5
17F
330
2
100
AcDbEntity
  8
3-t. Klapptreppe
100
AcDbLine
 10
95.90013572023826
 20
2189.689261660378
 30
0.0
 11
95.38794675921371
 21
2188.517353487056
 31
0.0
  0
LINE
  5
180
330
2
100
AcDbEntity
  8
3-t. Klapptreppe
100
AcDbLine
 10
99.32842781624527
 20
2180.334340012444
 30
0.0
 11
98.15651964292374
 21
2180.846528973469
 31
0.0
  0
LINE
  5
181
330
2
100
AcDbEntity
  8
3-t. Klapptreppe
100
AcDbLine
 10
98.99856821009667
 20
2181.176388579617
 30
0.0
 11
98.48637924907235
 21
2180.004480406296
 31
0.0
  0
LINE
  5
182
330
2
100
AcDbEntity
  8
3-t. Klapptreppe
100
AcDbLine
 10
97.44935192720323
 20
2185.432825114131
 30
0.0
 11
96.93716296617891
 21
2184.26091694081
 31
0.0
  0
LINE
  5
183
330
2
100
AcDbEntity
  8
3-t. Klapptreppe
100
AcDbLine
 10
128.1188427310774
 20
2263.511055484795
 30
0.0
 11
131.2510172766081
 21
2262.050498507275
 31
0.0
  0
ARC
  5
184
330
2
100
AcDbEntity
  8
3-t. Klapptreppe
  6
VERDECKT2
100
AcDbCircle
 10
127.1529094544482
 20
2263.96147757221
 30
0.0
 40
1.065789449999999
100
AcDbArc
 50
199.9999999960825
 51
334.9999998413608
  0
LINE
  5
185
330
2
100
AcDbEntity
  8
3-t. Klapptreppe
  6
STRICHPUNKT2
 62
     1
100
AcDbLine
 10
130.0290137396232
 20
2261.605725593859
 30
0.0
 11
128.4669628940733
 21
2261.037185581942
 31
0.0
  0
CIRCLE
  5
186
330
2
100
AcDbEntity
  8
3-t. Klapptreppe
100
AcDbCircle
 10
129.2479883168482
 20
2261.3214555879
 30
0.0
 40
0.3410526239999999
  0
LINE
  5
187
330
2
100
AcDbEntity
  8
3-t. Klapptreppe
  6
STRICHPUNKT2
 62
     1
100
AcDbLine
 10
132.5504392802372
 20
2252.248046132766
 30
0.0
 11
129.043969765916
 21
2261.881991950005
 31
0.0
  0
LINE
  5
188
330
2
100
AcDbEntity
  8
3-t. Klapptreppe
  6
STRICHPUNKT2
 62
     1
100
AcDbLine
 10
131.5782299458519
 20
2257.349289047344
 30
0.0
 11
130.0161791003017
 21
2256.780749035427
 31
0.0
  0
CIRCLE
  5
189
330
2
100
AcDbEntity
  8
3-t. Klapptreppe
100
AcDbCircle
 10
130.7972045230769
 20
2257.065019041386
 30
0.0
 40
0.3410526239999999
  0
LINE
  5
18A
330
2
100
AcDbEntity
  8
3-t. Klapptreppe
  6
STRICHPUNKT2
 62
     1
100
AcDbLine
 10
133.1246765107257
 20
2253.100462027916
 30
0.0
 11
131.5626256651753
 21
2252.531922015998
 31
0.0
  0
CIRCLE
  5
18B
330
2
100
AcDbEntity
  8
3-t. Klapptreppe
100
AcDbCircle
 10
132.3464207293054
 20
2252.808582494871
 30
0.0
 40
0.3410526239999999
  0
CIRCLE
  5
18C
330
2
100
AcDbEntity
  8
3-t. Klapptreppe
  6
VERDECKT2
100
AcDbCircle
 10
127.1529094532316
 20
2263.961477569601
 30
0.0
 40
0.42631578
  0
CIRCLE
  5
18D
330
2
100
AcDbEntity
  8
3-t. Klapptreppe
100
AcDbCircle
 10
127.1529094506231
 20
2263.961477570818
 30
0.0
 40
0.7460526149999998
  0
ARC
  5
18E
330
2
100
AcDbEntity
  8
3-t. Klapptreppe
  6
VERDECKT
100
AcDbCircle
 10
127.1529094544482
 20
2263.96147757221
 30
0.0
 40
1.065789449999999
100
AcDbArc
 50
334.9999998413608
 51
199.9999999960825
  0
LINE
  5
18F
330
2
100
AcDbEntity
  8
3-t. Klapptreppe
  6
STRICHPUNKT2
 62
     1
100
AcDbLine
 10
126.458010046246
 20
2262.46949874138
 30
0.0
 11
127.8517140370732
 21
2265.458306594318
 31
0.0
  0
LINE
  5
190
330
2
100
AcDbEntity
  8
3-t. Klapptreppe
  6
STRICHPUNKT2
 62
     1
100
AcDbLine
 10
128.1995084486195
 20
2263.476776048133
 30
0.0
 11
126.1102156346996
 21
2264.451029287565
 31
0.0
  0
ARC
  5
191
330
2
100
AcDbEntity
  8
3-t. Klapptreppe
  6
VERDECKT2
100
AcDbCircle
 10
127.1529094532316
 20
2263.961477569601
 30
0.0
 40
1.492105229999999
100
AcDbArc
 50
289.9999999910995
 51
334.9999999959966
  0
LINE
  5
192
330
2
100
AcDbEntity
  8
3-t. Klapptreppe
  6
STRICHPUNKT2
 62
     1
100
AcDbLine
 10
127.7490715149351
 20
2262.323535765947
 30
0.0
 11
127.1529094532316
 21
2263.961477569601
 31
0.0
  0
LINE
  5
193
330
2
100
AcDbEntity
  8
3-t. Klapptreppe
  6
VERDECKT2
100
AcDbLine
 10
127.6632394976363
 20
2262.559357295455
 30
0.0
 11
126.6617250180161
 21
2262.194835835862
 31
0.0
  0
LINE
  5
194
330
2
100
AcDbEntity
  8
3-t. Klapptreppe
100
AcDbLine
 10
127.6996916436653
 20
2262.459205847302
 30
0.0
 11
126.6981771640448
 21
2262.094684387708
 31
0.0
  0
ARC
  5
195
330
2
100
AcDbEntity
  8
3-t. Klapptreppe
100
AcDbCircle
 10
127.1529094532316
 20
2263.961477569601
 30
0.0
 40
1.598684174999999
100
AcDbArc
 50
289.9999999910995
 51
334.9999999959966
  0
LINE
  5
196
330
2
100
AcDbEntity
  8
3-t. Klapptreppe
100
AcDbLine
 10
127.8819523738098
 20
2261.958448606536
 30
0.0
 11
126.8804378941895
 21
2261.593927146943
 31
0.0
  0
ARC
  5
197
330
2
100
AcDbEntity
  8
3-t. Klapptreppe
100
AcDbCircle
 10
127.1529094532316
 20
2263.961477569601
 30
0.0
 40
2.131578899999999
100
AcDbArc
 50
289.9999999910995
 51
334.9999999959966
  0
LINE
  5
198
330
2
100
AcDbEntity
  8
3-t. Klapptreppe
  6
STRICHPUNKT2
 62
     1
100
AcDbLine
 10
132.8717521122294
 20
2252.999787446674
 30
-0.0000000000000001
 11
131.8210893670932
 21
2252.617377481582
 31
0.0000000000000001
210
-0.0000000000000001
220
0.0
230
-1.0
  0
CIRCLE
  5
199
330
2
100
AcDbEntity
  8
3-t. Klapptreppe
100
AcDbCircle
 10
-132.3464207396691
 20
2252.808582464107
 30
-0.0000000000001096
 40
0.341052624
210
-0.0000000000000001
220
0.0
230
-1.0
  0
CIRCLE
  5
19A
330
2
100
AcDbEntity
  8
3-t. Klapptreppe
100
AcDbCircle
 10
-134.3954999869979
 20
2257.202847087907
 30
-0.0000000000001096
 40
0.42631578
210
-0.0000000000000001
220
0.0
230
-1.0
  0
CIRCLE
  5
19B
330
2
100
AcDbEntity
  8
3-t. Klapptreppe
100
AcDbCircle
 10
-130.7972045341769
 20
2257.065019010889
 30
-0.0000000000001096
 40
0.341052624
210
-0.0000000000000001
220
0.0
230
-1.0
  0
LINE
  5
19C
330
2
100
AcDbEntity
  8
3-t. Klapptreppe
  6
STRICHPUNKT2
 62
     1
100
AcDbLine
 10
132.5376257222606
 20
2252.283251091554
 30
0.0
 11
132.1552157570777
 21
2253.333913836658
 31
0.0
210
-0.0000000000000001
220
0.0
230
-1.0
  0
LINE
  5
19D
330
2
100
AcDbEntity
  8
3-t. Klapptreppe
  6
STRICHPUNKT2
 62
     1
100
AcDbLine
 10
131.3225359067373
 20
2257.256223993457
 30
-0.0000000000000001
 11
130.2718731616007
 21
2256.873814028364
 31
0.0000000000000001
210
-0.0000000000000001
220
0.0
230
-1.0
  0
LINE
  5
19E
330
2
100
AcDbEntity
  8
3-t. Klapptreppe
  6
STRICHPUNKT2
 62
     1
100
AcDbLine
 10
130.9884095167686
 20
2256.539687638337
 30
0.0
 11
130.6059995515854
 21
2257.59035038344
 31
0.0
210
-0.0000000000000001
220
0.0
230
-1.0
  0
CIRCLE
  5
19F
330
2
100
AcDbEntity
  8
3-t. Klapptreppe
100
AcDbCircle
 10
95.64404123972598
 20
2189.103307573717
 30
0.0
 40
0.3410526239999999
  0
LINE
  5
1A0
330
2
100
AcDbEntity
  8
3-t. Klapptreppe
  6
STRICHPUNKT2
 62
     1
100
AcDbLine
 10
95.08350487765666
 20
2188.899289022689
 30
0.0
 11
96.20457760179533
 21
2189.307326124746
 31
0.0
  0
CIRCLE
  5
1A1
330
2
100
AcDbEntity
  8
3-t. Klapptreppe
100
AcDbCircle
 10
97.19325744669095
 20
2184.84687102747
 30
0.0
 40
0.3410526239999999
  0
LINE
  5
1A2
330
2
100
AcDbEntity
  8
3-t. Klapptreppe
  6
STRICHPUNKT2
 62
     1
100
AcDbLine
 10
96.63272108462184
 20
2184.642852476442
 30
0.0
 11
97.75379380876074
 21
2185.0508895785
 31
0.0
  0
LINE
  5
1A3
330
2
100
AcDbEntity
  8
3-t. Klapptreppe
  6
STRICHPUNKT2
 62
     1
100
AcDbLine
 10
98.18193729158702
 20
2180.386415930195
 30
0.0
 11
99.30301001572571
 21
2180.794453032253
 31
0.0
  0
LINE
  5
1A4
330
2
100
AcDbEntity
  8
3-t. Klapptreppe
  6
STRICHPUNKT2
 62
     1
100
AcDbLine
 10
95.44002268869713
 20
2189.663843935786
 30
0.0
 11
96.32690837198289
 21
2187.227145547461
 31
0.0
  0
CIRCLE
  5
1A5
330
2
100
AcDbEntity
  8
3-t. Klapptreppe
100
AcDbCircle
 10
98.74247365365636
 20
2180.590434481224
 30
0.0
 40
0.3410526239999999
  0
LINE
  5
1A6
330
2
100
AcDbEntity
  8
3-t. Klapptreppe
  6
STRICHPUNKT2
 62
     1
100
AcDbLine
 10
97.97267351192568
 20
2182.705442988001
 30
0.0
 11
98.94649220468522
 21
2180.029898119155
 31
0.0
  0
LINE
  5
1A7
330
2
100
AcDbEntity
  8
3-t. Klapptreppe
  6
STRICHPUNKT2
 62
     1
100
AcDbLine
 10
96.57962223371669
 20
2186.532819918804
 30
0.0
 11
97.63764641951253
 21
2183.625922359259
 31
0.0
  0
CIRCLE
  5
1A8
330
2
100
AcDbEntity
  8
3-t. Klapptreppe
100
AcDbCircle
 10
139.0348474494751
 20
2267.151959880695
 30
0.0
 40
0.341052624
  0
LINE
  5
1A9
330
2
100
AcDbEntity
  8
3-t. Klapptreppe
  6
STRICHPUNKT2
 62
     1
100
AcDbLine
 10
139.2388660004935
 20
2266.591423518622
 30
0.0
 11
138.8308288984567
 21
2267.712496242768
 31
0.0
  0
CIRCLE
  5
1AA
330
2
100
AcDbEntity
  8
3-t. Klapptreppe
100
AcDbCircle
 10
134.7784109032
 20
2265.602743673809
 30
0.0
 40
0.341052624
  0
LINE
  5
1AB
330
2
100
AcDbEntity
  8
3-t. Klapptreppe
  6
STRICHPUNKT2
 62
     1
100
AcDbLine
 10
134.9824294542186
 20
2265.042207311735
 30
0.0
 11
134.5743923521818
 21
2266.163280035882
 31
0.0
  0
LINE
  5
1AC
330
2
100
AcDbEntity
  8
3-t. Klapptreppe
  6
STRICHPUNKT2
 62
     1
100
AcDbLine
 10
130.7259929079432
 20
2263.492991104849
 30
0.0
 11
130.3179558059064
 21
2264.614063828995
 31
0.0
  0
LINE
  5
1AD
330
2
100
AcDbEntity
  8
3-t. Klapptreppe
  6
STRICHPUNKT2
 62
     1
100
AcDbLine
 10
139.5953838115483
 20
2267.355978431714
 30
0.0
 11
137.1586854232059
 21
2266.469092748473
 31
0.0
  0
CIRCLE
  5
1AE
330
2
100
AcDbEntity
  8
3-t. Klapptreppe
100
AcDbCircle
 10
130.5219743569248
 20
2264.053527466922
 30
0.0
 40
0.341052624
  0
LINE
  5
1AF
330
2
100
AcDbEntity
  8
3-t. Klapptreppe
  6
STRICHPUNKT2
 62
     1
100
AcDbLine
 10
132.6369828637157
 20
2264.823327608613
 30
0.0
 11
129.9614379948514
 21
2263.849508915903
 31
0.0
  0
LINE
  5
1B0
330
2
100
AcDbEntity
  8
3-t. Klapptreppe
  6
STRICHPUNKT2
 62
     1
100
AcDbLine
 10
136.4643597945448
 20
2266.216378886752
 30
0.0
 11
133.5574622349804
 21
2265.158354701009
 31
0.0
  0
LINE
  5
1B1
330
2
100
AcDbEntity
  8
3-t. Klapptreppe
100
AcDbLine
 10
134.9485041326122
 20
2259.649704700053
 30
0.0
 11
137.2456567647891
 21
2264.575964417224
 31
0.0
  0
LINE
  5
1B2
330
2
100
AcDbEntity
  8
3-t. Klapptreppe
100
AcDbLine
 10
134.7496818341265
 20
2266.327840914651
 30
0.0
 11
136.9879011682212
 21
2265.284142098532
 31
0.0
  0
ARC
  5
1B3
330
2
100
AcDbEntity
  8
3-t. Klapptreppe
100
AcDbCircle
 10
136.7626901258509
 20
2264.801175459594
 30
0.0
 40
0.5328947250000001
100
AcDbArc
 50
334.9999999999947
 51
65.00000000001207
  0
LINE
  5
1B4
330
2
100
AcDbEntity
  8
3-t. Klapptreppe
100
AcDbLine
 10
133.4675798290025
 20
2259.752286771278
 30
0.0
 11
134.2403264513036
 21
2259.391949103485
 31
0.0
  0
ARC
  5
1B5
330
2
100
AcDbEntity
  8
3-t. Klapptreppe
100
AcDbCircle
 10
134.465537493674
 20
2259.874915742424
 30
0.0
 40
0.5328947250000001
100
AcDbArc
 50
245.000000000012
 51
334.9999999999947
  0
LINE
  5
1B6
330
2
100
AcDbEntity
  8
3-t. Klapptreppe
100
AcDbLine
 10
131.8911025324105
 20
2256.37152029871
 30
0.0
 11
132.1808825157736
 21
2256.236393673288
 31
0.0
  0
LINE
  5
1B7
330
2
100
AcDbEntity
  8
3-t. Klapptreppe
100
AcDbLine
 10
135.6767287138423
 20
2257.42857832834
 30
0.0
 11
140.0007807273516
 21
2266.701537795954
 31
0.0
  0
LINE
  5
1B8
330
2
100
AcDbEntity
  8
3-t. Klapptreppe
100
AcDbLine
 10
134.7668619589858
 20
2266.721330466522
 30
0.0
 11
138.5323540780205
 21
2268.091857515214
 31
0.0
  0
ARC
  5
1B9
330
2
100
AcDbEntity
  8
3-t. Klapptreppe
100
AcDbCircle
 10
134.8397662510744
 20
2266.521027570226
 30
0.0
 40
0.21315789
100
AcDbArc
 50
110.0000000000471
 51
245.000000000012
  0
ARC
  5
1BA
330
2
100
AcDbEntity
  8
3-t. Klapptreppe
100
AcDbCircle
 10
139.0348474494751
 20
2267.151959880695
 30
0.0
 40
1.06578945
100
AcDbArc
 50
334.9999999999947
 51
118.1301023541918
  0
CIRCLE
  5
1BB
330
2
100
AcDbEntity
  8
3-t. Klapptreppe
100
AcDbCircle
 10
139.0348474494751
 20
2267.151959880695
 30
0.0
 40
0.5382236722500001
  0
LINE
  5
1BC
330
2
100
AcDbEntity
  8
3-t. Klapptreppe
100
AcDbLine
 10
131.8911025324105
 20
2256.37152029871
 30
0.0
 11
133.4675798290025
 21
2259.752286771278
 31
0.0
  0
LINE
  5
1BD
330
2
100
AcDbEntity
  8
3-t. Klapptreppe
100
AcDbLine
 10
132.1808825157736
 20
2256.236393673288
 30
0.0
 11
133.7573598123654
 21
2259.617160145856
 31
0.0
  0
LINE
  5
1BE
330
2
100
AcDbEntity
  8
3-t. Klapptreppe
100
AcDbLine
 10
134.1702889342771
 20
2256.719880479629
 30
0.0
 11
135.0396288843658
 21
2256.314500603362
 31
0.0
  0
ARC
  5
1BF
330
2
100
AcDbEntity
  8
3-t. Klapptreppe
100
AcDbCircle
 10
134.9945866758919
 20
2256.217907275575
 30
0.0
 40
0.106578945
100
AcDbArc
 50
334.9999999999947
 51
65.00000000001207
  0
LINE
  5
1C0
330
2
100
AcDbEntity
  8
3-t. Klapptreppe
100
AcDbLine
 10
134.8071320221927
 20
2255.912494827658
 30
0.0
 11
132.1808825157736
 21
2256.236393673288
 31
0.0
  0
ARC
  5
1C1
330
2
100
AcDbEntity
  8
3-t. Klapptreppe
100
AcDbCircle
 10
134.8332233843823
 20
2256.124049848606
 30
0.0
 40
0.21315789
100
AcDbArc
 50
262.9691397401141
 51
334.9999999999947
  0
ARC
  5
1C2
330
2
100
AcDbEntity
  8
3-t. Klapptreppe
100
AcDbCircle
 10
134.3954999766474
 20
2257.202847118567
 30
0.0
 40
0.5328947250000001
100
AcDbArc
 50
65.00000000001207
 51
245.000000000012
  0
LINE
  5
1C3
330
2
100
AcDbEntity
  8
3-t. Klapptreppe
100
AcDbLine
 10
134.6207110190175
 20
2257.685813757506
 30
0.0
 11
135.3934576413189
 21
2257.325476089713
 31
0.0
  0
ARC
  5
1C4
330
2
100
AcDbEntity
  8
3-t. Klapptreppe
100
AcDbCircle
 10
135.4835420582669
 20
2257.518662745289
 30
0.0
 40
0.21315789
100
AcDbArc
 50
245.000000000012
 51
334.9999999999947
  0
LINE
  5
1C5
330
2
100
AcDbEntity
  8
3-t. Klapptreppe
100
AcDbLine
 10
135.0911800036795
 20
2256.172865067101
 30
0.0
 11
135.0264100399577
 21
2256.033965431658
 31
0.0
  0
ARC
  5
1C6
330
2
100
AcDbEntity
  8
3-t. Klapptreppe
100
AcDbCircle
 10
134.8332233843823
 20
2256.124049848606
 30
0.0
 40
0.21315789
100
AcDbArc
 50
262.9691397401141
 51
334.9999999999947
  0
LINE
  5
1C7
330
2
100
AcDbEntity
  8
3-t. Klapptreppe
100
AcDbLine
 10
136.7501924715745
 20
2263.513437811559
 30
0.0
 11
138.1990923883893
 21
2262.837804684448
 31
0.0
  0
LINE
  5
1C8
330
2
100
AcDbEntity
  8
3-t. Klapptreppe
  6
DOTS
100
AcDbLine
 10
136.6102990211461
 20
2263.213435338982
 30
0.0
 11
138.0591989379609
 21
2262.537802211871
 31
0.0
  0
LINE
  5
1CA
330
2
100
AcDbEntity
  8
3-t. Klapptreppe
  6
DOTS
100
AcDbLine
 10
137.9143695169291
 20
2262.227214516175
 30
0.0
 11
136.4654696001144
 21
2262.902847643285
 31
0.0
  0
LINE
  5
1CB
330
2
100
AcDbEntity
  8
3-t. Klapptreppe
  6
AUSGEZOGEN
100
AcDbLine
 10
138.0180556120995
 20
2262.449570064828
 30
0.0
 11
136.5691556952847
 21
2263.125203191939
 31
0.0
  0
LINE
  5
1CD
330
2
100
AcDbEntity
  8
3-t. Klapptreppe
  6
STRICHPUNKT2
 62
     1
100
AcDbLine
 10
140.0007807273516
 20
2266.701537795954
 30
0.0
 11
138.0689141715984
 21
2267.602381965436
 31
0.0
  0
LINE
  5
1CE
330
2
100
AcDbEntity
  8
3-t. Klapptreppe
  6
STRICHPUNKT2
 62
     1
100
AcDbLine
 10
138.5844253647346
 20
2266.186026602818
 30
0.0
 11
139.4852695342156
 21
2268.117893158572
 31
0.0
  0
CIRCLE
  5
1CF
330
2
100
AcDbEntity
  8
3-t. Klapptreppe
100
AcDbCircle
 10
134.7784109032
 20
2265.602743673809
 30
0.0
 40
0.3303947295000001
  0
CIRCLE
  5
1D0
330
2
100
AcDbEntity
  8
3-t. Klapptreppe
100
AcDbCircle
 10
130.5219743569248
 20
2264.053527466922
 30
0.0
 40
0.3303947295000001
  0
CIRCLE
  5
1D1
330
2
100
AcDbEntity
  8
3-t. Klapptreppe
100
AcDbCircle
 10
139.0348474494751
 20
2267.151959880695
 30
0.0
 40
0.3303947295000001
  0
CIRCLE
  5
1D2
330
2
100
AcDbEntity
  8
3-t. Klapptreppe
100
AcDbCircle
 10
141.94299534013
 20
2278.796964779658
 30
0.0
 40
0.3303947295000001
  0
CIRCLE
  5
1D3
330
2
100
AcDbEntity
  8
3-t. Klapptreppe
100
AcDbCircle
 10
139.0451955065004
 20
2280.14823103388
 30
0.0
 40
0.3303947295000001
  0
CIRCLE
  5
1D4
330
2
100
AcDbEntity
  8
3-t. Klapptreppe
100
AcDbCircle
 10
166.2657879161211
 20
2330.95736178499
 30
0.0
 40
0.3303947295000001
  0
CIRCLE
  5
1D5
330
2
100
AcDbEntity
  8
3-t. Klapptreppe
100
AcDbCircle
 10
163.3679880824916
 20
2332.308628039212
 30
0.0
 40
0.3303947295000001
  0
LINE
  5
1D6
330
2
100
AcDbEntity
  8
3-t. Klapptreppe
100
AcDbLine
 10
176.1781947848299
 20
2341.622721641474
 30
0.0
 11
137.6759928717783
 21
2259.054483184078
 31
0.0
  0
LINE
  5
1D7
330
2
100
AcDbEntity
  8
3-t. Klapptreppe
100
AcDbLine
 10
137.6759928717783
 20
2259.054483184078
 30
0.0
 11
128.4996267319516
 21
2263.333492989113
 31
0.0
  0
LINE
  5
1D8
330
2
100
AcDbEntity
  8
3-t. Klapptreppe
100
AcDbLine
 10
128.4996267319516
 20
2263.333492989113
 30
0.0
 11
165.0064936272294
 21
2341.622721692159
 31
0.0
  0
LINE
  5
1D9
330
2
100
AcDbEntity
  8
3-t. Klapptreppe
100
AcDbLine
 10
165.0064936272294
 20
2341.622721692159
 30
0.0
 11
176.1781947848299
 21
2341.622721641474
 31
0.0
  0
LINE
  5
1DA
330
2
100
AcDbEntity
  8
3-t. Klapptreppe
100
AcDbLine
 10
135.0486641540442
 20
2266.182303640535
 30
0.0
 11
134.5081576523557
 21
2265.023183707082
 31
0.0
  0
LINE
  5
1DB
330
2
100
AcDbEntity
  8
3-t. Klapptreppe
100
AcDbLine
 10
134.1988509364741
 20
2265.872996924653
 30
0.0
 11
135.3579708699258
 21
2265.332490422964
 31
0.0
  0
LINE
  5
1DC
330
2
100
AcDbEntity
  8
3-t. Klapptreppe
100
AcDbLine
 10
130.792227607769
 20
2264.633087433648
 30
0.0
 11
130.2517211060803
 21
2263.473967500196
 31
0.0
  0
LINE
  5
1DD
330
2
100
AcDbEntity
  8
3-t. Klapptreppe
100
AcDbLine
 10
129.9424143901988
 20
2264.323780717766
 30
0.0
 11
131.1015343236506
 21
2263.783274216078
 31
0.0
  0
LINE
  5
1DE
330
2
100
AcDbEntity
  8
3-t. Klapptreppe
100
AcDbLine
 10
141.3634353734041
 20
2279.067218030502
 30
0.0
 11
142.5225553068558
 21
2278.526711528814
 31
0.0
  0
LINE
  5
1DF
330
2
100
AcDbEntity
  8
3-t. Klapptreppe
100
AcDbLine
 10
139.3051007003196
 20
2267.731519847421
 30
0.0
 11
138.7645941986306
 21
2266.572399913969
 31
0.0
  0
LINE
  5
1E0
330
2
100
AcDbEntity
  8
3-t. Klapptreppe
100
AcDbLine
 10
138.4552874827491
 20
2267.422213131539
 30
0.0
 11
139.6144074162011
 21
2266.881706629851
 31
0.0
  0
LINE
  5
1E1
330
2
100
AcDbEntity
  8
3-t. Klapptreppe
100
AcDbLine
 10
142.2132485909742
 20
2279.376524746384
 30
0.0
 11
141.6727420892857
 21
2278.217404812933
 31
0.0
  0
LINE
  5
1E2
330
2
100
AcDbEntity
  8
3-t. Klapptreppe
100
AcDbLine
 10
139.3154487573447
 20
2280.727791000606
 30
0.0
 11
138.7749422556562
 21
2279.568671067154
 31
0.0
  0
LINE
  5
1E3
330
2
100
AcDbEntity
  8
3-t. Klapptreppe
100
AcDbLine
 10
138.4656355397746
 20
2280.418484284725
 30
0.0
 11
139.6247554732263
 21
2279.877977783035
 31
0.0
  0
LINE
  5
1E4
330
2
100
AcDbEntity
  8
3-t. Klapptreppe
100
AcDbLine
 10
165.6862279493953
 20
2331.227615035834
 30
0.0
 11
166.8453478828469
 21
2330.687108534146
 31
0.0
  0
LINE
  5
1E5
330
2
100
AcDbEntity
  8
3-t. Klapptreppe
100
AcDbLine
 10
166.5360411669653
 20
2331.536921751716
 30
0.0
 11
165.9955346652768
 21
2330.377801818264
 31
0.0
  0
LINE
  5
1E6
330
2
100
AcDbEntity
  8
3-t. Klapptreppe
100
AcDbLine
 10
162.7884281157658
 20
2332.578881290055
 30
0.0
 11
163.9475480492174
 21
2332.038374788367
 31
0.0
  0
LINE
  5
1E7
330
2
100
AcDbEntity
  8
3-t. Klapptreppe
100
AcDbLine
 10
163.6382413333358
 20
2332.888188005937
 30
0.0
 11
163.0977348316473
 21
2331.729068072486
 31
0.0
  0
LINE
  5
1E8
330
2
100
AcDbEntity
  8
3-t. Klapptreppe
  6
VERDECKT
100
AcDbLine
 10
149.8321439993251
 20
2272.766257252766
 30
0.0
 11
151.6338323382874
 21
2276.629990364272
 31
0.0
  0
LINE
  5
1E9
330
2
100
AcDbEntity
  8
3-t. Klapptreppe
  6
STRICHPUNKT2
 62
     1
100
AcDbLine
 10
138.5617410913555
 20
2280.373669530031
 30
0.0
 11
139.5286499216454
 21
2279.922792537729
 31
0.0
  0
LINE
  5
1EA
330
2
100
AcDbEntity
  8
3-t. Klapptreppe
  6
STRICHPUNKT2
 62
     1
100
AcDbLine
 10
141.7175568439791
 20
2278.313510364514
 30
0.0
 11
142.1684338362811
 21
2279.280419194804
 31
0.0
  0
LINE
  5
1EB
330
2
100
AcDbEntity
  8
3-t. Klapptreppe
  6
STRICHPUNKT2
 62
     1
100
AcDbLine
 10
138.8197570103493
 20
2279.664776618735
 30
0.0
 11
139.2706340026516
 21
2280.631685449025
 31
0.0
  0
CIRCLE
  5
1EC
330
2
100
AcDbEntity
  8
3-t. Klapptreppe
100
AcDbCircle
 10
139.0451955065004
 20
2280.14823103388
 30
0.0
 40
0.3517105184999982
  0
CIRCLE
  5
1ED
330
2
100
AcDbEntity
  8
3-t. Klapptreppe
100
AcDbCircle
 10
141.94299534013
 20
2278.796964779658
 30
0.0
 40
0.3517105185000013
  0
LINE
  5
1EE
330
2
100
AcDbEntity
  8
3-t. Klapptreppe
  6
VERDECKT
100
AcDbLine
 10
150.5843488808418
 20
2274.37936582682
 30
0.0
 11
150.9707221919925
 21
2274.199196992924
 31
0.0
  0
LINE
  5
1EF
330
2
100
AcDbEntity
  8
3-t. Klapptreppe
  6
VERDECKT
100
AcDbLine
 10
150.8816274567707
 20
2275.016881790218
 30
0.0
 11
151.2680007679214
 21
2274.836712956322
 31
0.0
  0
LINE
  5
1F0
330
2
100
AcDbEntity
  8
3-t. Klapptreppe
  6
STRICHPUNKT2
 62
     1
100
AcDbLine
 10
141.459540924985
 20
2279.022403275809
 30
0.0
 11
142.4264497552749
 21
2278.571526283508
 31
0.0
  0
LINE
  5
1F1
330
2
100
AcDbEntity
  8
3-t. Klapptreppe
  6
STRICHPUNKT2
 62
     1
100
AcDbLine
 10
150.5076771292454
 20
2274.803188071733
 30
0.0
 11
151.4259173550163
 21
2274.375005622431
 31
0.0
  0
LINE
  5
1F2
330
2
100
AcDbEntity
  8
3-t. Klapptreppe
  6
VERDECKT
100
AcDbLine
 10
174.1549365753162
 20
2324.926654258097
 30
0.0
 11
175.9566249142785
 21
2328.790387369604
 31
0.0
  0
LINE
  5
1F3
330
2
100
AcDbEntity
  8
3-t. Klapptreppe
  6
STRICHPUNKT2
 62
     1
100
AcDbLine
 10
162.8845336673466
 20
2332.534066535362
 30
0.0
 11
163.8514424976365
 21
2332.08318954306
 31
0.0
  0
LINE
  5
1F4
330
2
100
AcDbEntity
  8
3-t. Klapptreppe
  6
STRICHPUNKT2
 62
     1
100
AcDbLine
 10
166.0403494199704
 20
2330.473907369845
 30
0.0
 11
166.491226412272
 21
2331.440816200135
 31
0.0
  0
LINE
  5
1F5
330
2
100
AcDbEntity
  8
3-t. Klapptreppe
  6
STRICHPUNKT2
 62
     1
100
AcDbLine
 10
163.1425495863407
 20
2331.825173624066
 30
0.0
 11
163.5934265786425
 21
2332.792082454356
 31
0.0
  0
CIRCLE
  5
1F6
330
2
100
AcDbEntity
  8
3-t. Klapptreppe
100
AcDbCircle
 10
163.3679880824916
 20
2332.308628039212
 30
0.0
 40
0.3517105184999982
  0
CIRCLE
  5
1F7
330
2
100
AcDbEntity
  8
3-t. Klapptreppe
100
AcDbCircle
 10
166.2657879161211
 20
2330.95736178499
 30
0.0
 40
0.3517105185000013
  0
LINE
  5
1F8
330
2
100
AcDbEntity
  8
3-t. Klapptreppe
  6
VERDECKT
100
AcDbLine
 10
174.9071414568329
 20
2326.539762832151
 30
0.0
 11
175.2935147679836
 21
2326.359593998255
 31
0.0
  0
LINE
  5
1F9
330
2
100
AcDbEntity
  8
3-t. Klapptreppe
  6
VERDECKT
100
AcDbLine
 10
175.2044200327618
 20
2327.17727879555
 30
0.0
 11
175.5907933439123
 21
2326.997109961653
 31
0.0
  0
LINE
  5
1FA
330
2
100
AcDbEntity
  8
3-t. Klapptreppe
  6
STRICHPUNKT2
 62
     1
100
AcDbLine
 10
165.7823335009761
 20
2331.18280028114
 30
0.0
 11
166.749242331266
 21
2330.731923288839
 31
0.0
  0
LINE
  5
1FB
330
2
100
AcDbEntity
  8
3-t. Klapptreppe
  6
STRICHPUNKT2
 62
     1
100
AcDbLine
 10
174.8304697052365
 20
2326.963585077064
 30
0.0
 11
175.7487099310071
 21
2326.535402627762
 31
0.0
  0
LWPOLYLINE
  5
1FC
330
2
100
AcDbEntity
  8
3-t. Klapptreppe
100
AcDbPolyline
 90
        4
 70
     1
 43
0.0
 10
150.2185173104758
 20
2272.58608841887
 10
137.1784180591428
 20
2278.666786562868
 10
138.9801063981051
 20
2282.530519674374
 10
152.0202056494381
 20
2276.449821530376
  0
LWPOLYLINE
  5
1FD
330
2
100
AcDbEntity
  8
3-t. Klapptreppe
100
AcDbPolyline
 90
        4
 70
     1
 43
0.0
 10
174.5413098864669
 20
2324.746485424201
 10
161.5012106351339
 20
2330.827183568199
 10
163.3028989740962
 20
2334.690916679705
 10
176.3429982254292
 20
2328.610218535708
  0
LWPOLYLINE
  5
1FE
330
2
100
AcDbEntity
  8
3-t. Klapptreppe
100
AcDbPolyline
 90
        8
 70
     1
 43
0.0
 10
-129.6862416611741
 20
2257.312820523702
 10
-129.877339567618
 20
2257.722631306215
 10
-133.4363217320801
 20
2259.017994877043
 10
-135.0023449225209
 20
2258.287746270198
 10
-135.5577299296328
 20
2256.761838502908
 10
-133.4365431680994
 20
2252.212938816999
 10
-132.064468328313
 20
2251.71354441664
 10
-131.6546575457994
 20
2251.904642323084
210
-0.0000000000000001
220
0.0
230
-1.0
  0
LWPOLYLINE
  5
1FF
330
2
100
AcDbEntity
  8
3-t. Klapptreppe
100
AcDbPolyline
 90
        8
 70
     0
 43
0.0
 10
126.1513949729467
 20
2263.596956111834
 10
131.1695430927113
 20
2249.809707458667
 42
0.198912367401717
 10
131.2797615720565
 20
2249.689425095156
 10
131.8896236856522
 20
2249.405041721117
 42
0.4142135623730951
 10
132.1728947581825
 20
2249.508143959725
 10
134.1816862603452
 20
2253.816011237206
 42
0.1989123673575991
 10
134.1888025010828
 20
2253.978999946225
 10
131.2510172811171
 20
2262.050498505173
  0
LWPOLYLINE
  5
200
330
2
100
AcDbEntity
  8
3-t. Klapptreppe
100
AcDbPolyline
 90
        9
 70
     0
 43
0.0
 10
128.1188427311053
 20
2263.511055484851
 10
131.2510172766092
 20
2262.050498507274
 10
139.3225158407922
 20
2264.988283728979
 42
0.1989123674018443
 10
139.4427982043055
 20
2265.098502208322
 10
141.451589705332
 20
2269.406369483161
 42
0.4142135623730951
 10
141.3484874667292
 20
2269.689640555693
 10
140.7386253511724
 20
2269.97402393066
 42
0.1989123673574718
 10
140.5756366421533
 20
2269.9811401714
 10
126.7883879941269
 20
2264.962992053792
  0
LWPOLYLINE
  5
201
330
2
100
AcDbEntity
  8
3-t. Klapptreppe
100
AcDbPolyline
 90
        9
 70
     0
 43
0.0
 10
101.8390670003846
 20
2178.314933963043
 10
96.82091887775506
 20
2192.102182609242
 42
0.1989123673574015
 10
96.71070039840152
 20
2192.2224649727
 10
96.10083828279016
 20
2192.50684834755
 42
0.4142135623730911
 10
95.81756721027772
 20
2192.403746108893
 10
93.80877571007545
 20
2188.09587883367
 42
0.1989123674019179
 10
93.80165946937882
 20
2187.932890124615
 10
96.7394446940225
 20
2179.861391561502
 10
99.87161923980602
 20
2178.400834584525
  0
LINE
  5
202
330
2
100
AcDbEntity
  8
3-t. Klapptreppe
  6
STRICHPUNKT
100
AcDbLine
 10
104.2160980071212
 20
2358.078593702789
 30
0.0
 11
104.2160980071212
 21
2355.458974797983
 31
0.0
  0
LINE
  5
204
330
2
100
AcDbEntity
  8
3-t. Klapptreppe
  6
STRICHPUNKT
100
AcDbLine
 10
102.9062885547182
 20
2356.768784250386
 30
0.0
 11
105.5259074595244
 21
2356.768784250386
 31
0.0
  0
CIRCLE
  5
205
330
2
100
AcDbEntity
  8
3-t. Klapptreppe
100
AcDbCircle
 10
104.2160980071212
 20
2356.768784250386
 30
0.0
 40
0.421875
  0
LINE
  5
206
330
2
100
AcDbEntity
  8
3-t. Klapptreppe
  6
STRICHPUNKT
100
AcDbLine
 10
82.14373550010941
 20
2356.768784250386
 30
0.0
 11
88.96271662119806
 21
2356.768784250386
 31
0.0
  0
LINE
  5
207
330
2
100
AcDbEntity
  8
3-t. Klapptreppe
100
AcDbLine
 10
83.34127283404905
 20
2361.86359506151
 30
0.0
 11
83.34127283404905
 21
2353.313595061511
 31
0.0
  0
LINE
  5
208
330
2
100
AcDbEntity
  8
3-t. Klapptreppe
100
AcDbLine
 10
83.63827283404885
 20
2361.86359506151
 30
0.0
 11
83.63827283404885
 21
2353.313595061511
 31
0.0
  0
LINE
  5
209
330
2
100
AcDbEntity
  8
3-t. Klapptreppe
100
AcDbLine
 10
84.19739783404883
 20
2360.427224918958
 30
0.0
 11
83.07239783404885
 21
2359.302224918959
 31
0.0
  0
LINE
  5
20A
330
2
100
AcDbEntity
  8
3-t. Klapptreppe
100
AcDbLine
 10
84.19739783404883
 20
2359.711279304208
 30
0.0
 11
83.07239783404885
 21
2358.586279304208
 31
0.0
  0
LINE
  5
20B
330
2
100
AcDbEntity
  8
3-t. Klapptreppe
100
AcDbLine
 10
84.19739783404883
 20
2358.995333685408
 30
0.0
 11
83.07239783404885
 21
2357.870333685408
 31
0.0
  0
LINE
  5
20C
330
2
100
AcDbEntity
  8
3-t. Klapptreppe
100
AcDbLine
 10
84.19739783404883
 20
2358.279388070659
 30
0.0
 11
83.07239783404885
 21
2357.154388070659
 31
0.0
  0
LINE
  5
20D
330
2
100
AcDbEntity
  8
3-t. Klapptreppe
100
AcDbLine
 10
84.19739783404883
 20
2356.13155122325
 30
0.0
 11
83.07239783404885
 21
2355.00655122325
 31
0.0
  0
LINE
  5
20E
330
2
100
AcDbEntity
  8
3-t. Klapptreppe
100
AcDbLine
 10
84.19739783404883
 20
2355.4156056085
 30
0.0
 11
83.07239783404885
 21
2354.2906056085
 31
0.0
  0
LINE
  5
20F
330
2
100
AcDbEntity
  8
3-t. Klapptreppe
100
AcDbLine
 10
84.19739783404883
 20
2354.6996599897
 30
0.0
 11
83.07239783404885
 21
2353.5746599897
 31
0.0
  0
LINE
  5
210
330
2
100
AcDbEntity
  8
3-t. Klapptreppe
100
AcDbLine
 10
84.19739783404883
 20
2353.98371437495
 30
0.0
 11
83.52727852060935
 21
2353.313595061511
 31
0.0
  0
LINE
  5
211
330
2
100
AcDbEntity
  8
3-t. Klapptreppe
100
AcDbLine
 10
83.48593112919274
 20
2361.86359506151
 30
0.0
 11
83.07239783404885
 21
2361.450061766367
 31
0.0
  0
LWPOLYLINE
  5
212
330
2
100
AcDbEntity
  8
3-t. Klapptreppe
100
AcDbPolyline
 90
        4
 70
     1
 43
0.0
 10
83.07239783404885
 20
2361.86359506151
 10
84.19739783404883
 20
2361.86359506151
 10
84.19739783404883
 20
2353.313595061511
 10
83.07239783404885
 20
2353.313595061511
  0
HATCH
  5
213
330
2
100
AcDbEntity
  8
3-t. Klapptreppe
100
AcDbHatch
 10
0.0
 20
0.0
 30
0.0
210
0.0
220
0.0
230
1.0
  2
AR-SAND,I
 70
     0
 71
     0
 91
        2
 92
        1
 93
        5
 72
     1
 10
83.07239783404885
 20
2353.28209506151
 11
84.19739783404883
 21
2353.28209506151
 72
     1
 10
84.19739783404883
 20
2353.28209506151
 11
84.19739783404883
 21
2341.01959506151
 72
     1
 10
84.19739783404883
 20
2341.01959506151
 11
83.07239783404885
 21
2341.01959506151
 72
     1
 10
83.07239783404885
 20
2341.01959506151
 11
83.07239783404885
 21
2341.919595061511
 72
     1
 10
83.07239783404885
 20
2341.919595061511
 11
83.07239783404885
 21
2353.28209506151
 97
        0
 92
        1
 93
        4
 72
     1
 10
83.07239783404885
 20
2368.019595061511
 11
84.19739783404883
 21
2368.019595061511
 72
     1
 10
84.19739783404883
 20
2368.019595061511
 11
84.19739783404883
 21
2361.86359506151
 72
     1
 10
84.19739783404883
 20
2361.86359506151
 11
83.07239783404885
 21
2361.86359506151
 72
     1
 10
83.07239783404885
 20
2361.86359506151
 11
83.07239783404885
 21
2368.019595061511
 97
        0
 75
     2
 76
     1
 52
0.0
 41
0.225
 77
     0
 78
     4
 53
37.5
 43
68.14261395689186
 44
2316.11102109572
 45
-0.0141735055746618
 46
0.4335353480279608
 79
     6
 49
0.0
 49
-0.342
 49
0.0
 49
-0.3825
 49
0.0
 49
-0.365625
 53
7.499999999999999
 43
68.14261395689186
 44
2316.11102109572
 45
0.3981997586852386
 46
0.6349828646766916
 79
     6
 49
0.0
 49
-0.1845
 49
0.0
 49
-0.30825
 49
0.0
 49
-0.118125
 53
327.5
 43
67.86586395689187
 44
2316.11102109572
 45
0.7006819188940864
 46
0.0012732870458171
 79
     6
 49
0.0
 49
-0.1125
 49
0.0
 49
-0.4050000000000001
 49
0.0
 49
-0.5287500000000001
 53
317.5
 43
67.86586395689187
 44
2316.11102109572
 45
0.6763784860287661
 46
0.1974770021102061
 79
     6
 49
0.0
 49
-0.05625
 49
0.0
 49
-0.2655
 49
0.0
 49
-0.30375
 98
        2
 10
83.18414305547571
 20
2351.571317834283
 10
83.45496352303554
 20
2364.090016352827
1001
GradientColor1ACI
1070
     5
1001
GradientColor2ACI
1070
     2
1001
ACAD
1010
0.0
1020
0.0
1030
0.0
  0
LINE
  5
214
330
2
100
AcDbEntity
  8
3-t. Klapptreppe
100
AcDbLine
 10
84.19739783404883
 20
2368.019595061511
 30
0.0
 11
83.07239783404885
 21
2368.019595061511
 31
0.0
  0
HATCH
  5
215
330
2
100
AcDbEntity
  8
3-t. Klapptreppe
100
AcDbHatch
 10
0.0
 20
0.0
 30
0.0
210
0.0
220
0.0
230
1.0
  2
ANSI33
 70
     0
 71
     0
 91
        3
 92
        1
 93
        4
 72
     1
 10
71.91277687663546
 20
2368.019595061511
 11
83.07239783404885
 21
2368.019595061511
 72
     1
 10
83.07239783404885
 20
2368.019595061511
 11
83.07239783404885
 21
2341.019595061511
 72
     1
 10
83.07239783404885
 20
2341.019595061511
 11
71.91277687663546
 21
2341.019595061511
 72
     1
 10
71.91277687663546
 20
2341.019595061511
 11
71.91277687663546
 21
2368.019595061511
 97
        0
 92
       16
 93
        4
 72
     1
 10
77.28961739675196
 20
2346.947217237083
 11
77.28961739675196
 21
2364.055059316602
 72
     1
 10
77.28961739675174
 20
2364.055059316602
 11
79.19067002833071
 21
2364.055059316602
 72
     1
 10
79.19067002833071
 20
2364.055059316602
 11
79.19067002833071
 21
2346.947217237083
 72
     1
 10
79.19067002833071
 20
2346.947217237083
 11
77.28961739675174
 21
2346.947217237083
 97
        0
 92
       16
 93
        4
 72
     1
 10
75.26813713359501
 20
2346.944914605504
 11
75.26813713359501
 21
2356.919094923267
 72
     1
 10
75.26813713359501
 20
2356.919094923267
 11
77.18300555464771
 21
2356.919094923267
 72
     1
 10
77.18300555464748
 20
2356.919094923267
 11
77.18300555464748
 21
2346.944914605504
 72
     1
 10
77.18300555464748
 20
2346.944914605504
 11
75.26813713359479
 21
2346.944914605504
 97
        0
 75
     1
 76
     1
 52
90.0
 41
10.0
 77
     0
 78
     2
 53
135.0
 43
149.9851173246893
 44
2082.0
 45
-1.767766952966368
 46
-1.767766952966368
 79
     0
 53
135.0
 43
149.9851173246893
 44
2083.76776695
 45
-1.767766952966368
 46
-1.767766952966368
 79
     2
 49
1.25
 49
-0.625
 98
        1
 10
79.23020701006294
 20
2361.939947353213
1001
GradientColor1ACI
1070
     5
1001
GradientColor2ACI
1070
     2
1001
ACAD
1010
0.0
1020
0.0
1030
0.0
  0
LWPOLYLINE
  5
216
330
2
100
AcDbEntity
  8
3-t. Klapptreppe
100
AcDbPolyline
 90
        4
 70
     1
 43
0.0
 10
83.07239783404885
 20
2341.019595061511
 10
71.91277687663546
 20
2341.019595061511
 10
71.91277687663546
 20
2368.019595061511
 10
83.07239783404885
 20
2368.019595061511
  0
TEXT
  5
217
330
2
100
AcDbEntity
  8
3-t. Klapptreppe
100
AcDbText
 10
78.81468048283068
 20
2347.264059342347
 30
0.0
 40
1.26
  1
Konstruktionsdecke
 50
90.0
  7
TECHNICBOLD
100
AcDbText
  0
TEXT
  5
218
330
2
100
AcDbEntity
  8
3-t. Klapptreppe
100
AcDbText
 10
76.80655548283175
 20
2347.264059342347
 30
0.0
 40
1.26
  1
Beton oder
 50
90.0
  7
TECHNICBOLD
100
AcDbText
  0
LWPOLYLINE
  5
219
330
2
100
AcDbEntity
  8
3-t. Klapptreppe
100
AcDbPolyline
 90
        4
 70
     1
 43
0.0
 10
84.19739783404883
 20
2348.894595061511
 10
88.47239783404893
 20
2348.894595061511
 10
88.47239783404893
 20
2368.019595061511
 10
84.19739783404883
 20
2368.019595061511
  0
LWPOLYLINE
  5
21A
330
2
100
AcDbEntity
  8
3-t. Klapptreppe
100
AcDbPolyline
 90
        4
 70
     1
 43
0.0
 10
196.1348978340488
 20
2348.894595061511
 10
191.8598978340487
 20
2348.894595061511
 10
191.8598978340487
 20
2368.019595061511
 10
196.1348978340488
 20
2368.019595061511
  0
LINE
  5
21B
330
2
100
AcDbEntity
  8
3-t. Klapptreppe
  6
STRICHPUNKT
100
AcDbLine
 10
176.1161976609765
 20
2358.078593702789
 30
0.0
 11
176.1161976609765
 21
2355.458974797982
 31
0.0
  0
LINE
  5
21C
330
2
100
AcDbEntity
  8
3-t. Klapptreppe
  6
STRICHPUNKT
100
AcDbLine
 10
177.4260071133797
 20
2356.768784250386
 30
0.0
 11
174.8063882085735
 21
2356.768784250386
 31
0.0
  0
CIRCLE
  5
21D
330
2
100
AcDbEntity
  8
3-t. Klapptreppe
100
AcDbCircle
 10
176.1161976609765
 20
2356.768784250386
 30
0.0
 40
0.421875
  0
LINE
  5
21E
330
2
100
AcDbEntity
  8
3-t. Klapptreppe
  6
STRICHPUNKT
100
AcDbLine
 10
198.1885601679882
 20
2356.768784250386
 30
0.0
 11
191.3695790468996
 21
2356.768784250386
 31
0.0
  0
LINE
  5
21F
330
2
100
AcDbEntity
  8
3-t. Klapptreppe
100
AcDbLine
 10
196.9910228340491
 20
2361.86359506151
 30
0.0
 11
196.9910228340491
 21
2353.313595061511
 31
0.0
  0
LINE
  5
220
330
2
100
AcDbEntity
  8
3-t. Klapptreppe
100
AcDbLine
 10
196.694022834049
 20
2361.86359506151
 30
0.0
 11
196.694022834049
 21
2353.313595061511
 31
0.0
  0
LINE
  5
221
330
2
100
AcDbEntity
  8
3-t. Klapptreppe
100
AcDbLine
 10
196.1348978340488
 20
2360.427224918958
 30
0.0
 11
197.2598978340488
 21
2359.302224918958
 31
0.0
  0
LINE
  5
222
330
2
100
AcDbEntity
  8
3-t. Klapptreppe
100
AcDbLine
 10
196.1348978340488
 20
2359.711279304208
 30
0.0
 11
197.2598978340488
 21
2358.586279304208
 31
0.0
  0
LINE
  5
223
330
2
100
AcDbEntity
  8
3-t. Klapptreppe
100
AcDbLine
 10
196.1348978340488
 20
2358.995333685408
 30
0.0
 11
197.2598978340488
 21
2357.870333685408
 31
0.0
  0
LINE
  5
224
330
2
100
AcDbEntity
  8
3-t. Klapptreppe
100
AcDbLine
 10
196.1348978340488
 20
2358.279388070658
 30
0.0
 11
197.2598978340488
 21
2357.154388070659
 31
0.0
  0
LINE
  5
225
330
2
100
AcDbEntity
  8
3-t. Klapptreppe
100
AcDbLine
 10
196.1348978340488
 20
2356.13155122325
 30
0.0
 11
197.2598978340488
 21
2355.00655122325
 31
0.0
  0
LINE
  5
226
330
2
100
AcDbEntity
  8
3-t. Klapptreppe
100
AcDbLine
 10
196.1348978340488
 20
2355.4156056085
 30
0.0
 11
197.2598978340488
 21
2354.2906056085
 31
0.0
  0
LINE
  5
227
330
2
100
AcDbEntity
  8
3-t. Klapptreppe
100
AcDbLine
 10
196.1348978340488
 20
2354.6996599897
 30
0.0
 11
197.2598978340488
 21
2353.5746599897
 31
0.0
  0
LINE
  5
228
330
2
100
AcDbEntity
  8
3-t. Klapptreppe
100
AcDbLine
 10
196.1348978340488
 20
2353.98371437495
 30
0.0
 11
196.8050171474888
 21
2353.313595061511
 31
0.0
  0
LINE
  5
229
330
2
100
AcDbEntity
  8
3-t. Klapptreppe
100
AcDbLine
 10
196.8463645389051
 20
2361.86359506151
 30
0.0
 11
197.2598978340488
 21
2361.450061766367
 31
0.0
  0
LWPOLYLINE
  5
22A
330
2
100
AcDbEntity
  8
3-t. Klapptreppe
100
AcDbPolyline
 90
        4
 70
     1
 43
0.0
 10
197.2598978340488
 20
2361.86359506151
 10
196.1348978340488
 20
2361.86359506151
 10
196.1348978340488
 20
2353.313595061511
 10
197.2598978340488
 20
2353.313595061511
  0
HATCH
  5
22B
330
2
100
AcDbEntity
  8
3-t. Klapptreppe
100
AcDbHatch
 10
0.0
 20
0.0
 30
0.0
210
0.0
220
0.0
230
1.0
  2
AR-SAND,I
 70
     0
 71
     0
 91
        2
 92
        1
 93
        6
 72
     1
 10
197.2598978340488
 20
2353.28209506151
 11
196.6973978340488
 21
2353.313595061511
 72
     1
 10
196.6973978340488
 20
2353.313595061511
 11
196.6973978340488
 21
2342.144595061511
 72
     1
 10
196.6973978340488
 20
2342.144595061511
 11
196.1348978340488
 21
2342.144595061511
 72
     1
 10
196.1348978340488
 20
2342.144595061511
 11
196.1348978340488
 21
2341.019595061511
 72
     1
 10
196.1348978340488
 20
2341.019595061511
 11
197.2598978340488
 21
2341.019595061511
 72
     1
 10
197.2598978340488
 20
2341.019595061511
 11
197.2598978340488
 21
2353.28209506151
 97
        0
 92
        1
 93
        4
 72
     1
 10
197.2598978340488
 20
2368.019595061511
 11
196.1348978340488
 21
2368.019595061511
 72
     1
 10
196.1348978340488
 20
2368.019595061511
 11
196.1348978340488
 21
2361.86359506151
 72
     1
 10
196.1348978340488
 20
2361.86359506151
 11
197.2598978340488
 21
2361.86359506151
 72
     1
 10
197.2598978340488
 20
2361.86359506151
 11
197.2598978340488
 21
2368.019595061511
 97
        0
 75
     2
 76
     1
 52
0.0
 41
0.225
 77
     0
 78
     4
 53
37.5
 43
68.14261395689186
 44
2316.11102109572
 45
-0.0141735055746618
 46
0.4335353480279608
 79
     6
 49
0.0
 49
-0.342
 49
0.0
 49
-0.3825
 49
0.0
 49
-0.365625
 53
7.499999999999999
 43
68.14261395689186
 44
2316.11102109572
 45
0.3981997586852386
 46
0.6349828646766916
 79
     6
 49
0.0
 49
-0.1845
 49
0.0
 49
-0.30825
 49
0.0
 49
-0.118125
 53
327.5
 43
67.86586395689187
 44
2316.11102109572
 45
0.7006819188940864
 46
0.0012732870458171
 79
     6
 49
0.0
 49
-0.1125
 49
0.0
 49
-0.4050000000000001
 49
0.0
 49
-0.5287500000000001
 53
317.5
 43
67.86586395689187
 44
2316.11102109572
 45
0.6763784860287661
 46
0.1974770021102061
 79
     6
 49
0.0
 49
-0.05625
 49
0.0
 49
-0.2655
 49
0.0
 49
-0.30375
 98
        2
 10
197.1481526126222
 20
2351.571317834283
 10
196.8773321450621
 20
2364.090016352827
1001
GradientColor1ACI
1070
     5
1001
GradientColor2ACI
1070
     2
1001
ACAD
1010
0.0
1020
0.0
1030
0.0
  0
LINE
  5
22C
330
2
100
AcDbEntity
  8
3-t. Klapptreppe
100
AcDbLine
 10
196.1348978340488
 20
2368.019595061511
 30
0.0
 11
197.2598978340488
 21
2368.019595061511
 31
0.0
  0
LWPOLYLINE
  5
22D
330
2
100
AcDbEntity
  8
3-t. Klapptreppe
100
AcDbPolyline
 90
        4
 70
     1
 43
0.0
 10
197.2598978340488
 20
2341.019595061511
 10
208.4195187914624
 20
2341.019595061511
 10
208.4195187914624
 20
2368.019595061511
 10
197.2598978340488
 20
2368.019595061511
  0
HATCH
  5
22E
330
2
100
AcDbEntity
  8
3-t. Klapptreppe
100
AcDbHatch
 10
0.0
 20
0.0
 30
0.0
210
0.0
220
0.0
230
1.0
  2
ANSI33
 70
     0
 71
     0
 91
        3
 92
        1
 93
        4
 72
     1
 10
197.2598978340488
 20
2368.019595061511
 11
208.4195187914624
 21
2368.019595061511
 72
     1
 10
208.4195187914624
 20
2368.019595061511
 11
208.4195187914624
 21
2341.019595061511
 72
     1
 10
208.4195187914624
 20
2341.019595061511
 11
197.2598978340488
 21
2341.019595061511
 72
     1
 10
197.2598978340488
 20
2341.019595061511
 11
197.2598978340488
 21
2368.019595061511
 97
        0
 92
       16
 93
        4
 72
     1
 10
202.6367383541651
 20
2346.947217237083
 11
202.6367383541651
 21
2364.055059316602
 72
     1
 10
202.6367383541651
 20
2364.055059316602
 11
204.5377909857438
 21
2364.055059316602
 72
     1
 10
204.5377909857443
 20
2364.055059316602
 11
204.5377909857443
 21
2346.947217237083
 72
     1
 10
204.5377909857443
 20
2346.947217237083
 11
202.6367383541656
 21
2346.947217237083
 97
        0
 92
       16
 93
        4
 72
     1
 10
200.6152580910084
 20
2346.944914605504
 11
200.6152580910084
 21
2356.919094923267
 72
     1
 10
200.6152580910084
 20
2356.919094923267
 11
202.5301265120611
 21
2356.919094923267
 72
     1
 10
202.5301265120611
 20
2356.919094923267
 11
202.5301265120611
 21
2346.944914605504
 72
     1
 10
202.5301265120611
 20
2346.944914605504
 11
200.6152580910084
 21
2346.944914605504
 97
        0
 75
     1
 76
     1
 52
90.0
 41
10.0
 77
     0
 78
     2
 53
135.0
 43
149.9851173246893
 44
2082.0
 45
-1.767766952966368
 46
-1.767766952966368
 79
     0
 53
135.0
 43
149.9851173246893
 44
2083.76776695
 45
-1.767766952966368
 46
-1.767766952966368
 79
     2
 49
1.25
 49
-0.625
 98
        1
 10
204.5773279674763
 20
2361.939947353213
1001
GradientColor1ACI
1070
     5
1001
GradientColor2ACI
1070
     2
1001
ACAD
1010
0.0
1020
0.0
1030
0.0
  0
TEXT
  5
22F
330
2
100
AcDbEntity
  8
3-t. Klapptreppe
100
AcDbText
 10
204.1618014402443
 20
2347.264059342347
 30
0.0
 40
1.26
  1
Konstruktionsdecke
 50
90.0
  7
TECHNICBOLD
100
AcDbText
  0
TEXT
  5
230
330
2
100
AcDbEntity
  8
3-t. Klapptreppe
100
AcDbText
 10
202.1536764402454
 20
2347.264059342347
 30
0.0
 40
1.26
  1
Beton oder
 50
90.0
  7
TECHNICBOLD
100
AcDbText
  0
LINE
  5
231
330
2
100
AcDbEntity
  8
3-t. Klapptreppe
100
AcDbLine
 10
88.47239783404893
 20
2368.019595061511
 30
0.0
 11
191.8598978340487
 21
2368.019595061511
 31
0.0
  0
LWPOLYLINE
  5
232
330
2
100
AcDbEntity
  8
3-t. Klapptreppe
100
AcDbPolyline
 90
        4
 70
     1
 43
0.0
 10
79.24739783404902
 20
2340.679595061511
 10
85.77239783404889
 20
2340.679595061511
 10
85.77239783404889
 20
2341.019595061511
 10
79.24739783404902
 20
2341.019595061511
  0
LWPOLYLINE
  5
233
330
2
100
AcDbEntity
  8
3-t. Klapptreppe
100
AcDbPolyline
 90
        4
 70
     1
 43
0.0
 10
194.3348978340491
 20
2340.679595061511
 10
201.0848978340491
 20
2340.679595061511
 10
201.0848978340491
 20
2341.019595061511
 10
194.3348978340491
 20
2341.019595061511
  0
LINE
  5
234
330
2
100
AcDbEntity
  8
3-t. Klapptreppe
100
AcDbLine
 10
83.93527283404887
 20
2361.86359506151
 30
0.0
 11
83.93527283404887
 21
2353.313595061511
 31
0.0
  0
LINE
  5
235
330
2
100
AcDbEntity
  8
3-t. Klapptreppe
100
AcDbLine
 10
196.4003978340488
 20
2361.86359506151
 30
0.0
 11
196.4003978340488
 21
2353.313595061511
 31
0.0
  0
LWPOLYLINE
  5
236
330
2
100
AcDbEntity
  8
3-t. Klapptreppe
100
AcDbPolyline
 90
       14
 70
     0
 43
0.0
 10
85.77239783404889
 20
2342.686532999855
 10
85.77239783404889
 20
2344.732095061511
 10
86.78489783404893
 20
2344.732095061511
 10
86.78489783404893
 20
2346.532095061511
 10
87.58364783404932
 20
2346.532095061511
 10
87.58364783404932
 20
2347.094595061511
 10
87.92114783404917
 20
2347.094595061511
 10
87.92114783404917
 20
2346.532095061511
 10
88.47239783404893
 20
2346.532095061511
 10
88.47239783404893
 20
2348.894595061511
 10
84.19739783404883
 20
2348.894595061511
 10
84.19739783404883
 20
2341.019595061511
 10
85.77239783404889
 20
2341.019595061511
 10
85.77239783404889
 20
2342.032095061512
  0
LWPOLYLINE
  5
237
330
2
100
AcDbEntity
  8
3-t. Klapptreppe
100
AcDbPolyline
 90
       13
 70
     0
 43
0.0
 10
194.3348978340491
 20
2341.019595061511
 10
194.3348978340491
 20
2344.732095061511
 10
193.5473978340487
 20
2344.732095061511
 10
193.5473978340487
 20
2346.532095061511
 10
192.7486478340488
 20
2346.532095061511
 10
192.7486478340488
 20
2347.094595061511
 10
192.4111478340487
 20
2347.094595061511
 10
192.4111478340487
 20
2346.532095061511
 10
191.8598978340487
 20
2346.532095061511
 10
191.8598978340487
 20
2348.894595061511
 10
196.1348978340488
 20
2348.894595061511
 10
196.1348978340488
 20
2341.019595061511
 10
194.3348978340491
 20
2341.019595061511
  0
ELLIPSE
  5
238
330
2
100
AcDbEntity
  8
3-t. Klapptreppe
100
AcDbEllipse
 10
87.75239783404913
 20
2346.363345061512
 30
0.0
 11
0.675
 21
0.0000000000000003
 31
0.0
210
0.0
220
0.0
230
1.0
 40
0.25
 41
0.0
 42
6.283185307179586
  0
LWPOLYLINE
  5
239
330
2
100
AcDbEntity
  8
3-t. Klapptreppe
100
AcDbPolyline
 90
        4
 70
     1
 43
0.0
 10
86.78489783404893
 20
2344.732095061511
 10
86.9873978340488
 20
2344.732095061511
 10
86.9873978340488
 20
2346.532095061511
 10
86.78489783404893
 20
2346.532095061511
  0
LWPOLYLINE
  5
23A
330
2
100
AcDbEntity
  8
3-t. Klapptreppe
100
AcDbPolyline
 90
        4
 70
     1
 43
0.0
 10
85.99739783404903
 20
2342.932095061511
 10
86.19989783404889
 20
2343.111813682625
 10
86.19989783404889
 20
2344.732095061511
 10
85.99739783404903
 20
2344.732095061511
  0
LWPOLYLINE
  5
23B
330
2
100
AcDbEntity
  8
3-t. Klapptreppe
100
AcDbPolyline
 90
        4
 70
     0
 43
0.0
 10
85.77239783404889
 20
2342.032095061512
 10
85.77239783404889
 20
2340.119595061511
 10
85.99739783404903
 20
2340.119595061511
 10
85.99739783404903
 20
2342.032095061512
  0
LWPOLYLINE
  5
23C
330
2
100
AcDbEntity
  8
3-t. Klapptreppe
100
AcDbPolyline
 90
        4
 70
     0
 43
0.0
 10
85.99739783404903
 20
2342.939805380304
 10
85.99739783404903
 20
2344.732095061511
 10
85.77239783404889
 20
2344.732095061511
 10
85.77239783404889
 20
2342.686532999855
  0
ELLIPSE
  5
23D
330
2
100
AcDbEntity
  8
3-t. Klapptreppe
100
AcDbEllipse
 10
192.5798978340485
 20
2346.363345061512
 30
0.0
 11
0.675
 21
0.0000000000000003
 31
0.0
210
0.0
220
0.0
230
1.0
 40
0.25
 41
0.0
 42
6.283185307179586
  0
LWPOLYLINE
  5
23E
330
2
100
AcDbEntity
  8
3-t. Klapptreppe
100
AcDbPolyline
 90
        4
 70
     1
 43
0.0
 10
193.3448978340489
 20
2344.732095061511
 10
193.5473978340487
 20
2344.732095061511
 10
193.5473978340487
 20
2346.532095061511
 10
193.3448978340489
 20
2346.532095061511
  0
LWPOLYLINE
  5
23F
330
2
100
AcDbEntity
  8
3-t. Klapptreppe
100
AcDbPolyline
 90
        4
 70
     1
 43
0.0
 10
193.963647834049
 20
2342.369595061511
 10
194.1661478340488
 20
2342.369595061511
 10
194.1661478340488
 20
2344.169595061512
 10
193.963647834049
 20
2344.169595061512
  0
LWPOLYLINE
  5
240
330
2
100
AcDbEntity
  8
3-t. Klapptreppe
100
AcDbPolyline
 90
        8
 70
     0
 43
0.0
 10
194.1661478340488
 20
2344.169595061512
 10
194.3348978340491
 20
2344.169595061512
 10
194.3348978340491
 20
2340.794595061511
 42
-3.732050807568986
 10
194.138022834049
 20
2341.135592564251
 10
194.1661478340488
 20
2341.117726710379
 10
194.0697192626208
 20
2340.979241718007
 42
4.075101114960545
 10
194.1661478340488
 20
2340.794595061511
 10
194.1661478340488
 20
2344.169595061512
  0
LINE
  5
241
330
2
100
AcDbEntity
  8
3-t. Klapptreppe
100
AcDbLine
 10
190.7872699439085
 20
2342.017012442803
 30
0.0
 11
190.7159531122397
 21
2341.86407300374
 31
0.0
  0
LINE
  5
242
330
2
100
AcDbEntity
  8
3-t. Klapptreppe
100
AcDbLine
 10
190.7159531122397
 20
2341.86407300374
 30
0.0
 11
193.7747418934887
 21
2340.437736370365
 31
0.0
  0
ARC
  5
243
330
2
100
AcDbEntity
  8
3-t. Klapptreppe
100
AcDbCircle
 10
193.9411478340489
 20
2340.794595061511
 30
0.0
 40
0.3937500000000895
100
AcDbArc
 50
180.0
 51
120.0000000000085
  0
LINE
  5
244
330
2
100
AcDbEntity
  8
3-t. Klapptreppe
100
AcDbLine
 10
193.7442728340488
 20
2341.135592564251
 30
0.0
 11
193.7161478340495
 21
2341.117726710378
 31
0.0
  0
LWPOLYLINE
  5
245
330
2
100
AcDbEntity
  8
3-t. Klapptreppe
100
AcDbPolyline
 90
        2
 70
     0
 43
0.0
 10
193.5532019955503
 20
2340.727237145185
 10
190.7872699439085
 20
2342.017012442803
  0
LINE
  5
246
330
2
100
AcDbEntity
  8
3-t. Klapptreppe
100
AcDbLine
 10
88.47239783404893
 20
2346.532095061511
 30
0.0
 11
191.8598978340487
 21
2346.532095061511
 31
0.0
  0
LINE
  5
247
330
2
100
AcDbEntity
  8
3-t. Klapptreppe
100
AcDbLine
 10
194.3348978340491
 20
2340.679595061511
 30
0.0
 11
85.99739783404903
 21
2340.679595061511
 31
0.0
  0
LWPOLYLINE
  5
248
330
2
100
AcDbEntity
  8
3-t. Klapptreppe
100
AcDbPolyline
 90
        4
 70
     1
 43
0.0
 10
188.6429570712612
 20
2342.210076853557
 10
143.9986204466283
 20
2246.469988000473
 10
144.4064589507948
 20
2246.27980978269
 10
189.0507955754278
 20
2342.019898635774
  0
LWPOLYLINE
  5
249
330
2
100
AcDbEntity
  8
3-t. Klapptreppe
100
AcDbPolyline
 90
        6
 70
     1
 43
0.0
 10
148.5237610198228
 20
2250.690511107012
 10
150.7056970171138
 20
2249.673057641871
 10
192.0694593849848
 20
2338.377932298083
 10
188.194993595403
 20
2340.184625367025
 10
145.2622609308198
 20
2248.115083051439
 10
146.9547907231106
 20
2247.325843447638
  0
LWPOLYLINE
  5
24A
330
2
100
AcDbEntity
  8
3-t. Klapptreppe
100
AcDbPolyline
 90
        6
 70
     0
 43
0.0
 10
150.2525606594072
 20
2247.636512874416
 10
193.5708226414053
 20
2340.532825479257
 10
193.1629841372387
 20
2340.723003697041
 10
147.9481128592556
 20
2243.759399331457
 10
148.3559513634222
 20
2243.569221113673
 10
149.4919749617784
 20
2246.005431582211
  0
LWPOLYLINE
  5
24B
330
2
100
AcDbEntity
  8
3-t. Klapptreppe
100
AcDbPolyline
 90
        9
 70
     0
 43
0.0
 10
145.2622609308198
 20
2248.115083051439
 10
144.4064589507948
 20
2246.27980978269
 10
145.5280148372526
 20
2245.756819683785
 10
145.1952029561319
 20
2245.043102301494
 10
145.399122208215
 20
2244.948013192603
 10
145.4942113171066
 20
2245.151932444686
 10
145.8612659708565
 20
2244.980772048681
 10
146.9547907231106
 20
2247.325843447638
 10
145.2622609308198
 20
2248.115083051439
  0
LWPOLYLINE
  5
24C
330
2
100
AcDbEntity
  8
3-t. Klapptreppe
100
AcDbPolyline
 90
        4
 70
     0
 43
0.0
 10
146.2620668451031
 20
2244.545615499858
 10
145.399122208215
 20
2244.948013192603
 10
145.4942113171066
 20
2245.151932444686
 10
146.2732043307085
 20
2244.788682036794
  0
LWPOLYLINE
  5
24D
330
2
100
AcDbEntity
  8
3-t. Klapptreppe
100
AcDbPolyline
 90
        4
 70
     0
 43
0.0
 10
147.533403837939
 20
2244.201041355769
 10
148.043201968147
 20
2243.96331858354
 10
147.9481128592554
 20
2243.759399331457
 10
147.4383147290473
 20
2243.997122103686
  0
LINE
  5
24E
330
2
100
AcDbEntity
  8
3-t. Klapptreppe
100
AcDbLine
 10
149.7010838933368
 20
2247.518657845497
 30
0.0
 11
152.2043888843955
 21
2248.05363429467
 31
0.0
  0
LINE
  5
24F
330
2
100
AcDbEntity
  8
3-t. Klapptreppe
100
AcDbLine
 10
148.9465485026176
 20
2245.900551478331
 30
0.0
 11
154.8085786553133
 21
2247.027761794285
 31
0.0
  0
ARC
  5
250
330
2
100
AcDbEntity
  8
3-t. Klapptreppe
100
AcDbCircle
 10
154.5057796455066
 20
2248.7450203136
 30
0.0
 40
1.74375
100
AcDbArc
 50
280.0000000000167
 51
180.6310844215284
  0
ARC
  5
251
330
2
100
AcDbEntity
  8
3-t. Klapptreppe
100
AcDbCircle
 10
152.0871763644702
 20
2248.718379527954
 30
0.0
 40
0.675
100
AcDbArc
 50
280.0000000000167
 51
0.6310844215284912
  0
ARC
  5
252
330
2
100
AcDbEntity
  8
3-t. Klapptreppe
100
AcDbCircle
 10
148.4182598247014
 20
2244.568605600756
 30
0.0
 40
2.156315540455191
100
AcDbArc
 50
174.1421164656719
 51
227.5502558397824
  0
LINE
  5
253
330
2
100
AcDbEntity
  8
3-t. Klapptreppe
100
AcDbLine
 10
146.9628691845892
 20
2242.97752584327
 30
0.0
 11
147.533403837939
 21
2244.201041355769
 31
0.0
  0
LWPOLYLINE
  5
254
330
2
100
AcDbEntity
  8
3-t. Klapptreppe
100
AcDbPolyline
 90
        7
 70
     0
 43
0.0
 10
188.194993595403
 20
2340.184625367025
 10
189.0507955754278
 20
2342.019898635774
 10
190.1723514618857
 20
2341.49690853687
 10
190.4100742341147
 20
2342.006706667078
 10
193.1629841372387
 20
2340.723003697041
 10
192.0694593849848
 20
2338.377932298083
 10
188.194993595403
 20
2340.184625367025
  0
LWPOLYLINE
  5
255
330
2
100
AcDbEntity
  8
3-t. Klapptreppe
100
AcDbPolyline
 90
        4
 70
     1
 43
0.0
 10
196.1348978340488
 20
2342.144595061511
 10
196.6973978340488
 20
2342.144595061511
 10
196.6973978340488
 20
2358.457095061512
 10
196.1348978340488
 20
2358.457095061512
  0
LWPOLYLINE
  5
256
330
2
100
AcDbEntity
  8
3-t. Klapptreppe
100
AcDbPolyline
 90
        4
 70
     1
 43
0.0
 10
144.8544224266543
 20
2248.305261269221
 10
148.1825412378625
 20
2255.442435092135
 10
146.653146847238
 20
2256.155603408823
 10
143.32502803603
 20
2249.018429585909
  0
LWPOLYLINE
  5
257
330
2
100
AcDbEntity
  8
3-t. Klapptreppe
100
AcDbPolyline
 90
        4
 70
     1
 43
0.0
 10
187.0264422201044
 20
2338.743449568141
 10
187.9773333090211
 20
2340.782642088974
 10
183.8989482673562
 20
2342.684424266807
 10
182.9480571784395
 20
2340.645231745975
  0
LWPOLYLINE
  5
258
330
2
100
AcDbEntity
  8
3-t. Klapptreppe
100
AcDbPolyline
 90
        4
 70
     1
 43
0.0
 10
143.32502803603
 20
2249.018429585909
 10
144.2759191249467
 20
2251.057622106741
 10
141.7269284739061
 20
2252.246235967887
 10
140.7760373849896
 20
2250.207043447055
  0
LWPOLYLINE
  5
259
330
2
100
AcDbEntity
  8
3-t. Klapptreppe
100
AcDbPolyline
 90
        4
 70
     1
 43
0.0
 10
140.7760373849896
 20
2250.207043447055
 10
183.8989482673562
 20
2342.684424266807
 10
183.0832712590231
 20
2343.064780702373
 10
139.9603603766566
 20
2250.587399882622
  0
HATCH
  5
25A
330
2
100
AcDbEntity
  8
Bauseitig_Beton
100
AcDbHatch
 10
0.0
 20
0.0
 30
0.0
210
0.0
220
0.0
230
1.0
  2
ANSI31
 70
     0
 71
     1
 91
        1
 92
        7
 72
     0
 73
     1
 93
        4
 10
1203.8
 20
2485.893391009475
 10
1203.8
 20
2477.893391009475
 10
1302.996630732563
 20
2477.893391009475
 10
1302.996630732563
 20
2485.893391009475
 97
        1
330
25B
 75
     1
 76
     1
 52
0.0
 41
50.0
 77
     0
 78
     1
 53
45.0
 43
1111.696630732564
 44
2050.0
 45
-4.419417382415921
 46
4.419417382415922
 79
     0
 47
0.2285218501967519
 98
        1
 10
1264.385090153101
 20
2483.606751253734
1001
GradientColor1ACI
1070
     5
1001
GradientColor2ACI
1070
     2
1001
ACAD
1010
0.0
1020
0.0
1030
0.0
  0
LWPOLYLINE
  5
25B
102
{ACAD_REACTORS
330
25A
102
}
330
2
100
AcDbEntity
  8
Bauseitig_Beton
100
AcDbPolyline
 90
        4
 70
     1
 43
0.0
 10
1203.8
 20
2485.893391009475
 10
1302.996630732563
 20
2485.893391009475
 10
1302.996630732563
 20
2477.893391009475
 10
1203.8
 20
2477.893391009475
  0
LWPOLYLINE
  5
25C
102
{ACAD_REACTORS
330
6A
102
}
330
2
100
AcDbEntity
  8
Bauseitig_Beton
100
AcDbPolyline
 90
        4
 70
     1
 43
0.0
 10
1302.996220898765
 20
2485.893391009474
 10
1203.799590166201
 20
2485.893391009474
 10
1203.799590166201
 20
2717.893391009476
 10
1302.996220898765
 20
2717.893391009476
  0
MTEXT
  5
25D
102
{ACAD_XDICTIONARY
360
25E
102
}
330
2
100
AcDbEntity
  8
Bauseitig_Beton
 62
     1
100
AcDbMText
 10
1250.238926180658
 20
2567.657454298599
 30
0.0
 40
10.0
 41
37.77744553950834
 46
0.0
 71
     1
 72
     5
  1
Beton
  7
TECHNICBOLD
 11
0.0000000000000001
 21
1.0
 31
0.0
 73
     1
 44
1.0
 90
        3
 63
   256
 45
1.199999999999999
441
        0
1001
AcadAnnotative
1000
AnnotativeData
1002
{
1070
     1
1070
     0
1002
}
1001
ACAD
1000
ACAD_MTEXT_COLUMN_INFO_BEGIN
1070
    75
1070
     2
1070
    79
1070
     0
1070
    76
1070
     1
1070
    78
1070
     0
1070
    48
1040
37.77744553950834
1070
    49
1040
17.5
1070
    50
1070
     1
1040
0.0
1000
ACAD_MTEXT_COLUMN_INFO_END
  0
LWPOLYLINE
  5
261
330
2
100
AcDbEntity
  8
Bauseitig_Beton
100
AcDbPolyline
 90
        4
 70
     1
 43
0.0
 10
1196.3
 20
2717.893391009476
 10
1203.8
 20
2717.893391009476
 10
1203.8
 20
2485.893391009474
 10
1196.3
 20
2485.893391009475
  0
ARC
  5
262
330
2
100
AcDbEntity
  8
Bauseitig_Beton
100
AcDbCircle
 10
1198.3
 20
2717.888272625835
 30
0.0
 40
2.0
100
AcDbArc
 50
179.8533689496797
 51
270.0
  0
LINE
  5
263
330
2
100
AcDbEntity
  8
Bauseitig_Beton
100
AcDbLine
 10
1201.8
 20
2717.888272625835
 30
0.0
 11
1198.3
 21
2715.888272625835
 31
0.0
  0
ARC
  5
264
330
2
100
AcDbEntity
  8
Bauseitig_Beton
100
AcDbCircle
 10
1201.8
 20
2715.888272625835
 30
0.0
 40
2.0
100
AcDbArc
 50
270.0
 51
90.0
  0
ARC
  5
265
330
2
100
AcDbEntity
  8
Bauseitig_Beton
100
AcDbCircle
 10
1198.3
 20
2713.888272625835
 30
0.0
 40
2.0
100
AcDbArc
 50
90.0
 51
270.0
  0
LINE
  5
266
330
2
100
AcDbEntity
  8
Bauseitig_Beton
100
AcDbLine
 10
1198.3
 20
2715.888272625835
 30
0.0
 11
1201.8
 21
2713.888272625835
 31
0.0
  0
LINE
  5
267
330
2
100
AcDbEntity
  8
Bauseitig_Beton
100
AcDbLine
 10
1201.8
 20
2713.888272625835
 30
0.0
 11
1198.3
 21
2711.888272625835
 31
0.0
  0
ARC
  5
268
330
2
100
AcDbEntity
  8
Bauseitig_Beton
100
AcDbCircle
 10
1201.8
 20
2711.888272625835
 30
0.0
 40
2.0
100
AcDbArc
 50
270.0
 51
90.0
  0
ARC
  5
269
330
2
100
AcDbEntity
  8
Bauseitig_Beton
100
AcDbCircle
 10
1198.3
 20
2709.888272625835
 30
0.0
 40
2.0
100
AcDbArc
 50
90.0
 51
270.0
  0
LINE
  5
26A
330
2
100
AcDbEntity
  8
Bauseitig_Beton
100
AcDbLine
 10
1198.3
 20
2711.888272625835
 30
0.0
 11
1201.8
 21
2709.888272625835
 31
0.0
  0
LINE
  5
26B
330
2
100
AcDbEntity
  8
Bauseitig_Beton
100
AcDbLine
 10
1201.8
 20
2709.888272625835
 30
0.0
 11
1198.3
 21
2707.888272625835
 31
0.0
  0
ARC
  5
26C
330
2
100
AcDbEntity
  8
Bauseitig_Beton
100
AcDbCircle
 10
1201.8
 20
2707.888272625835
 30
0.0
 40
2.0
100
AcDbArc
 50
270.0
 51
90.0
  0
ARC
  5
26D
330
2
100
AcDbEntity
  8
Bauseitig_Beton
100
AcDbCircle
 10
1198.3
 20
2705.888272625835
 30
0.0
 40
2.0
100
AcDbArc
 50
90.0
 51
270.0
  0
LINE
  5
26E
330
2
100
AcDbEntity
  8
Bauseitig_Beton
100
AcDbLine
 10
1198.3
 20
2707.888272625835
 30
0.0
 11
1201.8
 21
2705.888272625835
 31
0.0
  0
LINE
  5
26F
330
2
100
AcDbEntity
  8
Bauseitig_Beton
100
AcDbLine
 10
1201.8
 20
2705.888272625835
 30
0.0
 11
1198.3
 21
2703.888272625835
 31
0.0
  0
ARC
  5
270
330
2
100
AcDbEntity
  8
Bauseitig_Beton
100
AcDbCircle
 10
1201.8
 20
2703.888272625835
 30
0.0
 40
2.0
100
AcDbArc
 50
270.0
 51
90.0
  0
ARC
  5
271
330
2
100
AcDbEntity
  8
Bauseitig_Beton
100
AcDbCircle
 10
1198.3
 20
2701.888272625835
 30
0.0
 40
2.0
100
AcDbArc
 50
90.0
 51
270.0
  0
LINE
  5
272
330
2
100
AcDbEntity
  8
Bauseitig_Beton
100
AcDbLine
 10
1198.3
 20
2703.888272625835
 30
0.0
 11
1201.8
 21
2701.888272625835
 31
0.0
  0
LINE
  5
273
330
2
100
AcDbEntity
  8
Bauseitig_Beton
100
AcDbLine
 10
1201.8
 20
2701.888272625835
 30
0.0
 11
1198.3
 21
2699.888272625835
 31
0.0
  0
ARC
  5
274
330
2
100
AcDbEntity
  8
Bauseitig_Beton
100
AcDbCircle
 10
1201.8
 20
2699.888272625835
 30
0.0
 40
2.0
100
AcDbArc
 50
270.0
 51
90.0
  0
ARC
  5
275
330
2
100
AcDbEntity
  8
Bauseitig_Beton
100
AcDbCircle
 10
1198.3
 20
2697.888272625835
 30
0.0
 40
2.0
100
AcDbArc
 50
90.0
 51
270.0
  0
LINE
  5
276
330
2
100
AcDbEntity
  8
Bauseitig_Beton
100
AcDbLine
 10
1198.3
 20
2699.888272625835
 30
0.0
 11
1201.8
 21
2697.888272625835
 31
0.0
  0
LINE
  5
277
330
2
100
AcDbEntity
  8
Bauseitig_Beton
100
AcDbLine
 10
1201.8
 20
2697.888272625835
 30
0.0
 11
1198.3
 21
2695.888272625835
 31
0.0
  0
ARC
  5
278
330
2
100
AcDbEntity
  8
Bauseitig_Beton
100
AcDbCircle
 10
1201.8
 20
2695.888272625835
 30
0.0
 40
2.0
100
AcDbArc
 50
270.0
 51
90.0
  0
ARC
  5
279
330
2
100
AcDbEntity
  8
Bauseitig_Beton
100
AcDbCircle
 10
1198.3
 20
2693.888272625835
 30
0.0
 40
2.0
100
AcDbArc
 50
90.0
 51
270.0
  0
LINE
  5
27A
330
2
100
AcDbEntity
  8
Bauseitig_Beton
100
AcDbLine
 10
1198.3
 20
2695.888272625835
 30
0.0
 11
1201.8
 21
2693.888272625835
 31
0.0
  0
LINE
  5
27B
330
2
100
AcDbEntity
  8
Bauseitig_Beton
100
AcDbLine
 10
1201.8
 20
2693.888272625835
 30
0.0
 11
1198.3
 21
2691.888272625835
 31
0.0
  0
ARC
  5
27C
330
2
100
AcDbEntity
  8
Bauseitig_Beton
100
AcDbCircle
 10
1201.8
 20
2691.888272625835
 30
0.0
 40
2.0
100
AcDbArc
 50
270.0
 51
90.0
  0
ARC
  5
27D
330
2
100
AcDbEntity
  8
Bauseitig_Beton
100
AcDbCircle
 10
1198.3
 20
2689.888272625835
 30
0.0
 40
2.0
100
AcDbArc
 50
90.0
 51
270.0
  0
LINE
  5
27E
330
2
100
AcDbEntity
  8
Bauseitig_Beton
100
AcDbLine
 10
1198.3
 20
2691.888272625835
 30
0.0
 11
1201.8
 21
2689.888272625835
 31
0.0
  0
LINE
  5
27F
330
2
100
AcDbEntity
  8
Bauseitig_Beton
100
AcDbLine
 10
1201.8
 20
2689.888272625835
 30
0.0
 11
1198.3
 21
2687.888272625835
 31
0.0
  0
ARC
  5
280
330
2
100
AcDbEntity
  8
Bauseitig_Beton
100
AcDbCircle
 10
1201.8
 20
2687.888272625835
 30
0.0
 40
2.0
100
AcDbArc
 50
270.0
 51
90.0
  0
ARC
  5
281
330
2
100
AcDbEntity
  8
Bauseitig_Beton
100
AcDbCircle
 10
1198.3
 20
2685.888272625835
 30
0.0
 40
2.0
100
AcDbArc
 50
90.0
 51
270.0
  0
LINE
  5
282
330
2
100
AcDbEntity
  8
Bauseitig_Beton
100
AcDbLine
 10
1198.3
 20
2687.888272625835
 30
0.0
 11
1201.8
 21
2685.888272625835
 31
0.0
  0
LINE
  5
283
330
2
100
AcDbEntity
  8
Bauseitig_Beton
100
AcDbLine
 10
1201.8
 20
2685.888272625835
 30
0.0
 11
1198.3
 21
2683.888272625835
 31
0.0
  0
ARC
  5
284
330
2
100
AcDbEntity
  8
Bauseitig_Beton
100
AcDbCircle
 10
1201.8
 20
2683.888272625835
 30
0.0
 40
2.0
100
AcDbArc
 50
270.0
 51
90.0
  0
ARC
  5
285
330
2
100
AcDbEntity
  8
Bauseitig_Beton
100
AcDbCircle
 10
1198.3
 20
2681.888272625835
 30
0.0
 40
2.0
100
AcDbArc
 50
90.0
 51
270.0
  0
LINE
  5
286
330
2
100
AcDbEntity
  8
Bauseitig_Beton
100
AcDbLine
 10
1198.3
 20
2683.888272625835
 30
0.0
 11
1201.8
 21
2681.888272625835
 31
0.0
  0
LINE
  5
287
330
2
100
AcDbEntity
  8
Bauseitig_Beton
100
AcDbLine
 10
1201.8
 20
2681.888272625835
 30
0.0
 11
1198.3
 21
2679.888272625835
 31
0.0
  0
ARC
  5
288
330
2
100
AcDbEntity
  8
Bauseitig_Beton
100
AcDbCircle
 10
1201.8
 20
2679.888272625835
 30
0.0
 40
2.0
100
AcDbArc
 50
270.0
 51
90.0
  0
ARC
  5
289
330
2
100
AcDbEntity
  8
Bauseitig_Beton
100
AcDbCircle
 10
1198.3
 20
2677.888272625835
 30
0.0
 40
2.0
100
AcDbArc
 50
90.0
 51
270.0
  0
LINE
  5
28A
330
2
100
AcDbEntity
  8
Bauseitig_Beton
100
AcDbLine
 10
1198.3
 20
2679.888272625835
 30
0.0
 11
1201.8
 21
2677.888272625835
 31
0.0
  0
LINE
  5
28B
330
2
100
AcDbEntity
  8
Bauseitig_Beton
100
AcDbLine
 10
1201.8
 20
2677.888272625835
 30
0.0
 11
1198.3
 21
2675.888272625835
 31
0.0
  0
ARC
  5
28C
330
2
100
AcDbEntity
  8
Bauseitig_Beton
100
AcDbCircle
 10
1201.8
 20
2675.888272625835
 30
0.0
 40
2.0
100
AcDbArc
 50
270.0
 51
90.0
  0
ARC
  5
28D
330
2
100
AcDbEntity
  8
Bauseitig_Beton
100
AcDbCircle
 10
1198.3
 20
2673.888272625835
 30
0.0
 40
2.0
100
AcDbArc
 50
90.0
 51
270.0
  0
LINE
  5
28E
330
2
100
AcDbEntity
  8
Bauseitig_Beton
100
AcDbLine
 10
1198.3
 20
2675.888272625835
 30
0.0
 11
1201.8
 21
2673.888272625835
 31
0.0
  0
LINE
  5
28F
330
2
100
AcDbEntity
  8
Bauseitig_Beton
100
AcDbLine
 10
1201.8
 20
2673.888272625835
 30
0.0
 11
1198.3
 21
2671.888272625835
 31
0.0
  0
ARC
  5
290
330
2
100
AcDbEntity
  8
Bauseitig_Beton
100
AcDbCircle
 10
1201.8
 20
2671.888272625835
 30
0.0
 40
2.0
100
AcDbArc
 50
270.0
 51
90.0
  0
ARC
  5
291
330
2
100
AcDbEntity
  8
Bauseitig_Beton
100
AcDbCircle
 10
1198.3
 20
2669.888272625835
 30
0.0
 40
2.0
100
AcDbArc
 50
90.0
 51
270.0
  0
LINE
  5
292
330
2
100
AcDbEntity
  8
Bauseitig_Beton
100
AcDbLine
 10
1198.3
 20
2671.888272625835
 30
0.0
 11
1201.8
 21
2669.888272625835
 31
0.0
  0
LINE
  5
293
330
2
100
AcDbEntity
  8
Bauseitig_Beton
100
AcDbLine
 10
1201.8
 20
2669.888272625835
 30
0.0
 11
1198.3
 21
2667.888272625835
 31
0.0
  0
ARC
  5
294
330
2
100
AcDbEntity
  8
Bauseitig_Beton
100
AcDbCircle
 10
1201.8
 20
2667.888272625835
 30
0.0
 40
2.0
100
AcDbArc
 50
270.0
 51
90.0
  0
ARC
  5
295
330
2
100
AcDbEntity
  8
Bauseitig_Beton
100
AcDbCircle
 10
1198.3
 20
2665.888272625835
 30
0.0
 40
2.0
100
AcDbArc
 50
90.0
 51
270.0
  0
LINE
  5
296
330
2
100
AcDbEntity
  8
Bauseitig_Beton
100
AcDbLine
 10
1198.3
 20
2667.888272625835
 30
0.0
 11
1201.8
 21
2665.888272625835
 31
0.0
  0
LINE
  5
297
330
2
100
AcDbEntity
  8
Bauseitig_Beton
100
AcDbLine
 10
1201.8
 20
2665.888272625835
 30
0.0
 11
1198.3
 21
2663.888272625835
 31
0.0
  0
ARC
  5
298
330
2
100
AcDbEntity
  8
Bauseitig_Beton
100
AcDbCircle
 10
1201.8
 20
2663.888272625835
 30
0.0
 40
2.0
100
AcDbArc
 50
339.0568897684517
 51
90.0
  0
ARC
  5
299
330
2
100
AcDbEntity
  8
Bauseitig_Beton
100
AcDbCircle
 10
1198.3
 20
2661.888272625835
 30
0.0
 40
2.0
100
AcDbArc
 50
90.0
 51
140.0170822246425
  0
LINE
  5
29A
330
2
100
AcDbEntity
  8
Bauseitig_Beton
100
AcDbLine
 10
1198.3
 20
2663.888272625835
 30
0.0
 11
1199.551042828641
 21
2663.173391009469
 31
0.0
  0
ARC
  5
29B
330
2
100
AcDbEntity
  8
Bauseitig_Beton
100
AcDbCircle
 10
1201.8
 20
2587.888272625835
 30
0.0
 40
2.0
100
AcDbArc
 50
270.0
 51
339.0568897684517
  0
LINE
  5
29C
330
2
100
AcDbEntity
  8
Bauseitig_Beton
100
AcDbLine
 10
1201.3
 20
2586.173986911549
 30
0.0
 11
1201.8
 21
2585.888272625835
 31
0.0
  0
LINE
  5
29D
330
2
100
AcDbEntity
  8
Bauseitig_Beton
100
AcDbLine
 10
1201.8
 20
2585.888272625835
 30
0.0
 11
1201.3
 21
2585.60255834012
 31
0.0
  0
ARC
  5
29E
330
2
100
AcDbEntity
  8
Bauseitig_Beton
100
AcDbCircle
 10
1201.8
 20
2583.888272625835
 30
0.0
 40
2.0
100
AcDbArc
 50
270.0
 51
90.0
  0
LINE
  5
29F
330
2
100
AcDbEntity
  8
Bauseitig_Beton
100
AcDbLine
 10
1201.3
 20
2582.173986911549
 30
0.0
 11
1201.8
 21
2581.888272625835
 31
0.0
  0
LINE
  5
2A0
330
2
100
AcDbEntity
  8
Bauseitig_Beton
100
AcDbLine
 10
1201.8
 20
2581.888272625835
 30
0.0
 11
1201.3
 21
2581.60255834012
 31
0.0
  0
ARC
  5
2A1
330
2
100
AcDbEntity
  8
Bauseitig_Beton
100
AcDbCircle
 10
1201.8
 20
2579.888272625835
 30
0.0
 40
2.0
100
AcDbArc
 50
270.0
 51
90.0
  0
LINE
  5
2A2
330
2
100
AcDbEntity
  8
Bauseitig_Beton
100
AcDbLine
 10
1201.3
 20
2578.173986911549
 30
0.0
 11
1201.8
 21
2577.888272625835
 31
0.0
  0
LINE
  5
2A3
330
2
100
AcDbEntity
  8
Bauseitig_Beton
100
AcDbLine
 10
1201.8
 20
2577.888272625835
 30
0.0
 11
1201.3
 21
2577.60255834012
 31
0.0
  0
ARC
  5
2A4
330
2
100
AcDbEntity
  8
Bauseitig_Beton
100
AcDbCircle
 10
1201.8
 20
2575.888272625835
 30
0.0
 40
2.0
100
AcDbArc
 50
270.0
 51
90.0
  0
LINE
  5
2A5
330
2
100
AcDbEntity
  8
Bauseitig_Beton
100
AcDbLine
 10
1201.3
 20
2574.173986911549
 30
0.0
 11
1201.8
 21
2573.888272625835
 31
0.0
  0
LINE
  5
2A6
330
2
100
AcDbEntity
  8
Bauseitig_Beton
100
AcDbLine
 10
1201.8
 20
2573.888272625835
 30
0.0
 11
1201.3
 21
2573.60255834012
 31
0.0
  0
ARC
  5
2A7
330
2
100
AcDbEntity
  8
Bauseitig_Beton
100
AcDbCircle
 10
1201.8
 20
2571.888272625835
 30
0.0
 40
2.0
100
AcDbArc
 50
270.0
 51
90.0
  0
LINE
  5
2A8
330
2
100
AcDbEntity
  8
Bauseitig_Beton
100
AcDbLine
 10
1201.3
 20
2570.173986911549
 30
0.0
 11
1201.8
 21
2569.888272625835
 31
0.0
  0
LINE
  5
2A9
330
2
100
AcDbEntity
  8
Bauseitig_Beton
100
AcDbLine
 10
1201.8
 20
2569.888272625835
 30
0.0
 11
1201.3
 21
2569.60255834012
 31
0.0
  0
ARC
  5
2AA
330
2
100
AcDbEntity
  8
Bauseitig_Beton
100
AcDbCircle
 10
1201.8
 20
2567.888272625835
 30
0.0
 40
2.0
100
AcDbArc
 50
270.0
 51
90.0
  0
LINE
  5
2AB
330
2
100
AcDbEntity
  8
Bauseitig_Beton
100
AcDbLine
 10
1201.3
 20
2566.173986911549
 30
0.0
 11
1201.8
 21
2565.888272625835
 31
0.0
  0
LINE
  5
2AC
330
2
100
AcDbEntity
  8
Bauseitig_Beton
100
AcDbLine
 10
1201.8
 20
2565.888272625835
 30
0.0
 11
1201.3
 21
2565.60255834012
 31
0.0
  0
ARC
  5
2AD
330
2
100
AcDbEntity
  8
Bauseitig_Beton
100
AcDbCircle
 10
1201.8
 20
2563.888272625835
 30
0.0
 40
2.0
100
AcDbArc
 50
270.0
 51
90.0
  0
LINE
  5
2AE
330
2
100
AcDbEntity
  8
Bauseitig_Beton
100
AcDbLine
 10
1201.3
 20
2562.173986911549
 30
0.0
 11
1201.8
 21
2561.888272625835
 31
0.0
  0
LINE
  5
2AF
330
2
100
AcDbEntity
  8
Bauseitig_Beton
100
AcDbLine
 10
1201.8
 20
2561.888272625835
 30
0.0
 11
1201.3
 21
2561.60255834012
 31
0.0
  0
ARC
  5
2B0
330
2
100
AcDbEntity
  8
Bauseitig_Beton
100
AcDbCircle
 10
1201.8
 20
2559.888272625835
 30
0.0
 40
2.0
100
AcDbArc
 50
270.0
 51
90.0
  0
LINE
  5
2B1
330
2
100
AcDbEntity
  8
Bauseitig_Beton
100
AcDbLine
 10
1201.3
 20
2558.173986911549
 30
0.0
 11
1201.8
 21
2557.888272625835
 31
0.0
  0
LINE
  5
2B2
330
2
100
AcDbEntity
  8
Bauseitig_Beton
100
AcDbLine
 10
1201.8
 20
2557.888272625835
 30
0.0
 11
1201.3
 21
2557.60255834012
 31
0.0
  0
ARC
  5
2B3
330
2
100
AcDbEntity
  8
Bauseitig_Beton
100
AcDbCircle
 10
1201.8
 20
2555.888272625835
 30
0.0
 40
2.0
100
AcDbArc
 50
270.0
 51
90.0
  0
LINE
  5
2B4
330
2
100
AcDbEntity
  8
Bauseitig_Beton
100
AcDbLine
 10
1201.3
 20
2554.173986911548
 30
0.0
 11
1201.8
 21
2553.888272625834
 31
0.0
  0
LINE
  5
2B5
330
2
100
AcDbEntity
  8
Bauseitig_Beton
100
AcDbLine
 10
1201.8
 20
2553.888272625834
 30
0.0
 11
1201.3
 21
2553.60255834012
 31
0.0
  0
ARC
  5
2B6
330
2
100
AcDbEntity
  8
Bauseitig_Beton
100
AcDbCircle
 10
1201.8
 20
2551.888272625835
 30
0.0
 40
2.0
100
AcDbArc
 50
270.0
 51
90.0
  0
LINE
  5
2B7
330
2
100
AcDbEntity
  8
Bauseitig_Beton
100
AcDbLine
 10
1201.3
 20
2550.173986911549
 30
0.0
 11
1201.8
 21
2549.888272625834
 31
0.0
  0
LINE
  5
2B8
330
2
100
AcDbEntity
  8
Bauseitig_Beton
100
AcDbLine
 10
1201.8
 20
2549.888272625834
 30
0.0
 11
1201.3
 21
2549.60255834012
 31
0.0
  0
ARC
  5
2B9
330
2
100
AcDbEntity
  8
Bauseitig_Beton
100
AcDbCircle
 10
1201.8
 20
2547.888272625835
 30
0.0
 40
2.0
100
AcDbArc
 50
270.0
 51
90.0
  0
LINE
  5
2BA
330
2
100
AcDbEntity
  8
Bauseitig_Beton
100
AcDbLine
 10
1201.3
 20
2546.173986911549
 30
0.0
 11
1201.8
 21
2545.888272625834
 31
0.0
  0
LINE
  5
2BB
330
2
100
AcDbEntity
  8
Bauseitig_Beton
100
AcDbLine
 10
1201.8
 20
2545.888272625834
 30
0.0
 11
1201.3
 21
2545.60255834012
 31
0.0
  0
ARC
  5
2BC
330
2
100
AcDbEntity
  8
Bauseitig_Beton
100
AcDbCircle
 10
1201.8
 20
2543.888272625835
 30
0.0
 40
2.0
100
AcDbArc
 50
270.0
 51
90.0
  0
LINE
  5
2BD
330
2
100
AcDbEntity
  8
Bauseitig_Beton
100
AcDbLine
 10
1201.3
 20
2542.173986911549
 30
0.0
 11
1201.8
 21
2541.888272625835
 31
0.0
  0
LINE
  5
2BE
330
2
100
AcDbEntity
  8
Bauseitig_Beton
100
AcDbLine
 10
1201.8
 20
2541.888272625835
 30
0.0
 11
1201.3
 21
2541.60255834012
 31
0.0
  0
ARC
  5
2BF
330
2
100
AcDbEntity
  8
Bauseitig_Beton
100
AcDbCircle
 10
1201.8
 20
2539.888272625834
 30
0.0
 40
2.0
100
AcDbArc
 50
270.0
 51
90.0
  0
LINE
  5
2C0
330
2
100
AcDbEntity
  8
Bauseitig_Beton
100
AcDbLine
 10
1201.3
 20
2538.173986911548
 30
0.0
 11
1201.8
 21
2537.888272625834
 31
0.0
  0
LINE
  5
2C1
330
2
100
AcDbEntity
  8
Bauseitig_Beton
100
AcDbLine
 10
1201.8
 20
2537.888272625834
 30
0.0
 11
1201.3
 21
2537.60255834012
 31
0.0
  0
ARC
  5
2C2
330
2
100
AcDbEntity
  8
Bauseitig_Beton
100
AcDbCircle
 10
1201.8
 20
2535.888272625835
 30
0.0
 40
2.0
100
AcDbArc
 50
270.0
 51
90.0
  0
LINE
  5
2C3
330
2
100
AcDbEntity
  8
Bauseitig_Beton
100
AcDbLine
 10
1201.3
 20
2534.173986911549
 30
0.0
 11
1201.8
 21
2533.888272625834
 31
0.0
  0
LINE
  5
2C4
330
2
100
AcDbEntity
  8
Bauseitig_Beton
100
AcDbLine
 10
1201.8
 20
2533.888272625834
 30
0.0
 11
1201.3
 21
2533.60255834012
 31
0.0
  0
ARC
  5
2C5
330
2
100
AcDbEntity
  8
Bauseitig_Beton
100
AcDbCircle
 10
1201.8
 20
2531.888272625835
 30
0.0
 40
2.0
100
AcDbArc
 50
270.0
 51
90.0
  0
LINE
  5
2C6
330
2
100
AcDbEntity
  8
Bauseitig_Beton
100
AcDbLine
 10
1201.3
 20
2530.173986911549
 30
0.0
 11
1201.8
 21
2529.888272625834
 31
0.0
  0
LINE
  5
2C7
330
2
100
AcDbEntity
  8
Bauseitig_Beton
100
AcDbLine
 10
1201.8
 20
2529.888272625834
 30
0.0
 11
1201.3
 21
2529.60255834012
 31
0.0
  0
ARC
  5
2C8
330
2
100
AcDbEntity
  8
Bauseitig_Beton
100
AcDbCircle
 10
1201.8
 20
2527.888272625835
 30
0.0
 40
2.0
100
AcDbArc
 50
270.0
 51
90.0
  0
LINE
  5
2C9
330
2
100
AcDbEntity
  8
Bauseitig_Beton
100
AcDbLine
 10
1201.3
 20
2526.173986911549
 30
0.0
 11
1201.8
 21
2525.888272625835
 31
0.0
  0
LINE
  5
2CA
330
2
100
AcDbEntity
  8
Bauseitig_Beton
100
AcDbLine
 10
1201.8
 20
2525.888272625835
 30
0.0
 11
1201.3
 21
2525.60255834012
 31
0.0
  0
ARC
  5
2CB
330
2
100
AcDbEntity
  8
Bauseitig_Beton
100
AcDbCircle
 10
1201.8
 20
2523.888272625834
 30
0.0
 40
2.0
100
AcDbArc
 50
270.0
 51
90.0
  0
LINE
  5
2CC
330
2
100
AcDbEntity
  8
Bauseitig_Beton
100
AcDbLine
 10
1201.3
 20
2522.173986911548
 30
0.0
 11
1201.8
 21
2521.888272625834
 31
0.0
  0
LINE
  5
2CD
330
2
100
AcDbEntity
  8
Bauseitig_Beton
100
AcDbLine
 10
1201.8
 20
2521.888272625834
 30
0.0
 11
1201.3
 21
2521.60255834012
 31
0.0
  0
ARC
  5
2CE
330
2
100
AcDbEntity
  8
Bauseitig_Beton
100
AcDbCircle
 10
1201.8
 20
2519.888272625835
 30
0.0
 40
2.0
100
AcDbArc
 50
270.0
 51
90.0
  0
LINE
  5
2CF
330
2
100
AcDbEntity
  8
Bauseitig_Beton
100
AcDbLine
 10
1201.3
 20
2518.173986911549
 30
0.0
 11
1201.8
 21
2517.888272625834
 31
0.0
  0
LINE
  5
2D0
330
2
100
AcDbEntity
  8
Bauseitig_Beton
100
AcDbLine
 10
1201.8
 20
2517.888272625834
 30
0.0
 11
1201.3
 21
2517.60255834012
 31
0.0
  0
ARC
  5
2D1
330
2
100
AcDbEntity
  8
Bauseitig_Beton
100
AcDbCircle
 10
1201.8
 20
2515.888272625835
 30
0.0
 40
2.0
100
AcDbArc
 50
270.0
 51
90.0
  0
LINE
  5
2D2
330
2
100
AcDbEntity
  8
Bauseitig_Beton
100
AcDbLine
 10
1201.3
 20
2514.173986911549
 30
0.0
 11
1201.8
 21
2513.888272625834
 31
0.0
  0
LINE
  5
2D3
330
2
100
AcDbEntity
  8
Bauseitig_Beton
100
AcDbLine
 10
1201.8
 20
2513.888272625834
 30
0.0
 11
1201.3
 21
2513.60255834012
 31
0.0
  0
ARC
  5
2D4
330
2
100
AcDbEntity
  8
Bauseitig_Beton
100
AcDbCircle
 10
1201.8
 20
2511.888272625835
 30
0.0
 40
2.0
100
AcDbArc
 50
270.0
 51
90.0
  0
LINE
  5
2D5
330
2
100
AcDbEntity
  8
Bauseitig_Beton
100
AcDbLine
 10
1201.3
 20
2510.173986911549
 30
0.0
 11
1201.8
 21
2509.888272625835
 31
0.0
  0
LINE
  5
2D6
330
2
100
AcDbEntity
  8
Bauseitig_Beton
100
AcDbLine
 10
1201.8
 20
2509.888272625835
 30
0.0
 11
1201.3
 21
2509.60255834012
 31
0.0
  0
ARC
  5
2D7
330
2
100
AcDbEntity
  8
Bauseitig_Beton
100
AcDbCircle
 10
1201.8
 20
2507.888272625834
 30
0.0
 40
2.0
100
AcDbArc
 50
270.0
 51
90.0
  0
LINE
  5
2D8
330
2
100
AcDbEntity
  8
Bauseitig_Beton
100
AcDbLine
 10
1201.3
 20
2506.173986911548
 30
0.0
 11
1201.8
 21
2505.888272625834
 31
0.0
  0
LINE
  5
2D9
330
2
100
AcDbEntity
  8
Bauseitig_Beton
100
AcDbLine
 10
1201.8
 20
2505.888272625834
 30
0.0
 11
1201.3
 21
2505.60255834012
 31
0.0
  0
ARC
  5
2DA
330
2
100
AcDbEntity
  8
Bauseitig_Beton
100
AcDbCircle
 10
1201.8
 20
2503.888272625835
 30
0.0
 40
2.0
100
AcDbArc
 50
270.0
 51
90.0
  0
LINE
  5
2DB
330
2
100
AcDbEntity
  8
Bauseitig_Beton
100
AcDbLine
 10
1201.3
 20
2502.173986911549
 30
0.0
 11
1201.8
 21
2501.888272625834
 31
0.0
  0
LINE
  5
2DC
330
2
100
AcDbEntity
  8
Bauseitig_Beton
100
AcDbLine
 10
1201.8
 20
2501.888272625834
 30
0.0
 11
1201.3
 21
2501.60255834012
 31
0.0
  0
ARC
  5
2DD
330
2
100
AcDbEntity
  8
Bauseitig_Beton
100
AcDbCircle
 10
1201.8
 20
2499.888272625835
 30
0.0
 40
2.0
100
AcDbArc
 50
270.0
 51
90.0
  0
LINE
  5
2DE
330
2
100
AcDbEntity
  8
Bauseitig_Beton
100
AcDbLine
 10
1201.3
 20
2498.173986911549
 30
0.0
 11
1201.8
 21
2497.888272625834
 31
0.0
  0
LINE
  5
2DF
330
2
100
AcDbEntity
  8
Bauseitig_Beton
100
AcDbLine
 10
1201.8
 20
2497.888272625834
 30
0.0
 11
1201.3
 21
2497.60255834012
 31
0.0
  0
ARC
  5
2E0
330
2
100
AcDbEntity
  8
Bauseitig_Beton
100
AcDbCircle
 10
1201.8
 20
2495.888272625835
 30
0.0
 40
2.0
100
AcDbArc
 50
270.0
 51
90.0
  0
LINE
  5
2E1
330
2
100
AcDbEntity
  8
Bauseitig_Beton
100
AcDbLine
 10
1201.3
 20
2494.173986911549
 30
0.0
 11
1201.8
 21
2493.888272625835
 31
0.0
  0
LINE
  5
2E2
330
2
100
AcDbEntity
  8
Bauseitig_Beton
100
AcDbLine
 10
1201.8
 20
2493.888272625835
 30
0.0
 11
1201.3
 21
2493.60255834012
 31
0.0
  0
ARC
  5
2E3
330
2
100
AcDbEntity
  8
Bauseitig_Beton
100
AcDbCircle
 10
1201.8
 20
2491.888272625835
 30
0.0
 40
2.0
100
AcDbArc
 50
270.0
 51
90.0
  0
LINE
  5
2E4
330
2
100
AcDbEntity
  8
Bauseitig_Beton
100
AcDbLine
 10
1201.3
 20
2490.173986911549
 30
0.0
 11
1201.8
 21
2489.888272625834
 31
0.0
  0
LINE
  5
2E5
330
2
100
AcDbEntity
  8
Bauseitig_Beton
100
AcDbLine
 10
1201.8
 20
2489.888272625834
 30
0.0
 11
1201.3
 21
2489.60255834012
 31
0.0
  0
ARC
  5
2E6
330
2
100
AcDbEntity
  8
Bauseitig_Beton
100
AcDbCircle
 10
1201.8
 20
2487.888272625835
 30
0.0
 40
2.0
100
AcDbArc
 50
270.0
 51
90.0
  0
ARC
  5
2E7
330
2
100
AcDbEntity
  8
Bauseitig_Beton
100
AcDbCircle
 10
1198.3
 20
2485.888272625834
 30
0.0
 40
2.0
100
AcDbArc
 50
90.0
 51
179.8533689496797
  0
LINE
  5
2E8
330
2
100
AcDbEntity
  8
Bauseitig_Beton
100
AcDbLine
 10
1198.3
 20
2487.888272625835
 30
0.0
 11
1201.8
 21
2485.888272625834
 31
0.0
  0
HATCH
  5
2E9
330
2
100
AcDbEntity
  8
Bauseitig_Beton
100
AcDbHatch
 10
0.0
 20
0.0
 30
0.0
210
0.0
220
0.0
230
1.0
  2
ANSI31
 70
     0
 71
     1
 91
        1
 92
        7
 72
     0
 73
     1
 93
        4
 10
94.60336926743616
 20
2485.893391009475
 10
94.60336926743616
 20
2477.893391009475
 10
193.7999999999999
 20
2477.893391009475
 10
193.7999999999999
 20
2485.893391009475
 97
        1
330
2EA
 75
     1
 76
     1
 52
0.0
 41
50.0
 77
     0
 78
     1
 53
45.0
 43
2.500000000000227
 44
2050.0
 45
-4.419417382415921
 46
4.419417382415922
 79
     0
 47
0.2285218501967519
 98
        1
 10
155.1884594205369
 20
2483.606751253734
1001
GradientColor1ACI
1070
     5
1001
GradientColor2ACI
1070
     2
1001
ACAD
1010
0.0
1020
0.0
1030
0.0
  0
LWPOLYLINE
  5
2EA
102
{ACAD_REACTORS
330
2E9
102
}
330
2
100
AcDbEntity
  8
Bauseitig_Beton
100
AcDbPolyline
 90
        4
 70
     1
 43
0.0
 10
94.60336926743616
 20
2485.893391009475
 10
193.7999999999999
 20
2485.893391009475
 10
193.7999999999999
 20
2477.893391009475
 10
94.60336926743616
 20
2477.893391009475
  0
LWPOLYLINE
  5
2EB
102
{ACAD_REACTORS
330
66
102
}
330
2
100
AcDbEntity
  8
Bauseitig_Beton
100
AcDbPolyline
 90
        4
 70
     1
 43
0.0
 10
193.7999999999999
 20
2485.893391009476
 10
94.60336926743616
 20
2485.893391009476
 10
94.60336926743616
 20
2717.893391009476
 10
193.7999999999999
 20
2717.893391009476
  0
MTEXT
  5
2EC
102
{ACAD_XDICTIONARY
360
2ED
102
}
330
2
100
AcDbEntity
  8
Bauseitig_Beton
 62
     1
100
AcDbMText
 10
141.0427052818929
 20
2567.657454298599
 30
0.0
 40
10.0
 41
37.77744553950834
 46
0.0
 71
     1
 72
     5
  1
Beton
  7
TECHNICBOLD
 11
0.0000000000000001
 21
1.0
 31
0.0
 73
     1
 44
1.0
 90
        3
 63
   256
 45
1.199999999999999
441
        0
1001
AcadAnnotative
1000
AnnotativeData
1002
{
1070
     1
1070
     0
1002
}
1001
ACAD
1000
ACAD_MTEXT_COLUMN_INFO_BEGIN
1070
    75
1070
     2
1070
    79
1070
     0
1070
    76
1070
     1
1070
    78
1070
     0
1070
    48
1040
37.77744553950834
1070
    49
1040
17.5
1070
    50
1070
     1
1040
0.0
1000
ACAD_MTEXT_COLUMN_INFO_END
  0
LWPOLYLINE
  5
2F0
330
2
100
AcDbEntity
  8
Bauseitig_Beton
100
AcDbPolyline
 90
        4
 70
     1
 43
0.0
 10
193.7999999999999
 20
2717.893391009476
 10
201.2999999999999
 20
2717.893391009476
 10
201.2999999999999
 20
2485.893391009475
 10
193.7999999999999
 20
2485.893391009476
  0
ARC
  5
2F1
330
2
100
AcDbEntity
  8
Bauseitig_Beton
100
AcDbCircle
 10
195.7999999999999
 20
2717.888272625835
 30
0.0
 40
2.0
100
AcDbArc
 50
179.8533689496797
 51
270.0
  0
LINE
  5
2F2
330
2
100
AcDbEntity
  8
Bauseitig_Beton
100
AcDbLine
 10
199.2999999999999
 20
2717.888272625835
 30
0.0
 11
195.7999999999999
 21
2715.888272625835
 31
0.0
  0
ARC
  5
2F3
330
2
100
AcDbEntity
  8
Bauseitig_Beton
100
AcDbCircle
 10
199.2999999999999
 20
2715.888272625835
 30
0.0
 40
2.0
100
AcDbArc
 50
270.0
 51
90.0
  0
ARC
  5
2F4
330
2
100
AcDbEntity
  8
Bauseitig_Beton
100
AcDbCircle
 10
195.7999999999999
 20
2713.888272625835
 30
0.0
 40
2.0
100
AcDbArc
 50
90.0
 51
270.0
  0
LINE
  5
2F5
330
2
100
AcDbEntity
  8
Bauseitig_Beton
100
AcDbLine
 10
195.7999999999999
 20
2715.888272625835
 30
0.0
 11
199.2999999999999
 21
2713.888272625835
 31
0.0
  0
LINE
  5
2F6
330
2
100
AcDbEntity
  8
Bauseitig_Beton
100
AcDbLine
 10
199.2999999999999
 20
2713.888272625835
 30
0.0
 11
195.7999999999999
 21
2711.888272625835
 31
0.0
  0
ARC
  5
2F7
330
2
100
AcDbEntity
  8
Bauseitig_Beton
100
AcDbCircle
 10
199.2999999999999
 20
2711.888272625835
 30
0.0
 40
2.0
100
AcDbArc
 50
270.0
 51
90.0
  0
ARC
  5
2F8
330
2
100
AcDbEntity
  8
Bauseitig_Beton
100
AcDbCircle
 10
195.7999999999999
 20
2709.888272625835
 30
0.0
 40
2.0
100
AcDbArc
 50
90.0
 51
270.0
  0
LINE
  5
2F9
330
2
100
AcDbEntity
  8
Bauseitig_Beton
100
AcDbLine
 10
195.7999999999999
 20
2711.888272625835
 30
0.0
 11
199.2999999999999
 21
2709.888272625835
 31
0.0
  0
LINE
  5
2FA
330
2
100
AcDbEntity
  8
Bauseitig_Beton
100
AcDbLine
 10
199.2999999999999
 20
2709.888272625835
 30
0.0
 11
195.7999999999999
 21
2707.888272625835
 31
0.0
  0
ARC
  5
2FB
330
2
100
AcDbEntity
  8
Bauseitig_Beton
100
AcDbCircle
 10
199.2999999999999
 20
2707.888272625835
 30
0.0
 40
2.0
100
AcDbArc
 50
270.0
 51
90.0
  0
ARC
  5
2FC
330
2
100
AcDbEntity
  8
Bauseitig_Beton
100
AcDbCircle
 10
195.7999999999999
 20
2705.888272625835
 30
0.0
 40
2.0
100
AcDbArc
 50
90.0
 51
270.0
  0
LINE
  5
2FD
330
2
100
AcDbEntity
  8
Bauseitig_Beton
100
AcDbLine
 10
195.7999999999999
 20
2707.888272625835
 30
0.0
 11
199.2999999999999
 21
2705.888272625835
 31
0.0
  0
LINE
  5
2FE
330
2
100
AcDbEntity
  8
Bauseitig_Beton
100
AcDbLine
 10
199.2999999999999
 20
2705.888272625835
 30
0.0
 11
195.7999999999999
 21
2703.888272625835
 31
0.0
  0
ARC
  5
2FF
330
2
100
AcDbEntity
  8
Bauseitig_Beton
100
AcDbCircle
 10
199.2999999999999
 20
2703.888272625835
 30
0.0
 40
2.0
100
AcDbArc
 50
270.0
 51
90.0
  0
ARC
  5
300
330
2
100
AcDbEntity
  8
Bauseitig_Beton
100
AcDbCircle
 10
195.7999999999999
 20
2701.888272625835
 30
0.0
 40
2.0
100
AcDbArc
 50
90.0
 51
270.0
  0
LINE
  5
301
330
2
100
AcDbEntity
  8
Bauseitig_Beton
100
AcDbLine
 10
195.7999999999999
 20
2703.888272625835
 30
0.0
 11
199.2999999999999
 21
2701.888272625835
 31
0.0
  0
LINE
  5
302
330
2
100
AcDbEntity
  8
Bauseitig_Beton
100
AcDbLine
 10
199.2999999999999
 20
2701.888272625835
 30
0.0
 11
195.7999999999999
 21
2699.888272625835
 31
0.0
  0
ARC
  5
303
330
2
100
AcDbEntity
  8
Bauseitig_Beton
100
AcDbCircle
 10
199.2999999999999
 20
2699.888272625835
 30
0.0
 40
2.0
100
AcDbArc
 50
270.0
 51
90.0
  0
ARC
  5
304
330
2
100
AcDbEntity
  8
Bauseitig_Beton
100
AcDbCircle
 10
195.7999999999999
 20
2697.888272625835
 30
0.0
 40
2.0
100
AcDbArc
 50
90.0
 51
270.0
  0
LINE
  5
305
330
2
100
AcDbEntity
  8
Bauseitig_Beton
100
AcDbLine
 10
195.7999999999999
 20
2699.888272625835
 30
0.0
 11
199.2999999999999
 21
2697.888272625835
 31
0.0
  0
LINE
  5
306
330
2
100
AcDbEntity
  8
Bauseitig_Beton
100
AcDbLine
 10
199.2999999999999
 20
2697.888272625835
 30
0.0
 11
195.7999999999999
 21
2695.888272625835
 31
0.0
  0
ARC
  5
307
330
2
100
AcDbEntity
  8
Bauseitig_Beton
100
AcDbCircle
 10
199.2999999999999
 20
2695.888272625835
 30
0.0
 40
2.0
100
AcDbArc
 50
270.0
 51
90.0
  0
ARC
  5
308
330
2
100
AcDbEntity
  8
Bauseitig_Beton
100
AcDbCircle
 10
195.7999999999999
 20
2693.888272625835
 30
0.0
 40
2.0
100
AcDbArc
 50
90.0
 51
270.0
  0
LINE
  5
309
330
2
100
AcDbEntity
  8
Bauseitig_Beton
100
AcDbLine
 10
195.7999999999999
 20
2695.888272625835
 30
0.0
 11
199.2999999999999
 21
2693.888272625835
 31
0.0
  0
LINE
  5
30A
330
2
100
AcDbEntity
  8
Bauseitig_Beton
100
AcDbLine
 10
199.2999999999999
 20
2693.888272625835
 30
0.0
 11
195.7999999999999
 21
2691.888272625835
 31
0.0
  0
ARC
  5
30B
330
2
100
AcDbEntity
  8
Bauseitig_Beton
100
AcDbCircle
 10
199.2999999999999
 20
2691.888272625835
 30
0.0
 40
2.0
100
AcDbArc
 50
270.0
 51
90.0
  0
ARC
  5
30C
330
2
100
AcDbEntity
  8
Bauseitig_Beton
100
AcDbCircle
 10
195.7999999999999
 20
2689.888272625835
 30
0.0
 40
2.0
100
AcDbArc
 50
90.0
 51
270.0
  0
LINE
  5
30D
330
2
100
AcDbEntity
  8
Bauseitig_Beton
100
AcDbLine
 10
195.7999999999999
 20
2691.888272625835
 30
0.0
 11
199.2999999999999
 21
2689.888272625835
 31
0.0
  0
LINE
  5
30E
330
2
100
AcDbEntity
  8
Bauseitig_Beton
100
AcDbLine
 10
199.2999999999999
 20
2689.888272625835
 30
0.0
 11
195.7999999999999
 21
2687.888272625835
 31
0.0
  0
ARC
  5
30F
330
2
100
AcDbEntity
  8
Bauseitig_Beton
100
AcDbCircle
 10
199.2999999999999
 20
2687.888272625835
 30
0.0
 40
2.0
100
AcDbArc
 50
270.0
 51
90.0
  0
ARC
  5
310
330
2
100
AcDbEntity
  8
Bauseitig_Beton
100
AcDbCircle
 10
195.7999999999999
 20
2685.888272625835
 30
0.0
 40
2.0
100
AcDbArc
 50
90.0
 51
270.0
  0
LINE
  5
311
330
2
100
AcDbEntity
  8
Bauseitig_Beton
100
AcDbLine
 10
195.7999999999999
 20
2687.888272625835
 30
0.0
 11
199.2999999999999
 21
2685.888272625835
 31
0.0
  0
LINE
  5
312
330
2
100
AcDbEntity
  8
Bauseitig_Beton
100
AcDbLine
 10
199.2999999999999
 20
2685.888272625835
 30
0.0
 11
195.7999999999999
 21
2683.888272625835
 31
0.0
  0
ARC
  5
313
330
2
100
AcDbEntity
  8
Bauseitig_Beton
100
AcDbCircle
 10
199.2999999999999
 20
2683.888272625835
 30
0.0
 40
2.0
100
AcDbArc
 50
270.0
 51
90.0
  0
ARC
  5
314
330
2
100
AcDbEntity
  8
Bauseitig_Beton
100
AcDbCircle
 10
195.7999999999999
 20
2681.888272625835
 30
0.0
 40
2.0
100
AcDbArc
 50
90.0
 51
270.0
  0
LINE
  5
315
330
2
100
AcDbEntity
  8
Bauseitig_Beton
100
AcDbLine
 10
195.7999999999999
 20
2683.888272625835
 30
0.0
 11
199.2999999999999
 21
2681.888272625835
 31
0.0
  0
LINE
  5
316
330
2
100
AcDbEntity
  8
Bauseitig_Beton
100
AcDbLine
 10
199.2999999999999
 20
2681.888272625835
 30
0.0
 11
195.7999999999999
 21
2679.888272625835
 31
0.0
  0
ARC
  5
317
330
2
100
AcDbEntity
  8
Bauseitig_Beton
100
AcDbCircle
 10
199.2999999999999
 20
2679.888272625835
 30
0.0
 40
2.0
100
AcDbArc
 50
270.0
 51
90.0
  0
ARC
  5
318
330
2
100
AcDbEntity
  8
Bauseitig_Beton
100
AcDbCircle
 10
195.7999999999999
 20
2677.888272625835
 30
0.0
 40
2.0
100
AcDbArc
 50
90.0
 51
270.0
  0
LINE
  5
319
330
2
100
AcDbEntity
  8
Bauseitig_Beton
100
AcDbLine
 10
195.7999999999999
 20
2679.888272625835
 30
0.0
 11
199.2999999999999
 21
2677.888272625835
 31
0.0
  0
LINE
  5
31A
330
2
100
AcDbEntity
  8
Bauseitig_Beton
100
AcDbLine
 10
199.2999999999999
 20
2677.888272625835
 30
0.0
 11
195.7999999999999
 21
2675.888272625835
 31
0.0
  0
ARC
  5
31B
330
2
100
AcDbEntity
  8
Bauseitig_Beton
100
AcDbCircle
 10
199.2999999999999
 20
2675.888272625835
 30
0.0
 40
2.0
100
AcDbArc
 50
270.0
 51
90.0
  0
ARC
  5
31C
330
2
100
AcDbEntity
  8
Bauseitig_Beton
100
AcDbCircle
 10
195.7999999999999
 20
2673.888272625835
 30
0.0
 40
2.0
100
AcDbArc
 50
90.0
 51
270.0
  0
LINE
  5
31D
330
2
100
AcDbEntity
  8
Bauseitig_Beton
100
AcDbLine
 10
195.7999999999999
 20
2675.888272625835
 30
0.0
 11
199.2999999999999
 21
2673.888272625835
 31
0.0
  0
LINE
  5
31E
330
2
100
AcDbEntity
  8
Bauseitig_Beton
100
AcDbLine
 10
199.2999999999999
 20
2673.888272625835
 30
0.0
 11
195.7999999999999
 21
2671.888272625835
 31
0.0
  0
ARC
  5
31F
330
2
100
AcDbEntity
  8
Bauseitig_Beton
100
AcDbCircle
 10
199.2999999999999
 20
2671.888272625835
 30
0.0
 40
2.0
100
AcDbArc
 50
270.0
 51
90.0
  0
ARC
  5
320
330
2
100
AcDbEntity
  8
Bauseitig_Beton
100
AcDbCircle
 10
195.7999999999999
 20
2669.888272625835
 30
0.0
 40
2.0
100
AcDbArc
 50
90.0
 51
270.0
  0
LINE
  5
321
330
2
100
AcDbEntity
  8
Bauseitig_Beton
100
AcDbLine
 10
195.7999999999999
 20
2671.888272625835
 30
0.0
 11
199.2999999999999
 21
2669.888272625835
 31
0.0
  0
LINE
  5
322
330
2
100
AcDbEntity
  8
Bauseitig_Beton
100
AcDbLine
 10
199.2999999999999
 20
2669.888272625835
 30
0.0
 11
195.7999999999999
 21
2667.888272625835
 31
0.0
  0
ARC
  5
323
330
2
100
AcDbEntity
  8
Bauseitig_Beton
100
AcDbCircle
 10
199.2999999999999
 20
2667.888272625835
 30
0.0
 40
2.0
100
AcDbArc
 50
270.0
 51
90.0
  0
ARC
  5
324
330
2
100
AcDbEntity
  8
Bauseitig_Beton
100
AcDbCircle
 10
195.7999999999999
 20
2665.888272625835
 30
0.0
 40
2.0
100
AcDbArc
 50
90.0
 51
270.0
  0
LINE
  5
325
330
2
100
AcDbEntity
  8
Bauseitig_Beton
100
AcDbLine
 10
195.7999999999999
 20
2667.888272625835
 30
0.0
 11
199.2999999999999
 21
2665.888272625835
 31
0.0
  0
LINE
  5
326
330
2
100
AcDbEntity
  8
Bauseitig_Beton
100
AcDbLine
 10
199.2999999999999
 20
2665.888272625835
 30
0.0
 11
195.7999999999999
 21
2663.888272625835
 31
0.0
  0
ARC
  5
327
330
2
100
AcDbEntity
  8
Bauseitig_Beton
100
AcDbCircle
 10
199.2999999999999
 20
2663.888272625835
 30
0.0
 40
2.0
100
AcDbArc
 50
339.0568897684517
 51
90.0
  0
ARC
  5
328
330
2
100
AcDbEntity
  8
Bauseitig_Beton
100
AcDbCircle
 10
195.7999999999999
 20
2661.888272625835
 30
0.0
 40
2.0
100
AcDbArc
 50
90.0
 51
140.0170822246425
  0
LINE
  5
329
330
2
100
AcDbEntity
  8
Bauseitig_Beton
100
AcDbLine
 10
195.7999999999999
 20
2663.888272625835
 30
0.0
 11
197.0510428286404
 21
2663.173391009469
 31
0.0
  0
ARC
  5
32A
330
2
100
AcDbEntity
  8
Bauseitig_Beton
100
AcDbCircle
 10
199.2999999999999
 20
2587.888272625835
 30
0.0
 40
2.0
100
AcDbArc
 50
270.0
 51
339.0568897684517
  0
ARC
  5
32B
330
2
100
AcDbEntity
  8
Bauseitig_Beton
100
AcDbCircle
 10
195.7999999999999
 20
2585.888272625835
 30
0.0
 40
2.0
100
AcDbArc
 50
140.0170822246425
 51
270.0
  0
LINE
  5
32C
330
2
100
AcDbEntity
  8
Bauseitig_Beton
100
AcDbLine
 10
197.0510428286404
 20
2587.173391009469
 30
0.0
 11
199.2999999999999
 21
2585.888272625835
 31
0.0
  0
LINE
  5
32D
330
2
100
AcDbEntity
  8
Bauseitig_Beton
100
AcDbLine
 10
199.2999999999999
 20
2585.888272625835
 30
0.0
 11
195.7999999999999
 21
2583.888272625835
 31
0.0
  0
ARC
  5
32E
330
2
100
AcDbEntity
  8
Bauseitig_Beton
100
AcDbCircle
 10
199.2999999999999
 20
2583.888272625835
 30
0.0
 40
2.0
100
AcDbArc
 50
270.0
 51
90.0
  0
ARC
  5
32F
330
2
100
AcDbEntity
  8
Bauseitig_Beton
100
AcDbCircle
 10
195.7999999999999
 20
2581.888272625835
 30
0.0
 40
2.0
100
AcDbArc
 50
90.0
 51
270.0
  0
LINE
  5
330
330
2
100
AcDbEntity
  8
Bauseitig_Beton
100
AcDbLine
 10
195.7999999999999
 20
2583.888272625835
 30
0.0
 11
199.2999999999999
 21
2581.888272625835
 31
0.0
  0
LINE
  5
331
330
2
100
AcDbEntity
  8
Bauseitig_Beton
100
AcDbLine
 10
199.2999999999999
 20
2581.888272625835
 30
0.0
 11
195.7999999999999
 21
2579.888272625835
 31
0.0
  0
ARC
  5
332
330
2
100
AcDbEntity
  8
Bauseitig_Beton
100
AcDbCircle
 10
199.2999999999999
 20
2579.888272625835
 30
0.0
 40
2.0
100
AcDbArc
 50
270.0
 51
90.0
  0
ARC
  5
333
330
2
100
AcDbEntity
  8
Bauseitig_Beton
100
AcDbCircle
 10
195.7999999999999
 20
2577.888272625835
 30
0.0
 40
2.0
100
AcDbArc
 50
90.0
 51
270.0
  0
LINE
  5
334
330
2
100
AcDbEntity
  8
Bauseitig_Beton
100
AcDbLine
 10
195.7999999999999
 20
2579.888272625835
 30
0.0
 11
199.2999999999999
 21
2577.888272625835
 31
0.0
  0
LINE
  5
335
330
2
100
AcDbEntity
  8
Bauseitig_Beton
100
AcDbLine
 10
199.2999999999999
 20
2577.888272625835
 30
0.0
 11
195.7999999999999
 21
2575.888272625835
 31
0.0
  0
ARC
  5
336
330
2
100
AcDbEntity
  8
Bauseitig_Beton
100
AcDbCircle
 10
199.2999999999999
 20
2575.888272625835
 30
0.0
 40
2.0
100
AcDbArc
 50
270.0
 51
90.0
  0
ARC
  5
337
330
2
100
AcDbEntity
  8
Bauseitig_Beton
100
AcDbCircle
 10
195.7999999999999
 20
2573.888272625835
 30
0.0
 40
2.0
100
AcDbArc
 50
90.0
 51
270.0
  0
LINE
  5
338
330
2
100
AcDbEntity
  8
Bauseitig_Beton
100
AcDbLine
 10
195.7999999999999
 20
2575.888272625835
 30
0.0
 11
199.2999999999999
 21
2573.888272625835
 31
0.0
  0
LINE
  5
339
330
2
100
AcDbEntity
  8
Bauseitig_Beton
100
AcDbLine
 10
199.2999999999999
 20
2573.888272625835
 30
0.0
 11
195.7999999999999
 21
2571.888272625835
 31
0.0
  0
ARC
  5
33A
330
2
100
AcDbEntity
  8
Bauseitig_Beton
100
AcDbCircle
 10
199.2999999999999
 20
2571.888272625835
 30
0.0
 40
2.0
100
AcDbArc
 50
270.0
 51
90.0
  0
ARC
  5
33B
330
2
100
AcDbEntity
  8
Bauseitig_Beton
100
AcDbCircle
 10
195.7999999999999
 20
2569.888272625835
 30
0.0
 40
2.0
100
AcDbArc
 50
90.0
 51
270.0
  0
LINE
  5
33C
330
2
100
AcDbEntity
  8
Bauseitig_Beton
100
AcDbLine
 10
195.7999999999999
 20
2571.888272625835
 30
0.0
 11
199.2999999999999
 21
2569.888272625835
 31
0.0
  0
LINE
  5
33D
330
2
100
AcDbEntity
  8
Bauseitig_Beton
100
AcDbLine
 10
199.2999999999999
 20
2569.888272625835
 30
0.0
 11
195.7999999999999
 21
2567.888272625835
 31
0.0
  0
ARC
  5
33E
330
2
100
AcDbEntity
  8
Bauseitig_Beton
100
AcDbCircle
 10
199.2999999999999
 20
2567.888272625835
 30
0.0
 40
2.0
100
AcDbArc
 50
270.0
 51
90.0
  0
ARC
  5
33F
330
2
100
AcDbEntity
  8
Bauseitig_Beton
100
AcDbCircle
 10
195.7999999999999
 20
2565.888272625835
 30
0.0
 40
2.0
100
AcDbArc
 50
90.0
 51
270.0
  0
LINE
  5
340
330
2
100
AcDbEntity
  8
Bauseitig_Beton
100
AcDbLine
 10
195.7999999999999
 20
2567.888272625835
 30
0.0
 11
199.2999999999999
 21
2565.888272625835
 31
0.0
  0
LINE
  5
341
330
2
100
AcDbEntity
  8
Bauseitig_Beton
100
AcDbLine
 10
199.2999999999999
 20
2565.888272625835
 30
0.0
 11
195.7999999999999
 21
2563.888272625835
 31
0.0
  0
ARC
  5
342
330
2
100
AcDbEntity
  8
Bauseitig_Beton
100
AcDbCircle
 10
199.2999999999999
 20
2563.888272625835
 30
0.0
 40
2.0
100
AcDbArc
 50
270.0
 51
90.0
  0
ARC
  5
343
330
2
100
AcDbEntity
  8
Bauseitig_Beton
100
AcDbCircle
 10
195.7999999999999
 20
2561.888272625835
 30
0.0
 40
2.0
100
AcDbArc
 50
90.0
 51
270.0
  0
LINE
  5
344
330
2
100
AcDbEntity
  8
Bauseitig_Beton
100
AcDbLine
 10
195.7999999999999
 20
2563.888272625835
 30
0.0
 11
199.2999999999999
 21
2561.888272625835
 31
0.0
  0
LINE
  5
345
330
2
100
AcDbEntity
  8
Bauseitig_Beton
100
AcDbLine
 10
199.2999999999999
 20
2561.888272625835
 30
0.0
 11
195.7999999999999
 21
2559.888272625835
 31
0.0
  0
ARC
  5
346
330
2
100
AcDbEntity
  8
Bauseitig_Beton
100
AcDbCircle
 10
199.2999999999999
 20
2559.888272625835
 30
0.0
 40
2.0
100
AcDbArc
 50
270.0
 51
90.0
  0
ARC
  5
347
330
2
100
AcDbEntity
  8
Bauseitig_Beton
100
AcDbCircle
 10
195.7999999999999
 20
2557.888272625835
 30
0.0
 40
2.0
100
AcDbArc
 50
90.0
 51
270.0
  0
LINE
  5
348
330
2
100
AcDbEntity
  8
Bauseitig_Beton
100
AcDbLine
 10
195.7999999999999
 20
2559.888272625835
 30
0.0
 11
199.2999999999999
 21
2557.888272625835
 31
0.0
  0
LINE
  5
349
330
2
100
AcDbEntity
  8
Bauseitig_Beton
100
AcDbLine
 10
199.2999999999999
 20
2557.888272625835
 30
0.0
 11
195.7999999999999
 21
2555.888272625835
 31
0.0
  0
ARC
  5
34A
330
2
100
AcDbEntity
  8
Bauseitig_Beton
100
AcDbCircle
 10
199.2999999999999
 20
2555.888272625835
 30
0.0
 40
2.0
100
AcDbArc
 50
270.0
 51
90.0
  0
ARC
  5
34B
330
2
100
AcDbEntity
  8
Bauseitig_Beton
100
AcDbCircle
 10
195.7999999999999
 20
2553.888272625835
 30
0.0
 40
2.0
100
AcDbArc
 50
90.0
 51
270.0
  0
LINE
  5
34C
330
2
100
AcDbEntity
  8
Bauseitig_Beton
100
AcDbLine
 10
195.7999999999999
 20
2555.888272625835
 30
0.0
 11
199.2999999999999
 21
2553.888272625835
 31
0.0
  0
LINE
  5
34D
330
2
100
AcDbEntity
  8
Bauseitig_Beton
100
AcDbLine
 10
199.2999999999999
 20
2553.888272625835
 30
0.0
 11
195.7999999999999
 21
2551.888272625835
 31
0.0
  0
ARC
  5
34E
330
2
100
AcDbEntity
  8
Bauseitig_Beton
100
AcDbCircle
 10
199.2999999999999
 20
2551.888272625835
 30
0.0
 40
2.0
100
AcDbArc
 50
270.0
 51
90.0
  0
ARC
  5
34F
330
2
100
AcDbEntity
  8
Bauseitig_Beton
100
AcDbCircle
 10
195.7999999999999
 20
2549.888272625835
 30
0.0
 40
2.0
100
AcDbArc
 50
90.0
 51
270.0
  0
LINE
  5
350
330
2
100
AcDbEntity
  8
Bauseitig_Beton
100
AcDbLine
 10
195.7999999999999
 20
2551.888272625835
 30
0.0
 11
199.2999999999999
 21
2549.888272625835
 31
0.0
  0
LINE
  5
351
330
2
100
AcDbEntity
  8
Bauseitig_Beton
100
AcDbLine
 10
199.2999999999999
 20
2549.888272625835
 30
0.0
 11
195.7999999999999
 21
2547.888272625835
 31
0.0
  0
ARC
  5
352
330
2
100
AcDbEntity
  8
Bauseitig_Beton
100
AcDbCircle
 10
199.2999999999999
 20
2547.888272625835
 30
0.0
 40
2.0
100
AcDbArc
 50
270.0
 51
90.0
  0
ARC
  5
353
330
2
100
AcDbEntity
  8
Bauseitig_Beton
100
AcDbCircle
 10
195.7999999999999
 20
2545.888272625835
 30
0.0
 40
2.0
100
AcDbArc
 50
90.0
 51
270.0
  0
LINE
  5
354
330
2
100
AcDbEntity
  8
Bauseitig_Beton
100
AcDbLine
 10
195.7999999999999
 20
2547.888272625835
 30
0.0
 11
199.2999999999999
 21
2545.888272625835
 31
0.0
  0
LINE
  5
355
330
2
100
AcDbEntity
  8
Bauseitig_Beton
100
AcDbLine
 10
199.2999999999999
 20
2545.888272625835
 30
0.0
 11
195.7999999999999
 21
2543.888272625835
 31
0.0
  0
ARC
  5
356
330
2
100
AcDbEntity
  8
Bauseitig_Beton
100
AcDbCircle
 10
199.2999999999999
 20
2543.888272625835
 30
0.0
 40
2.0
100
AcDbArc
 50
270.0
 51
90.0
  0
ARC
  5
357
330
2
100
AcDbEntity
  8
Bauseitig_Beton
100
AcDbCircle
 10
195.7999999999999
 20
2541.888272625835
 30
0.0
 40
2.0
100
AcDbArc
 50
90.0
 51
270.0
  0
LINE
  5
358
330
2
100
AcDbEntity
  8
Bauseitig_Beton
100
AcDbLine
 10
195.7999999999999
 20
2543.888272625835
 30
0.0
 11
199.2999999999999
 21
2541.888272625835
 31
0.0
  0
LINE
  5
359
330
2
100
AcDbEntity
  8
Bauseitig_Beton
100
AcDbLine
 10
199.2999999999999
 20
2541.888272625835
 30
0.0
 11
195.7999999999999
 21
2539.888272625835
 31
0.0
  0
ARC
  5
35A
330
2
100
AcDbEntity
  8
Bauseitig_Beton
100
AcDbCircle
 10
199.2999999999999
 20
2539.888272625835
 30
0.0
 40
2.0
100
AcDbArc
 50
270.0
 51
90.0
  0
ARC
  5
35B
330
2
100
AcDbEntity
  8
Bauseitig_Beton
100
AcDbCircle
 10
195.7999999999999
 20
2537.888272625835
 30
0.0
 40
2.0
100
AcDbArc
 50
90.0
 51
270.0
  0
LINE
  5
35C
330
2
100
AcDbEntity
  8
Bauseitig_Beton
100
AcDbLine
 10
195.7999999999999
 20
2539.888272625835
 30
0.0
 11
199.2999999999999
 21
2537.888272625835
 31
0.0
  0
LINE
  5
35D
330
2
100
AcDbEntity
  8
Bauseitig_Beton
100
AcDbLine
 10
199.2999999999999
 20
2537.888272625835
 30
0.0
 11
195.7999999999999
 21
2535.888272625835
 31
0.0
  0
ARC
  5
35E
330
2
100
AcDbEntity
  8
Bauseitig_Beton
100
AcDbCircle
 10
199.2999999999999
 20
2535.888272625835
 30
0.0
 40
2.0
100
AcDbArc
 50
270.0
 51
90.0
  0
ARC
  5
35F
330
2
100
AcDbEntity
  8
Bauseitig_Beton
100
AcDbCircle
 10
195.7999999999999
 20
2533.888272625835
 30
0.0
 40
2.0
100
AcDbArc
 50
90.0
 51
270.0
  0
LINE
  5
360
330
2
100
AcDbEntity
  8
Bauseitig_Beton
100
AcDbLine
 10
195.7999999999999
 20
2535.888272625835
 30
0.0
 11
199.2999999999999
 21
2533.888272625835
 31
0.0
  0
LINE
  5
361
330
2
100
AcDbEntity
  8
Bauseitig_Beton
100
AcDbLine
 10
199.2999999999999
 20
2533.888272625835
 30
0.0
 11
195.7999999999999
 21
2531.888272625835
 31
0.0
  0
ARC
  5
362
330
2
100
AcDbEntity
  8
Bauseitig_Beton
100
AcDbCircle
 10
199.2999999999999
 20
2531.888272625835
 30
0.0
 40
2.0
100
AcDbArc
 50
270.0
 51
90.0
  0
ARC
  5
363
330
2
100
AcDbEntity
  8
Bauseitig_Beton
100
AcDbCircle
 10
195.7999999999999
 20
2529.888272625835
 30
0.0
 40
2.0
100
AcDbArc
 50
90.0
 51
270.0
  0
LINE
  5
364
330
2
100
AcDbEntity
  8
Bauseitig_Beton
100
AcDbLine
 10
195.7999999999999
 20
2531.888272625835
 30
0.0
 11
199.2999999999999
 21
2529.888272625835
 31
0.0
  0
LINE
  5
365
330
2
100
AcDbEntity
  8
Bauseitig_Beton
100
AcDbLine
 10
199.2999999999999
 20
2529.888272625835
 30
0.0
 11
195.7999999999999
 21
2527.888272625835
 31
0.0
  0
ARC
  5
366
330
2
100
AcDbEntity
  8
Bauseitig_Beton
100
AcDbCircle
 10
199.2999999999999
 20
2527.888272625835
 30
0.0
 40
2.0
100
AcDbArc
 50
270.0
 51
90.0
  0
ARC
  5
367
330
2
100
AcDbEntity
  8
Bauseitig_Beton
100
AcDbCircle
 10
195.7999999999999
 20
2525.888272625835
 30
0.0
 40
2.0
100
AcDbArc
 50
90.0
 51
270.0
  0
LINE
  5
368
330
2
100
AcDbEntity
  8
Bauseitig_Beton
100
AcDbLine
 10
195.7999999999999
 20
2527.888272625835
 30
0.0
 11
199.2999999999999
 21
2525.888272625835
 31
0.0
  0
LINE
  5
369
330
2
100
AcDbEntity
  8
Bauseitig_Beton
100
AcDbLine
 10
199.2999999999999
 20
2525.888272625835
 30
0.0
 11
195.7999999999999
 21
2523.888272625835
 31
0.0
  0
ARC
  5
36A
330
2
100
AcDbEntity
  8
Bauseitig_Beton
100
AcDbCircle
 10
199.2999999999999
 20
2523.888272625835
 30
0.0
 40
2.0
100
AcDbArc
 50
270.0
 51
90.0
  0
ARC
  5
36B
330
2
100
AcDbEntity
  8
Bauseitig_Beton
100
AcDbCircle
 10
195.7999999999999
 20
2521.888272625835
 30
0.0
 40
2.0
100
AcDbArc
 50
90.0
 51
270.0
  0
LINE
  5
36C
330
2
100
AcDbEntity
  8
Bauseitig_Beton
100
AcDbLine
 10
195.7999999999999
 20
2523.888272625835
 30
0.0
 11
199.2999999999999
 21
2521.888272625835
 31
0.0
  0
LINE
  5
36D
330
2
100
AcDbEntity
  8
Bauseitig_Beton
100
AcDbLine
 10
199.2999999999999
 20
2521.888272625835
 30
0.0
 11
195.7999999999999
 21
2519.888272625835
 31
0.0
  0
ARC
  5
36E
330
2
100
AcDbEntity
  8
Bauseitig_Beton
100
AcDbCircle
 10
199.2999999999999
 20
2519.888272625835
 30
0.0
 40
2.0
100
AcDbArc
 50
270.0
 51
90.0
  0
ARC
  5
36F
330
2
100
AcDbEntity
  8
Bauseitig_Beton
100
AcDbCircle
 10
195.7999999999999
 20
2517.888272625835
 30
0.0
 40
2.0
100
AcDbArc
 50
90.0
 51
270.0
  0
LINE
  5
370
330
2
100
AcDbEntity
  8
Bauseitig_Beton
100
AcDbLine
 10
195.7999999999999
 20
2519.888272625835
 30
0.0
 11
199.2999999999999
 21
2517.888272625835
 31
0.0
  0
LINE
  5
371
330
2
100
AcDbEntity
  8
Bauseitig_Beton
100
AcDbLine
 10
199.2999999999999
 20
2517.888272625835
 30
0.0
 11
195.7999999999999
 21
2515.888272625835
 31
0.0
  0
ARC
  5
372
330
2
100
AcDbEntity
  8
Bauseitig_Beton
100
AcDbCircle
 10
199.2999999999999
 20
2515.888272625835
 30
0.0
 40
2.0
100
AcDbArc
 50
270.0
 51
90.0
  0
ARC
  5
373
330
2
100
AcDbEntity
  8
Bauseitig_Beton
100
AcDbCircle
 10
195.7999999999999
 20
2513.888272625835
 30
0.0
 40
2.0
100
AcDbArc
 50
90.0
 51
270.0
  0
LINE
  5
374
330
2
100
AcDbEntity
  8
Bauseitig_Beton
100
AcDbLine
 10
195.7999999999999
 20
2515.888272625835
 30
0.0
 11
199.2999999999999
 21
2513.888272625835
 31
0.0
  0
LINE
  5
375
330
2
100
AcDbEntity
  8
Bauseitig_Beton
100
AcDbLine
 10
199.2999999999999
 20
2513.888272625835
 30
0.0
 11
195.7999999999999
 21
2511.888272625835
 31
0.0
  0
ARC
  5
376
330
2
100
AcDbEntity
  8
Bauseitig_Beton
100
AcDbCircle
 10
199.2999999999999
 20
2511.888272625835
 30
0.0
 40
2.0
100
AcDbArc
 50
270.0
 51
90.0
  0
ARC
  5
377
330
2
100
AcDbEntity
  8
Bauseitig_Beton
100
AcDbCircle
 10
195.7999999999999
 20
2509.888272625835
 30
0.0
 40
2.0
100
AcDbArc
 50
90.0
 51
270.0
  0
LINE
  5
378
330
2
100
AcDbEntity
  8
Bauseitig_Beton
100
AcDbLine
 10
195.7999999999999
 20
2511.888272625835
 30
0.0
 11
199.2999999999999
 21
2509.888272625835
 31
0.0
  0
LINE
  5
379
330
2
100
AcDbEntity
  8
Bauseitig_Beton
100
AcDbLine
 10
199.2999999999999
 20
2509.888272625835
 30
0.0
 11
195.7999999999999
 21
2507.888272625835
 31
0.0
  0
ARC
  5
37A
330
2
100
AcDbEntity
  8
Bauseitig_Beton
100
AcDbCircle
 10
199.2999999999999
 20
2507.888272625835
 30
0.0
 40
2.0
100
AcDbArc
 50
270.0
 51
90.0
  0
ARC
  5
37B
330
2
100
AcDbEntity
  8
Bauseitig_Beton
100
AcDbCircle
 10
195.7999999999999
 20
2505.888272625835
 30
0.0
 40
2.0
100
AcDbArc
 50
90.0
 51
270.0
  0
LINE
  5
37C
330
2
100
AcDbEntity
  8
Bauseitig_Beton
100
AcDbLine
 10
195.7999999999999
 20
2507.888272625835
 30
0.0
 11
199.2999999999999
 21
2505.888272625835
 31
0.0
  0
LINE
  5
37D
330
2
100
AcDbEntity
  8
Bauseitig_Beton
100
AcDbLine
 10
199.2999999999999
 20
2505.888272625835
 30
0.0
 11
195.7999999999999
 21
2503.888272625835
 31
0.0
  0
ARC
  5
37E
330
2
100
AcDbEntity
  8
Bauseitig_Beton
100
AcDbCircle
 10
199.2999999999999
 20
2503.888272625835
 30
0.0
 40
2.0
100
AcDbArc
 50
270.0
 51
90.0
  0
ARC
  5
37F
330
2
100
AcDbEntity
  8
Bauseitig_Beton
100
AcDbCircle
 10
195.7999999999999
 20
2501.888272625835
 30
0.0
 40
2.0
100
AcDbArc
 50
90.0
 51
270.0
  0
LINE
  5
380
330
2
100
AcDbEntity
  8
Bauseitig_Beton
100
AcDbLine
 10
195.7999999999999
 20
2503.888272625835
 30
0.0
 11
199.2999999999999
 21
2501.888272625835
 31
0.0
  0
LINE
  5
381
330
2
100
AcDbEntity
  8
Bauseitig_Beton
100
AcDbLine
 10
199.2999999999999
 20
2501.888272625835
 30
0.0
 11
195.7999999999999
 21
2499.888272625835
 31
0.0
  0
ARC
  5
382
330
2
100
AcDbEntity
  8
Bauseitig_Beton
100
AcDbCircle
 10
199.2999999999999
 20
2499.888272625835
 30
0.0
 40
2.0
100
AcDbArc
 50
270.0
 51
90.0
  0
ARC
  5
383
330
2
100
AcDbEntity
  8
Bauseitig_Beton
100
AcDbCircle
 10
195.7999999999999
 20
2497.888272625835
 30
0.0
 40
2.0
100
AcDbArc
 50
90.0
 51
270.0
  0
LINE
  5
384
330
2
100
AcDbEntity
  8
Bauseitig_Beton
100
AcDbLine
 10
195.7999999999999
 20
2499.888272625835
 30
0.0
 11
199.2999999999999
 21
2497.888272625835
 31
0.0
  0
LINE
  5
385
330
2
100
AcDbEntity
  8
Bauseitig_Beton
100
AcDbLine
 10
199.2999999999999
 20
2497.888272625835
 30
0.0
 11
195.7999999999999
 21
2495.888272625835
 31
0.0
  0
ARC
  5
386
330
2
100
AcDbEntity
  8
Bauseitig_Beton
100
AcDbCircle
 10
199.2999999999999
 20
2495.888272625835
 30
0.0
 40
2.0
100
AcDbArc
 50
270.0
 51
90.0
  0
ARC
  5
387
330
2
100
AcDbEntity
  8
Bauseitig_Beton
100
AcDbCircle
 10
195.7999999999999
 20
2493.888272625835
 30
0.0
 40
2.0
100
AcDbArc
 50
90.0
 51
270.0
  0
LINE
  5
388
330
2
100
AcDbEntity
  8
Bauseitig_Beton
100
AcDbLine
 10
195.7999999999999
 20
2495.888272625835
 30
0.0
 11
199.2999999999999
 21
2493.888272625835
 31
0.0
  0
LINE
  5
389
330
2
100
AcDbEntity
  8
Bauseitig_Beton
100
AcDbLine
 10
199.2999999999999
 20
2493.888272625835
 30
0.0
 11
195.7999999999999
 21
2491.888272625835
 31
0.0
  0
ARC
  5
38A
330
2
100
AcDbEntity
  8
Bauseitig_Beton
100
AcDbCircle
 10
199.2999999999999
 20
2491.888272625835
 30
0.0
 40
2.0
100
AcDbArc
 50
270.0
 51
90.0
  0
ARC
  5
38B
330
2
100
AcDbEntity
  8
Bauseitig_Beton
100
AcDbCircle
 10
195.7999999999999
 20
2489.888272625835
 30
0.0
 40
2.0
100
AcDbArc
 50
90.0
 51
270.0
  0
LINE
  5
38C
330
2
100
AcDbEntity
  8
Bauseitig_Beton
100
AcDbLine
 10
195.7999999999999
 20
2491.888272625835
 30
0.0
 11
199.2999999999999
 21
2489.888272625835
 31
0.0
  0
LINE
  5
38D
330
2
100
AcDbEntity
  8
Bauseitig_Beton
100
AcDbLine
 10
199.2999999999999
 20
2489.888272625835
 30
0.0
 11
195.7999999999999
 21
2487.888272625835
 31
0.0
  0
ARC
  5
38E
330
2
100
AcDbEntity
  8
Bauseitig_Beton
100
AcDbCircle
 10
199.2999999999999
 20
2487.888272625835
 30
0.0
 40
2.0
100
AcDbArc
 50
270.0
 51
90.0
  0
ARC
  5
38F
330
2
100
AcDbEntity
  8
Bauseitig_Beton
100
AcDbCircle
 10
195.7999999999999
 20
2485.888272625835
 30
0.0
 40
2.0
100
AcDbArc
 50
90.0
 51
179.8533689496537
  0
LINE
  5
390
330
2
100
AcDbEntity
  8
Bauseitig_Beton
100
AcDbLine
 10
195.7999999999999
 20
2487.888272625835
 30
0.0
 11
199.2999999999999
 21
2485.888272625835
 31
0.0
  0
LINE
  5
391
330
2
100
AcDbEntity
  8
Bauseitig_Beton
  6
STRICHPUNKT
100
AcDbLine
 10
1212.054776301684
 20
2617.88618379947
 30
0.0
 11
1151.441610780896
 21
2617.88618379947
 31
0.0
  0
LINE
  5
392
330
2
100
AcDbEntity
  8
Bauseitig_Beton
 62
     5
100
AcDbLine
 10
1201.41
 20
2663.173391009469
 30
0.0
 11
1201.41
 21
2587.173391009469
 31
0.0
  0
LINE
  5
393
330
2
100
AcDbEntity
  8
Bauseitig_Beton
 62
     5
100
AcDbLine
 10
1198.77
 20
2663.173391009469
 30
0.0
 11
1198.77
 21
2587.173391009469
 31
0.0
  0
LINE
  5
394
330
2
100
AcDbEntity
  8
Bauseitig_Beton
 62
     5
100
AcDbLine
 10
1196.3
 20
2647.905656409006
 30
0.0
 11
1203.8
 21
2640.405656409007
 31
0.0
  0
LINE
  5
395
330
2
100
AcDbEntity
  8
Bauseitig_Beton
 62
     5
100
AcDbLine
 10
1196.3
 20
2641.541695389006
 30
0.0
 11
1203.8
 21
2634.041695389007
 31
0.0
  0
LINE
  5
396
330
2
100
AcDbEntity
  8
Bauseitig_Beton
 62
     5
100
AcDbLine
 10
1196.3
 20
2635.177734333006
 30
0.0
 11
1203.8
 21
2627.677734333007
 31
0.0
  0
LINE
  5
397
330
2
100
AcDbEntity
  8
Bauseitig_Beton
 62
     5
100
AcDbLine
 10
1196.3
 20
2628.813773313006
 30
0.0
 11
1203.8
 21
2621.313773313006
 31
0.0
  0
LINE
  5
398
330
2
100
AcDbEntity
  8
Bauseitig_Beton
 62
     5
100
AcDbLine
 10
1196.3
 20
2609.721890224933
 30
0.0
 11
1203.8
 21
2602.221890224933
 31
0.0
  0
LINE
  5
399
330
2
100
AcDbEntity
  8
Bauseitig_Beton
 62
     5
100
AcDbLine
 10
1196.3
 20
2603.357929204932
 30
0.0
 11
1203.8
 21
2595.857929204933
 31
0.0
  0
LINE
  5
39A
330
2
100
AcDbEntity
  8
Bauseitig_Beton
 62
     5
100
AcDbLine
 10
1196.3
 20
2596.993968148933
 30
0.0
 11
1203.8
 21
2589.493968148933
 31
0.0
  0
LINE
  5
39B
330
2
100
AcDbEntity
  8
Bauseitig_Beton
 62
     5
100
AcDbLine
 10
1196.3
 20
2590.630007128933
 30
0.0
 11
1199.756616119464
 21
2587.173391009469
 31
0.0
  0
LINE
  5
39C
330
2
100
AcDbEntity
  8
Bauseitig_Beton
 62
     5
100
AcDbLine
 10
1200.124148487611
 20
2663.173391009469
 30
0.0
 11
1203.8
 21
2659.497539497079
 31
0.0
  0
LWPOLYLINE
  5
39D
330
2
100
AcDbEntity
  8
Bauseitig_Beton
 62
     5
100
AcDbPolyline
 90
        4
 70
     1
 43
0.0
 10
1203.8
 20
2663.173391009469
 10
1196.3
 20
2663.173391009469
 10
1196.3
 20
2587.173391009469
 10
1203.8
 20
2587.173391009469
  0
LINE
  5
39E
330
2
100
AcDbEntity
  8
Bauseitig_Beton
  6
STRICHPUNKT
100
AcDbLine
 10
185.5452236983153
 20
2617.88618379947
 30
0.0
 11
246.1583892191036
 21
2617.88618379947
 31
0.0
  0
LINE
  5
39F
330
2
100
AcDbEntity
  8
Bauseitig_Beton
 62
     5
100
AcDbLine
 10
196.1899999999998
 20
2663.173391009469
 30
0.0
 11
196.1899999999998
 21
2587.173391009469
 31
0.0
  0
LINE
  5
3A0
330
2
100
AcDbEntity
  8
Bauseitig_Beton
 62
     5
100
AcDbLine
 10
198.8299999999997
 20
2663.173391009469
 30
0.0
 11
198.8299999999997
 21
2587.173391009469
 31
0.0
  0
LINE
  5
3A1
330
2
100
AcDbEntity
  8
Bauseitig_Beton
 62
     5
100
AcDbLine
 10
201.2999999999999
 20
2647.905656409006
 30
0.0
 11
193.7999999999999
 21
2640.405656409007
 31
0.0
  0
LINE
  5
3A2
330
2
100
AcDbEntity
  8
Bauseitig_Beton
 62
     5
100
AcDbLine
 10
201.2999999999999
 20
2641.541695389006
 30
0.0
 11
193.7999999999999
 21
2634.041695389007
 31
0.0
  0
LINE
  5
3A3
330
2
100
AcDbEntity
  8
Bauseitig_Beton
 62
     5
100
AcDbLine
 10
201.2999999999999
 20
2635.177734333006
 30
0.0
 11
193.7999999999999
 21
2627.677734333007
 31
0.0
  0
LINE
  5
3A4
330
2
100
AcDbEntity
  8
Bauseitig_Beton
 62
     5
100
AcDbLine
 10
201.2999999999999
 20
2628.813773313006
 30
0.0
 11
193.7999999999999
 21
2621.313773313006
 31
0.0
  0
LINE
  5
3A5
330
2
100
AcDbEntity
  8
Bauseitig_Beton
 62
     5
100
AcDbLine
 10
201.2999999999999
 20
2609.721890224933
 30
0.0
 11
193.7999999999999
 21
2602.221890224933
 31
0.0
  0
LINE
  5
3A6
330
2
100
AcDbEntity
  8
Bauseitig_Beton
 62
     5
100
AcDbLine
 10
201.2999999999999
 20
2603.357929204932
 30
0.0
 11
193.7999999999999
 21
2595.857929204933
 31
0.0
  0
LINE
  5
3A7
330
2
100
AcDbEntity
  8
Bauseitig_Beton
 62
     5
100
AcDbLine
 10
201.2999999999999
 20
2596.993968148933
 30
0.0
 11
193.7999999999999
 21
2589.493968148933
 31
0.0
  0
LINE
  5
3A8
330
2
100
AcDbEntity
  8
Bauseitig_Beton
 62
     5
100
AcDbLine
 10
201.2999999999999
 20
2590.630007128933
 30
0.0
 11
197.843383880536
 21
2587.173391009469
 31
0.0
  0
LINE
  5
3A9
330
2
100
AcDbEntity
  8
Bauseitig_Beton
 62
     5
100
AcDbLine
 10
197.4758515123892
 20
2663.173391009469
 30
0.0
 11
193.7999999999995
 21
2659.497539497079
 31
0.0
  0
LWPOLYLINE
  5
3AA
330
2
100
AcDbEntity
  8
Bauseitig_Beton
 62
     5
100
AcDbPolyline
 90
        4
 70
     1
 43
0.0
 10
193.7999999999999
 20
2663.173391009469
 10
201.2999999999999
 20
2663.173391009469
 10
201.2999999999999
 20
2587.173391009469
 10
193.7999999999999
 20
2587.173391009469
  0
LINE
  5
3AB
330
2
100
AcDbEntity
  8
Plankopf
 62
     0
100
AcDbLine
 10
1297.6
 20
2082.0
 30
0.0
 11
1297.6
 21
2117.7632
 31
0.0
  0
TEXT
  5
3AC
330
2
100
AcDbEntity
  8
Plankopf
 62
     0
100
AcDbText
 10
1303.793488042719
 20
2108.986666666669
 30
0.0
 40
5.632
  1
Zeichnungs-Nr.
  7
TECHNICBOLD
100
AcDbText
  0
LINE
  5
3AD
330
2
100
AcDbEntity
  8
Beschriftung
100
AcDbLine
 10
1253.951999999999
 20
2207.4624
 30
0.0
 11
1353.951999999999
 21
2207.4624
 31
0.0
  0
MTEXT
  5
3AF
330
2
100
AcDbEntity
  8
Beschriftung
 62
     1
100
AcDbMText
 10
1302.599288555453
 20
2219.723885714581
 30
0.0
 40
10.0
 41
0.0
 46
0.0
 71
     5
 72
     1
  1
\A1;10 cm
  7
Arial
 73
     1
 44
1.0
  0
LINE
  5
3B1
330
2
100
AcDbEntity
  8
Beschriftung
100
AcDbLine
 10
1253.951999999999
 20
2210.462399999999
 30
0.0
 11
1253.951999999999
 21
2204.4624
 31
0.0
  0
LINE
  5
3B2
330
2
100
AcDbEntity
  8
Beschriftung
100
AcDbLine
 10
1353.951999999999
 20
2210.462399999999
 30
0.0
 11
1353.951999999999
 21
2204.4624
 31
0.0
  0
TEXT
  5
3B3
102
{ACAD_XDICTIONARY
360
3B4
102
}
330
2
100
AcDbEntity
  8
Plankopf
 62
     0
100
AcDbText
 10
970.3284290714218
 20
2160.454276299163
 30
0.0
 40
7.5
  1
Stand: Mai 14
  7
TECHNICBOLD
100
AcDbText
1001
AcadAnnotative
1000
AnnotativeData
1002
{
1070
     1
1070
     0
1002
}
  0
TEXT
  5
3B7
330
2
100
AcDbEntity
  8
3-t. Klapptreppe
 62
     0
100
AcDbText
 10
1309.187580350397
 20
2086.450092806627
 30
0.0
 40
14.19264
  1
EK10C03
  7
TECHNICBOLD
100
AcDbText
  0
ENDSEC
  0
SECTION
  2
OBJECTS
  0
DICTIONARY
  5
9
330
0
100
AcDbDictionary
281
     1
  3
ACAD_COLOR
350
48
  3
ACAD_GROUP
350
35
  3
ACAD_LAYOUT
350
17
  3
ACAD_MATERIAL
350
B
  3
ACAD_MLEADERSTYLE
350
4B
  3
ACAD_MLINESTYLE
350
36
  3
ACAD_PLOTSETTINGS
350
37
  3
ACAD_PLOTSTYLENAME
350
8
  3
ACAD_SCALELIST
350
49
  3
ACAD_TABLESTYLE
350
4A
  3
ACAD_VISUALSTYLE
350
2F
  3
ACDB_RECOMPOSE_DATA
350
3C5
  3
AcDbVariableDictionary
350
3BC
  3
AcDsDecomposeData
350
3CB
  0
DICTIONARY
  5
1F
330
1E
100
AcDbDictionary
280
     1
281
     1
  3
ACAD_LAYERFILTERS
360
20
  3
ACAD_LAYERSTATES
360
21
  3
ACLYDICTIONARY
360
22
  0
DICTIONARY
  5
6D
330
6C
100
AcDbDictionary
280
     1
281
     1
  0
DICTIONARY
  5
3
330
2
100
AcDbDictionary
280
     1
281
     1
  3
ACAD_SORTENTS
360
3B8
  0
DICTIONARY
  5
AA
330
A9
100
AcDbDictionary
280
     1
281
     1
  3
AcDbContextDataManager
360
AB
  0
DICTIONARY
  5
137
330
136
100
AcDbDictionary
280
     1
281
     1
  3
AcDbContextDataManager
360
138
  0
DICTIONARY
  5
13B
330
13A
100
AcDbDictionary
280
     1
281
     1
  3
AcDbContextDataManager
360
13C
  0
DICTIONARY
  5
13F
330
13E
100
AcDbDictionary
280
     1
281
     1
  3
AcDbContextDataManager
360
140
  0
DICTIONARY
  5
143
330
142
100
AcDbDictionary
280
     1
281
     1
  3
AcDbContextDataManager
360
144
  0
DICTIONARY
  5
25E
330
25D
100
AcDbDictionary
280
     1
281
     1
  3
AcDbContextDataManager
360
25F
  0
DICTIONARY
  5
2ED
330
2EC
100
AcDbDictionary
280
     1
281
     1
  3
AcDbContextDataManager
360
2EE
  0
DICTIONARY
  5
3B4
330
3B3
100
AcDbDictionary
280
     1
281
     1
  3
AcDbContextDataManager
360
3B5
  0
DICTIONARY
  5
48
102
{ACAD_REACTORS
330
9
102
}
330
9
100
AcDbDictionary
281
     1
  0
DICTIONARY
  5
35
102
{ACAD_REACTORS
330
9
102
}
330
9
100
AcDbDictionary
281
     1
  0
DICTIONARY
  5
17
102
{ACAD_REACTORS
330
9
102
}
330
9
100
AcDbDictionary
281
     1
  3
Layout1
350
1D
  3
Model
350
16
  0
DICTIONARY
  5
B
102
{ACAD_REACTORS
330
9
102
}
330
9
100
AcDbDictionary
281
     1
  3
ByBlock
350
40
  3
ByLayer
350
38
  3
Global
350
A
  0
DICTIONARY
  5
4B
102
{ACAD_REACTORS
330
9
102
}
330
9
100
AcDbDictionary
281
     1
  0
DICTIONARY
  5
36
102
{ACAD_REACTORS
330
9
102
}
330
9
100
AcDbDictionary
281
     1
  3
Standard
350
51
  0
DICTIONARY
  5
37
102
{ACAD_REACTORS
330
9
102
}
330
9
100
AcDbDictionary
281
     1
  0
ACDBDICTIONARYWDFLT
  5
8
102
{ACAD_REACTORS
330
9
102
}
330
9
100
AcDbDictionary
281
     1
  3
Normal
350
7
100
AcDbDictionaryWithDefault
340
7
  0
DICTIONARY
  5
49
102
{ACAD_REACTORS
330
9
102
}
330
9
100
AcDbDictionary
281
     1
  3
A0
350
55
  3
A1
350
56
  3
A2
350
57
  3
A3
350
58
  3
A4
350
59
  3
A5
350
5A
  3
A6
350
5B
  3
A7
350
5C
  3
A8
350
5D
  3
A9
350
5E
  3
B0
350
5F
  3
B1
350
60
  3
B2
350
61
  3
B3
350
62
  3
B4
350
63
  3
B5
350
64
  3
B6
350
65
  0
DICTIONARY
  5
4A
102
{ACAD_REACTORS
330
9
102
}
330
9
100
AcDbDictionary
281
     1
  3
Standard
350
52
  0
DICTIONARY
  5
2F
102
{ACAD_REACTORS
330
9
102
}
330
9
100
AcDbDictionary
281
     1
  3
2dWireframe
350
2E
  3
Realistic
350
53
  3
Wireframe
350
54
  0
XRECORD
  5
3C5
102
{ACAD_REACTORS
330
9
102
}
330
9
100
AcDbXrecord
280
     1
 90
        1
330
52
330
25D
330
2EC
  0
DICTIONARY
  5
3BC
102
{ACAD_REACTORS
330
9
102
}
330
9
100
AcDbDictionary
281
     1
  3
CANNOSCALE
350
3C1
  3
CMLEADERSTYLE
350
3BE
  3
CTABLESTYLE
350
3BD
  3
CVIEWDETAILSTYLE
350
3BF
  3
CVIEWSECTIONSTYLE
350
3C0
  3
XCLIPFRAME
350
3C2
  0
DICTIONARY
  5
3CB
102
{ACAD_REACTORS
330
9
102
}
330
9
100
AcDbDictionary
281
     1
  3
AcDsRecords
350
3CD
  3
AcDsSchemas
350
3CC
1001
ACAD
1070
     2
  0
DICTIONARY
  5
20
102
{ACAD_REACTORS
330
1F
102
}
330
1F
100
AcDbDictionary
281
     1
  0
DICTIONARY
  5
21
102
{ACAD_REACTORS
330
1F
102
}
330
1F
100
AcDbDictionary
281
     1
  0
DICTIONARY
  5
22
102
{ACAD_REACTORS
330
1F
102
}
330
1F
100
AcDbDictionary
281
     1
1001
ACAD
1000
<AllUsed
  0
SORTENTSTABLE
  5
3B8
102
{ACAD_REACTORS
330
3
102
}
330
3
100
AcDbSortentsTable
330
2
  0
DICTIONARY
  5
AB
102
{ACAD_REACTORS
330
AA
102
}
330
AA
100
AcDbDictionary
281
     1
  3
ACDB_ANNOTATIONSCALES
350
AC
  0
DICTIONARY
  5
138
102
{ACAD_REACTORS
330
137
102
}
330
137
100
AcDbDictionary
281
     1
  3
ACDB_ANNOTATIONSCALES
350
139
  0
DICTIONARY
  5
13C
102
{ACAD_REACTORS
330
13B
102
}
330
13B
100
AcDbDictionary
281
     1
  3
ACDB_ANNOTATIONSCALES
350
13D
  0
DICTIONARY
  5
140
102
{ACAD_REACTORS
330
13F
102
}
330
13F
100
AcDbDictionary
281
     1
  3
ACDB_ANNOTATIONSCALES
350
141
  0
DICTIONARY
  5
144
102
{ACAD_REACTORS
330
143
102
}
330
143
100
AcDbDictionary
281
     1
  3
ACDB_ANNOTATIONSCALES
350
145
  0
DICTIONARY
  5
25F
102
{ACAD_REACTORS
330
25E
102
}
330
25E
100
AcDbDictionary
281
     1
  3
ACDB_ANNOTATIONSCALES
350
260
  0
DICTIONARY
  5
2EE
102
{ACAD_REACTORS
330
2ED
102
}
330
2ED
100
AcDbDictionary
281
     1
  3
ACDB_ANNOTATIONSCALES
350
2EF
  0
DICTIONARY
  5
3B5
102
{ACAD_REACTORS
330
3B4
102
}
330
3B4
100
AcDbDictionary
281
     1
  3
ACDB_ANNOTATIONSCALES
350
3B6
  0
LAYOUT
  5
1D
102
{ACAD_REACTORS
330
17
102
}
330
17
100
AcDbPlotSettings
  1

  2
HP Color LaserJet CP2020 Series PCL 6
  4

  6

 40
0.0
 41
0.0
 42
0.0
 43
0.0
 44
0.0
 45
0.0
 46
0.0
 47
0.0
 48
0.0
 49
0.0
140
0.0
141
0.0
142
1.0
143
1.0
 70
   688
 72
     0
 73
     0
 74
     5
  7
monochrome.ctb
 75
    16
147
1.0
 76
     0
 77
     2
 78
   300
148
0.0
149
0.0
100
AcDbLayout
  1
Layout1
 70
     1
 71
     1
 10
0.0
 20
0.0
 11
12.0
 21
9.0
 12
0.0
 22
0.0
 32
0.0
 14
1.000000000000000E+20
 24
1.000000000000000E+20
 34
1.000000000000000E+20
 15
-1.000000000000000E+20
 25
-1.000000000000000E+20
 35
-1.000000000000000E+20
146
0.0
 13
0.0
 23
0.0
 33
0.0
 16
1.0
 26
0.0
 36
0.0
 17
0.0
 27
1.0
 37
0.0
 76
     0
330
1A
  0
LAYOUT
  5
16
102
{ACAD_XDICTIONARY
360
18
102
}
102
{ACAD_REACTORS
330
17
102
}
330
17
100
AcDbPlotSettings
  1

  2
none_device
  4
Letter_(8.50_x_11.00_Inches)
  6

 40
6.349999904632568
 41
6.349999904632568
 42
6.350006103515625
 43
6.350006103515625
 44
215.8999938964844
 45
279.3999938964844
 46
0.0
 47
0.0
 48
0.0
 49
0.0
140
0.0
141
0.0
142
1.0
143
64.78996994265674
 70
 11952
 72
     0
 73
     1
 74
     0
  7
monochrome.ctb
 75
     0
147
0.0154344877900864
 76
     0
 77
     2
 78
   300
148
-2617.719647371877
149
1317.048691221335
100
AcDbLayout
  1
Model
 70
     1
 71
     0
 10
0.0
 20
0.0
 11
12.0
 21
9.0
 12
0.0
 22
0.0
 32
0.0
 14
0.0
 24
0.0
 34
0.0
 15
0.0
 25
0.0
 35
0.0
146
0.0
 13
0.0
 23
0.0
 33
0.0
 16
1.0
 26
0.0
 36
0.0
 17
0.0
 27
1.0
 37
0.0
 76
     0
330
2
331
2D
1001
ACAD_PSEXT
1000
Kein
1000
Kein
1000
Nicht anwendbar
1000
Das Layout wird erst geplottet, wenn ein neuer Plotter-Konfigurationsname ausgewählt wird.
1070
     0
  0
MATERIAL
  5
40
102
{ACAD_XDICTIONARY
360
41
102
}
102
{ACAD_REACTORS
330
B
102
}
330
B
100
AcDbMaterial
  1
ByBlock
 72
     0
 43
0.0208333333333333
 43
0.0
 43
0.0
 43
0.0
 43
0.0
 43
0.0208333333333333
 43
0.0
 43
0.0
 43
0.0
 43
0.0
 43
1.0
 43
0.0
 43
0.0
 43
0.0
 43
0.0
 43
1.0
 77
     0
 47
0.0208333333333333
 47
0.0
 47
0.0
 47
0.0
 47
0.0
 47
0.0208333333333333
 47
0.0
 47
0.0
 47
0.0
 47
0.0
 47
1.0
 47
0.0
 47
0.0
 47
0.0
 47
0.0
 47
1.0
171
     0
 49
0.0208333333333333
 49
0.0
 49
0.0
 49
0.0
 49
0.0
 49
0.0208333333333333
 49
0.0
 49
0.0
 49
0.0
 49
0.0
 49
1.0
 49
0.0
 49
0.0
 49
0.0
 49
0.0
 49
1.0
175
     0
142
0.0208333333333333
142
0.0
142
0.0
142
0.0
142
0.0
142
0.0208333333333333
142
0.0
142
0.0
142
0.0
142
0.0
142
1.0
142
0.0
142
0.0
142
0.0
142
0.0
142
1.0
179
     0
144
0.0208333333333333
144
0.0
144
0.0
144
0.0
144
0.0
144
0.0208333333333333
144
0.0
144
0.0
144
0.0
144
0.0
144
1.0
144
0.0
144
0.0
144
0.0
144
0.0
144
1.0
147
0.0208333333333333
147
0.0
147
0.0
147
0.0
147
0.0
147
0.0208333333333333
147
0.0
147
0.0
147
0.0
147
0.0
147
1.0
147
0.0
147
0.0
147
0.0
147
0.0
147
1.0
  0
MATERIAL
  5
38
102
{ACAD_XDICTIONARY
360
39
102
}
102
{ACAD_REACTORS
330
B
102
}
330
B
100
AcDbMaterial
  1
ByLayer
 72
     0
 43
0.0208333333333333
 43
0.0
 43
0.0
 43
0.0
 43
0.0
 43
0.0208333333333333
 43
0.0
 43
0.0
 43
0.0
 43
0.0
 43
1.0
 43
0.0
 43
0.0
 43
0.0
 43
0.0
 43
1.0
 77
     0
 47
0.0208333333333333
 47
0.0
 47
0.0
 47
0.0
 47
0.0
 47
0.0208333333333333
 47
0.0
 47
0.0
 47
0.0
 47
0.0
 47
1.0
 47
0.0
 47
0.0
 47
0.0
 47
0.0
 47
1.0
171
     0
 49
0.0208333333333333
 49
0.0
 49
0.0
 49
0.0
 49
0.0
 49
0.0208333333333333
 49
0.0
 49
0.0
 49
0.0
 49
0.0
 49
1.0
 49
0.0
 49
0.0
 49
0.0
 49
0.0
 49
1.0
175
     0
142
0.0208333333333333
142
0.0
142
0.0
142
0.0
142
0.0
142
0.0208333333333333
142
0.0
142
0.0
142
0.0
142
0.0
142
1.0
142
0.0
142
0.0
142
0.0
142
0.0
142
1.0
179
     0
144
0.0208333333333333
144
0.0
144
0.0
144
0.0
144
0.0
144
0.0208333333333333
144
0.0
144
0.0
144
0.0
144
0.0
144
1.0
144
0.0
144
0.0
144
0.0
144
0.0
144
1.0
147
0.0208333333333333
147
0.0
147
0.0
147
0.0
147
0.0
147
0.0208333333333333
147
0.0
147
0.0
147
0.0
147
0.0
147
1.0
147
0.0
147
0.0
147
0.0
147
0.0
147
1.0
  0
MATERIAL
  5
A
102
{ACAD_XDICTIONARY
360
C
102
}
102
{ACAD_REACTORS
330
B
102
}
330
B
100
AcDbMaterial
  1
Global
 72
     0
 43
0.0208333333333333
 43
0.0
 43
0.0
 43
0.0
 43
0.0
 43
0.0208333333333333
 43
0.0
 43
0.0
 43
0.0
 43
0.0
 43
1.0
 43
0.0
 43
0.0
 43
0.0
 43
0.0
 43
1.0
 77
     0
 47
0.0208333333333333
 47
0.0
 47
0.0
 47
0.0
 47
0.0
 47
0.0208333333333333
 47
0.0
 47
0.0
 47
0.0
 47
0.0
 47
1.0
 47
0.0
 47
0.0
 47
0.0
 47
0.0
 47
1.0
171
     0
 49
0.0208333333333333
 49
0.0
 49
0.0
 49
0.0
 49
0.0
 49
0.0208333333333333
 49
0.0
 49
0.0
 49
0.0
 49
0.0
 49
1.0
 49
0.0
 49
0.0
 49
0.0
 49
0.0
 49
1.0
175
     0
142
0.0208333333333333
142
0.0
142
0.0
142
0.0
142
0.0
142
0.0208333333333333
142
0.0
142
0.0
142
0.0
142
0.0
142
1.0
142
0.0
142
0.0
142
0.0
142
0.0
142
1.0
179
     0
144
0.0208333333333333
144
0.0
144
0.0
144
0.0
144
0.0
144
0.0208333333333333
144
0.0
144
0.0
144
0.0
144
0.0
144
1.0
144
0.0
144
0.0
144
0.0
144
0.0
144
1.0
147
0.0208333333333333
147
0.0
147
0.0
147
0.0
147
0.0
147
0.0208333333333333
147
0.0
147
0.0
147
0.0
147
0.0
147
1.0
147
0.0
147
0.0
147
0.0
147
0.0
147
1.0
  0
MLINESTYLE
  5
51
102
{ACAD_REACTORS
330
36
102
}
330
36
100
AcDbMlineStyle
  2
STANDARD
 70
     0
  3

 62
   256
 51
90.0
 52
90.0
 71
     2
 49
0.5
 62
   256
  6
BYLAYER
 49
-0.5
 62
   256
  6
BYLAYER
  0
ACDBPLACEHOLDER
  5
7
102
{ACAD_REACTORS
330
8
102
}
330
8
  0
SCALE
  5
55
102
{ACAD_REACTORS
330
49
102
}
330
49
100
AcDbScale
 70
     0
300
1:1
140
1.0
141
1.0
290
     1
  0
SCALE
  5
56
102
{ACAD_REACTORS
330
49
102
}
330
49
100
AcDbScale
 70
     0
300
1/128" = 1'-0"
140
0.0078125
141
12.0
290
     0
  0
SCALE
  5
57
102
{ACAD_REACTORS
330
49
102
}
330
49
100
AcDbScale
 70
     0
300
1/64" = 1'-0"
140
0.015625
141
12.0
290
     0
  0
SCALE
  5
58
102
{ACAD_REACTORS
330
49
102
}
330
49
100
AcDbScale
 70
     0
300
1/32" = 1'-0"
140
0.03125
141
12.0
290
     0
  0
SCALE
  5
59
102
{ACAD_REACTORS
330
49
102
}
330
49
100
AcDbScale
 70
     0
300
1/16" = 1'-0"
140
0.0625
141
12.0
290
     0
  0
SCALE
  5
5A
102
{ACAD_REACTORS
330
49
102
}
330
49
100
AcDbScale
 70
     0
300
3/32" = 1'-0"
140
0.09375
141
12.0
290
     0
  0
SCALE
  5
5B
102
{ACAD_REACTORS
330
49
102
}
330
49
100
AcDbScale
 70
     0
300
1/8" = 1'-0"
140
0.125
141
12.0
290
     0
  0
SCALE
  5
5C
102
{ACAD_REACTORS
330
49
102
}
330
49
100
AcDbScale
 70
     0
300
3/16" = 1'-0"
140
0.1875
141
12.0
290
     0
  0
SCALE
  5
5D
102
{ACAD_REACTORS
330
49
102
}
330
49
100
AcDbScale
 70
     0
300
1/4" = 1'-0"
140
0.25
141
12.0
290
     0
  0
SCALE
  5
5E
102
{ACAD_REACTORS
330
49
102
}
330
49
100
AcDbScale
 70
     0
300
3/8" = 1'-0"
140
0.375
141
12.0
290
     0
  0
SCALE
  5
5F
102
{ACAD_REACTORS
330
49
102
}
330
49
100
AcDbScale
 70
     0
300
1/2" = 1'-0"
140
0.5
141
12.0
290
     0
  0
SCALE
  5
60
102
{ACAD_REACTORS
330
49
102
}
330
49
100
AcDbScale
 70
     0
300
3/4" = 1'-0"
140
0.75
141
12.0
290
     0
  0
SCALE
  5
61
102
{ACAD_REACTORS
330
49
102
}
330
49
100
AcDbScale
 70
     0
300
1" = 1'-0"
140
1.0
141
12.0
290
     0
  0
SCALE
  5
62
102
{ACAD_REACTORS
330
49
102
}
330
49
100
AcDbScale
 70
     0
300
1-1/2" = 1'-0"
140
1.5
141
12.0
290
     0
  0
SCALE
  5
63
102
{ACAD_REACTORS
330
49
102
}
330
49
100
AcDbScale
 70
     0
300
3" = 1'-0"
140
3.0
141
12.0
290
     0
  0
SCALE
  5
64
102
{ACAD_REACTORS
330
49
102
}
330
49
100
AcDbScale
 70
     0
300
6" = 1'-0"
140
6.0
141
12.0
290
     0
  0
SCALE
  5
65
102
{ACAD_REACTORS
330
49
102
}
330
49
100
AcDbScale
 70
     0
300
1'-0" = 1'-0"
140
12.0
141
12.0
290
     0
  0
TABLESTYLE
  5
52
102
{ACAD_XDICTIONARY
360
3C3
102
}
102
{ACAD_REACTORS
330
4A
102
}
330
4A
100
AcDbTableStyle
  3
Standard
 70
     0
 71
     0
 40
0.06
 41
0.06
280
     0
281
     0
  7
STANDARD
140
0.18
170
     2
 62
     0
 63
     7
283
     0
 90
      512
 91
        0
  1

274
    -2
284
     1
 64
     0
275
    -2
285
     1
 65
     0
276
    -2
286
     1
 66
     0
277
    -2
287
     1
 67
     0
278
    -2
288
     1
 68
     0
279
    -2
289
     1
 69
     0
  7
STANDARD
140
0.25
170
     5
 62
     0
 63
     7
283
     0
 90
      512
 91
        0
  1

274
    -2
284
     1
 64
     0
275
    -2
285
     1
 65
     0
276
    -2
286
     1
 66
     0
277
    -2
287
     1
 67
     0
278
    -2
288
     1
 68
     0
279
    -2
289
     1
 69
     0
  7
STANDARD
140
0.18
170
     5
 62
     0
 63
     7
283
     0
 90
      512
 91
        0
  1

274
    -2
284
     1
 64
     0
275
    -2
285
     1
 65
     0
276
    -2
286
     1
 66
     0
277
    -2
287
     1
 67
     0
278
    -2
288
     1
 68
     0
279
    -2
289
     1
 69
     0
  0
VISUALSTYLE
  5
2E
102
{ACAD_XDICTIONARY
360
3CE
102
}
102
{ACAD_REACTORS
330
2F
102
}
330
2F
100
AcDbVisualStyle
  2
2dWireframe
 70
     4
 71
     0
 72
     2
 73
     0
 90
        0
 40
-0.6
 41
-30.0
 62
     5
 63
     7
421
 16777215
 74
     1
 91
        4
 64
     7
 65
   257
 75
     1
175
     1
 42
1.0
 92
        0
 66
   257
 43
1.0
 76
     1
 77
     6
 78
     2
 67
     7
 79
     5
170
     0
171
     0
290
     0
174
     0
 93
        1
 44
0.0
173
     0
291
     0
 45
0.0
1001
ACAD
1000
AcDbSavedByObjectVersion
1070
     0
  0
VISUALSTYLE
  5
53
102
{ACAD_XDICTIONARY
360
3D0
102
}
102
{ACAD_REACTORS
330
2F
102
}
330
2F
100
AcDbVisualStyle
  2
Realistic
 70
     8
 71
     2
 72
     3
 73
     0
 90
        2
 40
-0.6
 41
30.0
 62
     5
 63
     7
421
 16777215
 74
     0
 91
        0
 64
     7
 65
   257
 75
     1
175
     1
 42
1.0
 92
        8
 66
   257
 43
1.0
 76
     1
 77
     6
 78
     2
 67
     7
 79
     3
170
     0
171
     0
290
     0
174
     0
 93
       13
 44
0.0
173
     0
291
     0
 45
0.0
1001
ACAD
1000
AcDbSavedByObjectVersion
1070
     0
  0
VISUALSTYLE
  5
54
102
{ACAD_XDICTIONARY
360
3D2
102
}
102
{ACAD_REACTORS
330
2F
102
}
330
2F
100
AcDbVisualStyle
  2
Wireframe
 70
     5
 71
     0
 72
     2
 73
     0
 90
        0
 40
-0.6
 41
-30.0
 62
     5
 63
     7
421
 16777215
 74
     1
 91
        4
 64
     7
 65
   257
 75
     1
175
     1
 42
1.0
 92
        0
 66
   257
 43
1.0
 76
     1
 77
     6
 78
     2
 67
     7
 79
     3
170
     0
171
     0
290
     0
174
     0
 93
        1
 44
0.0
173
     0
291
     0
 45
0.0
1001
ACAD
1000
AcDbSavedByObjectVersion
1070
     0
  0
DICTIONARYVAR
  5
3C1
102
{ACAD_REACTORS
330
3BC
102
}
330
3BC
100
DictionaryVariables
280
     0
  1
1:1
  0
DICTIONARYVAR
  5
3BE
102
{ACAD_REACTORS
330
3BC
102
}
330
3BC
100
DictionaryVariables
280
     0
  1
STANDARD
  0
DICTIONARYVAR
  5
3BD
102
{ACAD_REACTORS
330
3BC
102
}
330
3BC
100
DictionaryVariables
280
     0
  1
STANDARD
  0
DICTIONARYVAR
  5
3BF
102
{ACAD_REACTORS
330
3BC
102
}
330
3BC
100
DictionaryVariables
280
     0
  1

  0
DICTIONARYVAR
  5
3C0
102
{ACAD_REACTORS
330
3BC
102
}
330
3BC
100
DictionaryVariables
280
     0
  1

  0
DICTIONARYVAR
  5
3C2
102
{ACAD_REACTORS
330
3BC
102
}
330
3BC
100
DictionaryVariables
280
     0
  1
2
  0
DICTIONARY
  5
3CD
102
{ACAD_REACTORS
330
3CB
102
}
330
3CB
100
AcDbDictionary
281
     1
  0
DICTIONARY
  5
3CC
102
{ACAD_REACTORS
330
3CB
102
}
330
3CB
100
AcDbDictionary
281
     1
  3
1073201248
350
3C6
  3
1073201264
350
3C7
  3
1073201280
350
3C8
  3
1073201296
350
3C9
  3
1073201312
350
3CA
  0
DICTIONARY
  5
AC
102
{ACAD_REACTORS
330
AB
102
}
330
AB
100
AcDbDictionary
281
     1
  0
DICTIONARY
  5
139
102
{ACAD_REACTORS
330
138
102
}
330
138
100
AcDbDictionary
281
     1
  0
DICTIONARY
  5
13D
102
{ACAD_REACTORS
330
13C
102
}
330
13C
100
AcDbDictionary
281
     1
  0
DICTIONARY
  5
141
102
{ACAD_REACTORS
330
140
102
}
330
140
100
AcDbDictionary
281
     1
  0
DICTIONARY
  5
145
102
{ACAD_REACTORS
330
144
102
}
330
144
100
AcDbDictionary
281
     1
  0
DICTIONARY
  5
260
102
{ACAD_REACTORS
330
25F
102
}
330
25F
100
AcDbDictionary
281
     1
  0
DICTIONARY
  5
2EF
102
{ACAD_REACTORS
330
2EE
102
}
330
2EE
100
AcDbDictionary
281
     1
  0
DICTIONARY
  5
3B6
102
{ACAD_REACTORS
330
3B5
102
}
330
3B5
100
AcDbDictionary
281
     1
  0
DICTIONARY
  5
18
330
16
100
AcDbDictionary
280
     1
281
     1
  0
DICTIONARY
  5
41
330
40
100
AcDbDictionary
280
     1
281
     1
  3
BUMPTILE
360
42
  3
DIFFUSETILE
360
43
  3
OPACITYTILE
360
44
  3
REFLECTIONTILE
360
45
  3
REFRACTIONTILE
360
46
  3
SPECULARTILE
360
47
  0
DICTIONARY
  5
39
330
38
100
AcDbDictionary
280
     1
281
     1
  3
BUMPTILE
360
3A
  3
DIFFUSETILE
360
3B
  3
OPACITYTILE
360
3C
  3
REFLECTIONTILE
360
3D
  3
REFRACTIONTILE
360
3E
  3
SPECULARTILE
360
3F
  0
DICTIONARY
  5
C
330
A
100
AcDbDictionary
280
     1
281
     1
  3
BUMPTILE
360
D
  3
DIFFUSETILE
360
E
  3
FBXASSET
360
F
  3
OPACITYTILE
360
10
  3
REFLECTIONTILE
360
11
  3
REFRACTIONTILE
360
12
  3
SPECULARTILE
360
13
  0
DICTIONARY
  5
3C3
330
52
100
AcDbDictionary
280
     1
281
     1
  3
ACAD_ROUNDTRIP_2008_TABLESTYLE_CELLSTYLEMAP
360
3C4
  0
DICTIONARY
  5
3CE
330
2E
100
AcDbDictionary
280
     1
281
     1
  3
ACAD_XREC_ROUNDTRIP
360
3CF
  0
DICTIONARY
  5
3D0
330
53
100
AcDbDictionary
280
     1
281
     1
  3
ACAD_XREC_ROUNDTRIP
360
3D1
  0
DICTIONARY
  5
3D2
330
54
100
AcDbDictionary
280
     1
281
     1
  3
ACAD_XREC_ROUNDTRIP
360
3D3
  0
XRECORD
  5
3C6
102
{ACAD_REACTORS
330
3CC
102
}
330
3CC
100
AcDbXrecord
280
     1
  1
AcDb_Thumbnail_Schema
102
{ATTRRECORD
341
3C7
  2
AcDbDs::TreatedAsObjectData
280
     1
291
     1
102
ATTRRECORD}
102
{ATTRRECORD
341
3C8
  2
AcDbDs::Legacy
280
     1
291
     1
102
ATTRRECORD}
  2
AcDbDs::ID
280
    10
 91
        8
102
{ATTRRECORD
341
3C9
  2
AcDs:Indexable
280
     1
291
     1
102
ATTRRECORD}
102
{ATTRRECORD
341
3CA
  2
AcDbDs::HandleAttribute
280
     7
282
     1
102
ATTRRECORD}
  2
Thumbnail_Data
280
    15
 91
        0
  0
XRECORD
  5
3C7
102
{ACAD_REACTORS
330
3CC
102
}
330
3CC
100
AcDbXrecord
280
     1
  1
AcDbDs::TreatedAsObjectDataSchema
  2
AcDbDs::TreatedAsObjectData
280
     1
 91
        0
  0
XRECORD
  5
3C8
102
{ACAD_REACTORS
330
3CC
102
}
330
3CC
100
AcDbXrecord
280
     1
  1
AcDbDs::LegacySchema
  2
AcDbDs::Legacy
280
     1
 91
        0
  0
XRECORD
  5
3C9
102
{ACAD_REACTORS
330
3CC
102
}
330
3CC
100
AcDbXrecord
280
     1
  1
AcDbDs::IndexedPropertySchema
  2
AcDs:Indexable
280
     1
 91
        0
  0
XRECORD
  5
3CA
102
{ACAD_REACTORS
330
3CC
102
}
330
3CC
100
AcDbXrecord
280
     1
  1
AcDbDs::HandleAttributeSchema
  2
AcDbDs::HandleAttribute
280
     7
 91
        1
284
     1
  0
XRECORD
  5
42
102
{ACAD_REACTORS
330
41
102
}
330
41
100
AcDbXrecord
280
     1
270
     1
271
     1
  0
XRECORD
  5
43
102
{ACAD_REACTORS
330
41
102
}
330
41
100
AcDbXrecord
280
     1
270
     1
271
     1
  0
XRECORD
  5
44
102
{ACAD_REACTORS
330
41
102
}
330
41
100
AcDbXrecord
280
     1
270
     1
271
     1
  0
XRECORD
  5
45
102
{ACAD_REACTORS
330
41
102
}
330
41
100
AcDbXrecord
280
     1
270
     1
271
     1
  0
XRECORD
  5
46
102
{ACAD_REACTORS
330
41
102
}
330
41
100
AcDbXrecord
280
     1
270
     1
271
     1
  0
XRECORD
  5
47
102
{ACAD_REACTORS
330
41
102
}
330
41
100
AcDbXrecord
280
     1
270
     1
271
     1
  0
XRECORD
  5
3A
102
{ACAD_REACTORS
330
39
102
}
330
39
100
AcDbXrecord
280
     1
270
     1
271
     1
  0
XRECORD
  5
3B
102
{ACAD_REACTORS
330
39
102
}
330
39
100
AcDbXrecord
280
     1
270
     1
271
     1
  0
XRECORD
  5
3C
102
{ACAD_REACTORS
330
39
102
}
330
39
100
AcDbXrecord
280
     1
270
     1
271
     1
  0
XRECORD
  5
3D
102
{ACAD_REACTORS
330
39
102
}
330
39
100
AcDbXrecord
280
     1
270
     1
271
     1
  0
XRECORD
  5
3E
102
{ACAD_REACTORS
330
39
102
}
330
39
100
AcDbXrecord
280
     1
270
     1
271
     1
  0
XRECORD
  5
3F
102
{ACAD_REACTORS
330
39
102
}
330
39
100
AcDbXrecord
280
     1
270
     1
271
     1
  0
XRECORD
  5
D
102
{ACAD_REACTORS
330
C
102
}
330
C
100
AcDbXrecord
280
     1
270
     1
271
     1
  0
XRECORD
  5
E
102
{ACAD_REACTORS
330
C
102
}
330
C
100
AcDbXrecord
280
     1
270
     1
271
     1
  0
XRECORD
  5
F
102
{ACAD_REACTORS
330
C
102
}
330
C
100
AcDbXrecord
280
     1
 70
     1
 90
1959938040
 71
     1
  1
F44A0810-B26C-4682-979A-DA08BE24BBD2
311
504B03041400060808005A6C9D44BD36FA00D9000000200100004F00000035443431313144412D313443312D343944382D423034412D3434423737383344373845342F4173736574446174612F446566696E6974696F6E4974657261746F7250726F706572746965732E62696E454E3D6FC23010351D5A75E8D07F80D85DC7
311
8E8BEA08A8680C4C65A15317743807447212142752C78EFDD7AD4F5071D2BB779FEFEE8731F67BB118B241C477F40F915758635BBA8D3B6205EC962ABED981BFBBF66E6248A9C53DF4BEA3ADF73238F41E6A6CFAF0781D1D56D04539F04FB4741FF15F08A470381FA3FBEB087A89188A53F60A21603715FBDD9730726E9559
311
18AE749E729D5BCBE732513C1FDBB1B17A295F166FA2C5D0F4ADC3209448B617E5EDA93E94C56CD295150E6BA8703A722DC69F8AD14C2552F34473653E649AA53A7B569F1341937F504B03041400060808005A6C9D448CF4DB661C010000300200004500000035443431313144412D313443312D343944382D423034412D34
311
34423737383344373845342F4173736574446174612F496E7374616E636550726F706572746965732E62696E6D51BB4E844014BD3E121B35FB09165BACC52430CCB24B050C0F1BB316B4360430BB89A241CCC68ED2CEEFB1F51BFC003F81C65ACFB02CAC616F72EF39F7CC393309BC11D16F5BA07480AE30CF8057599E15AB
311
244A96D9433C86100AE16A735D63929B1E13E69C336B66B9CC872A032EA4F4F9491F541143177EC0A7169B0A6120C2752643E9337D66689EE979961B58B035EFD2E5EDFBE7CFE4CB061E42ABD0DBBD41ECA8DADEB889460E8D1AA91963A7E77B19829BEAC85E1BC4CE501F61ABD06DF4BBC55348C352DFB13FE92E1918D30F
311
67A0FD13865175F564C753DBC7D8D4DF3A4747EBB84C964C16719E66A93AF129A3674AA8A0153D5189F948395D5004BD042E806BE00D989A21DD013DB8EED1C50E7F69B66BA45E71D31F504B03041400060808005A6C9D4428BB58AF800100009E0500003D00000035443431313144412D313443312D343944382D42303441
311
2D3434423737383344373845342F536368656D61732F436F6D6D6F6E536368656D612E786D6CBD544D4FC23018BEFB2B96DE15493C78601010A34B880709DEDFB52FD0D8B54BD70DF6EFED3AC0B12E6442E2716BFB3CEFF3D18E26FB440405EA8C2B1992E1C323095052C5B8DC842437EBFB673219DF8DA659866649B798C0
311
78B48AE6410122242F2A4994AC7F93815DF85C049C8564CA0A901499DD886B2EB9B1E02448F358701A9235880C49A0119892A20C89D1B9FD768815CAD268CB5E0355B40B1E47F3E37A2020464BED06AA57CE8FCC20C3C3446D46761A2632A8C1283D07031EFF2AE7CCB1BFEEE916E406DFAC8E36FFD99A9D60A6944090EEDC
311
3B670C7DC13DE86B6B2C5C240D6E503BB85ACD579D513F1B9F9A69DC9CC22AFA80C426D40AF0B21EA168559156B6276F0F726A6BFF04DCD513A87A62CAD41FB24FCB2858B3952E3D852084DA25B9303C15687973CC8E8AAE11DF2836C38C6A9E765E8C1BA1BFB1DC29CDFE518C8B5A7655A4ED7E77291ABEB80DBD82EC866A
311
DE1B8D05AF9E35CF09D7A061F38A986D9EC412B8F0F65E5D81534D9B231D1E5A8FE577A241F3A5FD01504B03041400060808005A6C9D442CCEBD668A040000E01200003E00000035443431313144412D313443312D343944382D423034412D3434423737383344373845342F536368656D61732F47656E6572696353636865
311
6D612E786D6CD5586D6FDB380CFE7EBF42F0F7A649B70E1B90744856B4970F450FCD7A5F05459613EDE4174872DADCAF3F522F8ED3B88D2F1D06AC4050DBA2493EE4438AF2F8EB73AEC8466823CB62928C06C384888297A92C5693A4B6D9D9E7E4EBD51FE3A931C22EF85AE4EC6AFC38BF261BA626C9AD288496DC3F4FCEAF
311
C63366845F7A10452AF41DB320C0D44EC26EAB20918735565582695670811A6A49643A49A6E9069FA4604A64B29016DC4B48552F95E4932463CA888468C1D2B250DB4962750DF7CE273069CE8363F1FF4EDB00E0A21999574AE4A2B00C353B93F3BD4777B8A61ED8F604ABFEDD79CE56A2B7BDFBDBC50996E0ADDE16FED262
311
23C5D30956C29BDF4A55EA686E5E58B112DA45CE67F76F4FA27EFA3FB672FD7372FC388FAECDCA5209E693CAD167BADCD272F943701B3812F8A3D852008B1D2E32DB927B2F833C6EA95879925356D254582695095A3CE982924720BE5774A3CB9CDCDB350427D2DF20DA1B5532EBE2D5D6288D75D4F7E4FD9890A0EF8E3D93
311
EBB8F8BA4758158EF6FB90A6F9520281C93DE7AAC6D24607DA296BB96018123F821A7D6A5C5884050C475DA4865442732C8B95684A50165CBB3A32F25F783A4A480ED59AD7F924B968AEA50131F46303223E6A397B0E52976030DC1DCA81D7E7C1EDEEA42C19FF27635C505E2BD5198A599020DF50A2330FCB3AAF28CB0124
311
108429553EF1B228802E2265D8F7CC2401042B155BCC7070F1E5C55F13B4A9577362CCCE46C32174E010C3C378C44841A4BDA00FE3A12006CE11EE6AEC59894D3526DDE1CD59D503ECC324017F8061B7F162162FA62EDD81AE3308617770796DCBDAD2B2625C5AE8A63DE20B2C8AA5E95E76E5730823955956E33E705425A2
311
187C185D36489A1B44D3DCEC2172F6BA2105C3546287A7194B2331768EBBE64F6E70A9930ABE0ADEA89E9E2C38523B810287AD67A54A039C1606EAFE68F8304610BB9093DBDDABC0B2AE4E290DCDA15376D7E39F72B556F0B32EAB5D3D498B4C41ABADEC3A1434C422D87E8025A84BDCB2B1417ED750FAE4DA8976863974C5
311
77C7F902D3F156AD354DEA3540DE6BEAE2BEA52F7A2EB4CA43802ECE5BF2CE2EDC9347179FFB023CE412E60BE16DA0BE29B374988A553F561DC04615DD35F7D2C8979F60E5955CE93DF29DED8AFA1EE6642D53418086C03C47C377910F75F7E8F5EF665F70B60FFB22AEDF897D119E8423C773E819A3C1E55E550599EE6EDC
311
A34D0C86FD72057DF2CD46F16A470682471C164E4346D5306BF12D7D12D82CFF673D41636C347443FEB51B50D72EA171A8E4A58623A4A16E0FA2B8B10A0D23268D87C33896EE8FB73305A74BF224EDBADFA0BD674AB354D63DB7BD5D83426761C077DE767728235446A552754EB93B755891C3C4CC6CADE37CF0E912A7BB38
311
DBA010F9DE1282EDF470CA69A9CDA482E334C4A6EA4107987980B17E72F31730EBF88BBD39E7C629F56797A3C0009C2C5AE7951D9A05A02773440F02EEB4DE396A3B6A570C72CCFBCD823B0B8ED3F1D5CEDDFED772FA70236C83FB7D86C385D570B87107535572A60A96035F8F7C6A7192F13007246BBE0521855E6AC46F3E
311
27689CEE7D186A6FD679D98CDCAD13333E04EBE7ED6F55FF01504B03041400060808005A6C9D446180134D5F0100006B0300004500000035443431313144412D313443312D343944382D423034412D3434423737383344373845342F536368656D61732F52656E6465724D6174657269616C536368656D612E786D6CA5934D
311
6FC2300C86EFFB1551EEE343DBA41D1A103009551ADAD40EAE28A4A68D9426284961FCFBE5A340113B2071746D3F765EBF4DC6BFB5407BD0862B49F0B037C0082453059725C18DDD3EBFE3F1E829991803366715D474942CD30FB4A782E00C64017A412D684E454CE3FE28995203B162A6EA5AC94B66997D225E109CD63B01
311
35484BAD1B3C07E9080CA35DB3119C11BCA5C200461A68A1A438126C75E3E230D40FF81FB3F03C91D1E3A3A0AF79FE28E25BC39EC3E17E4C2A2D94A0833A51AF55BCCA7D88572FCBAC529C4140B020FC3AAFA886621DCED7EAD7664CC86024E806DC297DA1BB393E4156543457A4537DB8817349A70F8ACBF09B3EEE2CB2F3
311
3E91B65D60786E4E3B39B77E3FEEEF5650424525DA657FB8B46BE6BF064646F0A0F7327C0BC1BC1B4CBBC1C419FA3CCB23500007872A2580CAAE5461865565294E4EDB4617B62FF579DF9A5B2F54E834076A597573A020912FED777F9B3F504B03041400060808005A6C9D4413AAFB614F0000005700000047000000354434
311
31313144412D313443312D343944382D423034412D3434423737383344373845342F4173736574446174612F41737365745461626C654F66436F6E74656E74732E62696E536160607033317134B03034D075323273D63531B330D2B534B774D475018A3AB91A993839B9180901D5E52696A4166526E6241614A4261625E625
311
A70205C1801748BAA7E601659383933352731301504B03041400060808005A6C9D44F865834058000000680000004500000035443431313144412D313443312D343944382D423034412D3434423737383344373845342F4173736574446174612F53747265616D56657273696F6E5461626C652E696E66558CBD0A80300C06
311
F73E4B117FB66E451741D041DC5BF98480A492E4FDD18EAEC7DD4555D89EF28DF51A0B1BD8340C4DE7DD848B988C0ACF0649566493F2408C508DDEBB99D5129FF8F1AF8CF5B9503E20FAE5A16B5AF702504B03041400060808005A6C9D44D34D23E9350100009A0400003600000035443431313144412D313443312D343944
311
382D423034412D3434423737383344373845342F4173736574446174612F636E782E786D6CCD94314FC3301085FF4AE43D769216092AC71582A51348540C6C57E752AC3A76645F10FC7BEC3603A888A943D7F3BBF3F327BF93EBCFC1161F18A2F1AE6535AF58814EFBCEB87DCB26EACB5B56AC950CDED30F192B1C0CD8B25C
311
664AEE839FC6B9D4610F93CD556BDC612EDEC788B4859DC5A7FEC13B42479115DA428C2D8BFA1D07E03091EF301E780704BCE601A39F82C63489CC80F3241D10083BA69AAA5E96D5B26CEEB6F562B558AE6E9A3729B252C99DF776D69B7459F063A14FB7325549918F959C829935F92D4CFDE591EF8C932229958C141293B9
311
83BEC6D401E3688D064AE884D784542611C220C549ACA4C80C7E9178C4DE38935B36C918900FCFC91E0632787544FEF37A79321B17099CC6EBE571EEF0F2145E8E3FE8F514C86362AE2D27E70EB971FD0552228E6B2485266F15F50D504B03041400060808005A6C9D44E965D292090100004F030000340000003544343131
311
3144412D313443312D343944382D423034412D3434423737383344373845342F536368656D61732F636E782E786D6CCD93BD4E042114855F6542BF30333B26BA61D8C2C2CA46ADEC10EEAE64813BE1C7E8DB0B23C56E62A7C57670F842CE395CF8FED3D9EE034234E86732D09E74E0156AE38F33C9E9B0B925DD5EF08098CE
311
30D279E960265526821F03E6A5491A0E32DBAA5AE34F4DBC47E7D03FAB77709274CACA186712D72D9539A18678A25A2649071A20620E0ACA0DC9386837A80032812662EC8769D34F9BF1EE65D8EEB6D3EE667CE5AC9282BF21DAC61B9F20E0D2292C0B5FECF49CD563C173308DA9198838F7464B1B9C1542F09842E9A091E9
311
6B29A45C166B944CA52AB6823F8CE0AC46BD08FC001E8251D799F8C2DCBF457E02AF213C96570A46DAEB4CFE9BC7BF15C0D6D92F2350BF82F806504B03041400060808005A6C9D44410A3D5871000000A40000002C00000035443431313144412D313443312D343944382D423034412D3434423737383344373845342F636E
311
782E786D6C55CC4D0E82301086E1AB34B31774E7A22D31F1069E60020334B633A63FC6E34B0909B07DDE2F9FEE7EC1AB2FC5E4840DDC9A2B28E25E06C7938192C7CB1D54677514C9871928C640062A83D55394F2D968A0118BAFEA1DBF377CA444F98919176EAB9FEAAB9F2960DA5BBB1E2ED3FA6FFF504B03041400060808
311
005A6C9D44F74C325A7D000000A300000007000000636E782E786D6C4D8C510BC2201446FF8ADC776B976E68A08E2DFB21A3B9216D1A36A39F9FC61E7AFAE0F09DA3DACFBAB0B74B2F1F83063C34C05CB8C7D1875943DE262E81B546A518B7BF1BB030AC4E43C560D49C627EEE6874D390974A171F1E3B3C5B4244DB71A42B
311
72BA58C9FB863A4ED40B214F56C81B15E3589532BF5ED99A375F504B03041400060808005A6C9D4416E99B5DA600000035010000130000005B436F6E74656E745F54797065735D2E786D6C9590410E82301045AFD2740F4517C6180A0BF5065E60AC53688469D30E066F6F91AD9AB89CF9FFFD3F99BA9DC7413C3026E749CB
311
4D59498164FCCD51A7E5C4B6D84BD136F5E5193089ECA5A465CF1C0E4A25D3E308A9F401292BD6C711388FB15301CC1D3A54DBAADA29E38991B8E0254336F5092D4C038BF39CD76B6FC6A538AEBEA54A4B08617006389FA516557DE4AE8E7E70DE30729138228C5F021CD93F02D4FB0DCD0B504B03041400060808005A6C9D
311
443DEE336E64000000790000001B0000006175746F6465736B2D64657369676E2D7061636B6167652E786D6C35CBC10E83200C00D05F21DCA56CA76D41FC96062B120735B69A7DBE268BB7777961F8D5AF396893C2ADB70FE7ADA196782C2DF776D7A97B5933C430F15651E5469C55D70F80A4992A3ADC954792C525AE70A1
311
E4D6AD9816CC044FEFDF01FE3FDE907802504B03041400060808005A6C9D44E7F3CE6AF8000000960100003700000035443431313144412D313443312D343944382D423034412D3434423737383344373845342F4173736574446174612F636F72652E786D6C8550CB6E833010FC15B477F38684C8382A02BEA0A7DE2CDB21
311
56828DFCA8FAF9B50395DA534FBB9A9D99DD1D7CFD5A9FC9A730566AD54391E69008C534976AE9C1BB1B3A437225D868ED7ED1205174153D4418085E8CF6DB0131AD9C5011559A8B03A4D60A07097B86A607CBEE62A529F52E30EC23DD287BD045A445BAF308F65EF2432A79709337290C90A199A6763ECDA83D3739AABBBC
311
46433BB5681CEA7CEABA711E4E0DCEA2986027D79FEDCC08EA040752E6458D82A8ECDE8BEA52D597A6FCC05964126C9D093F1F4BE37740DEE2D523751467FBF48FABDFF8FFAE5E2A579587EBAEB0408A70E46B407016530AE51561A83151F20D504B03041400060808005A6C9D447A155802F6000000940100003500000035
311
443431313144412D313443312D343944382D423034412D3434423737383344373845342F536368656D61732F636F72652E786D6C8550CB6E833010FC15B477F38684C838120AFC407BEACDB21D6225D8C88FAA9F5F1BA8D49E7ADAD5ECCCECEEE0EBD7F24A3E85B152AB1E8A34874428A6B954730FDEDDD119922BC1466BF7
311
8B0689A28BE821C240F06CB45F0F8869E5848AA8D25C1C20B5563848D82B343D58F6100B4DA97781619FE94AD993CE222DD29D47B0F7921F52C9839BBC4B61800CCD38B6D36942EDB9C951DDE5351ADAB145B7A1CEC7AEBB4DC3A9C1591413ECE4F2B39D19419DE040CABCA8511095DD7B515DAAFAD2941F388B4C82AD33E1
311
E76369FC0EC8DB76A7C5D93EFBE3E957FEBFA797CA55E5E1B92B2C90229CB80D08CE6246A16C01861AF324DF504B03041400060808005A6C9D44A70A468100010000D70100002D00000035443431313144412D313443312D343944382D423034412D3434423737383344373845342F636F72652E786D6C95914D6EC3201085
311
AF82D8631B9B284E848992BA37E8AA3B0A131725068B9FAAC72FD4AEDAEEDA15E8F1BD19DE0C3FBDCF77F4063E1867074CAB0623B0CA6963A701A778253D4627C1BD73F107869195330CB8C858F0C9BBB46C927236822DAA751A36518600112375CF970107F50AB3AC648A9908B76A91EA2627A868B5728247337F59950719
311
4163D13694918691F6F044BB63C78EBBF699D785143C191BBB766B06F30B68E496982361B1E3F5FA9AA964F4C6189DFF68AE067C264646291DCF84B2074AD861ECC9A56167C2D865BFEFBB71DF3FB25C249B050FD1E7C96C45CA0CFE6A5F8DBF92A545FF33D9EA0858D0EF507519B3E0F5E70EF25956223E00504B03041400
311
060808005A6C9D442DF2EEBA06010000B201000008000000636F72652E786D6C8D50CB6EC32010FC15B4776CFC4C1C612259B1BFA0A7DEA8210E8A0D9681A8FDFB42E24AEDADA745F3D819969E3F97193DE46695D12D64090124F56884D2530BDE5DF111D099D1CD18F74B0648F345B610616074DA8C5F776834DA491D516D
311
84DC416EAD7480C6393C5AB0E34D2E3CE1DE0585BD272B1FEF7C924996BC748C3AB5FC58C74D722705B09C64252625CE9BB7AC3815E5A9CADF691A958C7AAFC41EA5444857572537605DD5F7F57018707DAC082E9BE0EEEABEC697AE247DD35C86EE50D1349A19B56E0B7FDE97849E0E59FE88B9347D518C7E1833EF82504A
311
20A3E72F6084A691F853DAAFE21FA5957645BE2F7C392CB02C147A1221385E308CE779C38CD766DF504B010214001400060808005A6C9D44BD36FA00D9000000200100004F000000000000000000000000000000000035443431313144412D313443312D343944382D423034412D3434423737383344373845342F41737365
311
74446174612F446566696E6974696F6E4974657261746F7250726F706572746965732E62696E504B010214001400060808005A6C9D448CF4DB661C0100003002000045000000000000000000000000004601000035443431313144412D313443312D343944382D423034412D3434423737383344373845342F417373657444
311
6174612F496E7374616E636550726F706572746965732E62696E504B010214001400060808005A6C9D4428BB58AF800100009E0500003D00000000000000000000000000C502000035443431313144412D313443312D343944382D423034412D3434423737383344373845342F536368656D61732F436F6D6D6F6E53636865
311
6D612E786D6C504B010214001400060808005A6C9D442CCEBD668A040000E01200003E00000000000000000000000000A004000035443431313144412D313443312D343944382D423034412D3434423737383344373845342F536368656D61732F47656E65726963536368656D612E786D6C504B010214001400060808005A
311
6C9D446180134D5F0100006B03000045000000000000000000000000008609000035443431313144412D313443312D343944382D423034412D3434423737383344373845342F536368656D61732F52656E6465724D6174657269616C536368656D612E786D6C504B010214001400060808005A6C9D4413AAFB614F00000057
311
0000004700000000000000000000000000480B000035443431313144412D313443312D343944382D423034412D3434423737383344373845342F4173736574446174612F41737365745461626C654F66436F6E74656E74732E62696E504B010214001400060808005A6C9D44F8658340580000006800000045000000000000
311
00000000000000FC0B000035443431313144412D313443312D343944382D423034412D3434423737383344373845342F4173736574446174612F53747265616D56657273696F6E5461626C652E696E66504B010214001400060808005A6C9D44D34D23E9350100009A0400003600000000000000000000000000B70C000035
311
443431313144412D313443312D343944382D423034412D3434423737383344373845342F4173736574446174612F636E782E786D6C504B010214001400060808005A6C9D44E965D292090100004F0300003400000000000000000000000000400E000035443431313144412D313443312D343944382D423034412D34344237
311
37383344373845342F536368656D61732F636E782E786D6C504B010214001400060808005A6C9D44410A3D5871000000A40000002C000000000000000000000000009B0F000035443431313144412D313443312D343944382D423034412D3434423737383344373845342F636E782E786D6C504B010214001400060808005A
311
6C9D44F74C325A7D000000A3000000070000000000000000000000000056100000636E782E786D6C504B010214001400060808005A6C9D4416E99B5DA6000000350100001300000000000000000000000000F81000005B436F6E74656E745F54797065735D2E786D6C504B010214001400060808005A6C9D443DEE336E6400
311
0000790000001B00000000000000000000000000CF1100006175746F6465736B2D64657369676E2D7061636B6167652E786D6C504B010214001400060808005A6C9D44E7F3CE6AF80000009601000037000000000000000000000000006C12000035443431313144412D313443312D343944382D423034412D343442373738
311
3344373845342F4173736574446174612F636F72652E786D6C504B010214001400060808005A6C9D447A155802F6000000940100003500000000000000000000000000B913000035443431313144412D313443312D343944382D423034412D3434423737383344373845342F536368656D61732F636F72652E786D6C504B01
311
0214001400060808005A6C9D44A70A468100010000D70100002D000000000000000000000000000215000035443431313144412D313443312D343944382D423034412D3434423737383344373845342F636F72652E786D6C504B010214001400060808005A6C9D442DF2EEBA06010000B20100000800000000000000000000
311
0000004D160000636F72652E786D6C504B050600000000110011005A060000791700000000
310
504B03041400060808005A6C9D44000000000000000000000000370000006662782F35363344393546352D313032422D343036372D383739342D4637453330393130443936392F617474726962757465732E62696E504B03041400060808005A6C9D44000000000000000000000000350000006662782F3536334439354635
310
2D313032422D343036372D383739342D4637453330393130443936392F76657274696365732E62696E504B03041400060808005A6C9D44F270F1330600000004000000360000006662782F35363344393546352D313032422D343036372D383739342D4637453330393130443936392F747269616E676C65732E62696E6366
310
60600000504B03041400060808005A6C9D4451464CB48900000043010000360000006662782F35363344393546352D313032422D343036372D383739342D4637453330393130443936392F6469726563746F72792E786D6C9D8F310EC2300C45AF127987122606C71DD918B841D4B851A43646695A717C52A85029031293A5
310
A76FBF6FACEF7DA7264E43906840EF0FA03836E242F406C6DCEE4EA06AC22492573150D1F66C60C640E8938CB705396EEDD86DE9B5042FE27813D640EA63BB001C722AF6E55CB61E4863F58284D5D3F53DD715CE1C3985E63FD7F1B7EBDD617E9F1E504B03041400060808005A6C9D44D2B1F83536070000201C0000340000
310
006662782F35363344393546352D313032422D343036372D383739342D4637453330393130443936392F6F626A656374732E786D6CDD59DB6EDB3810FD1542FBB2FB60DD7CA95D282E7C490AA3485BD4E862DF045AA61D6E74032925CE7EFD0E29529664D956B22D506C0A340E4D0D67CECC9C198EBC0F8728444F84719AC4
310
378663DA062271906C69BCBF31F26CD71B1BE8C314792C49B2CA3E03C5382237865836A6DE9E2579AA96B66487F3B0B97A37FF0BF180C4C440418839BF3178F040226CE23C4BB6843F9A5B9C6173BF3B988E596CAC8BDD339C3E348E4A31237106AAC27A0C5294064EFD4F30C99A7A96D850DBE676DBD6BFB0CD9286D715A5
310
31CF701C9C68D590E376D3AAEF0C96B7EE70D21B0E06FDDE60E43ABDF9DD7CD973DEF5EDC568B198CC6E27069A7A9B24094B07A424DE82175F8CA9E359E29BD27C85429BDE4112C7245068B66DD812259712DEC4A406AC234DAB38A4B0B5B2D0EF68FC996D9D40A9A954435B1BA77F57A337D9FC0D20F02E51CA381151CE33
310
06BE56D817F9607B56B15AF30BE528C21961148728A41B86193808B6160EAA8911D92244218199F4A29657D51502FB7A2EB569B9CBC350E4AF319599E6433E928C4BCDE83F841DB5AF9E063A81B5398DB3B132367B4941C4C4B3E462F15DDF555F1640A25D88F7102D60A6D8D4771B782D0417AC96C6F4D3DDE6B016FCD07E
310
78CA9294B04C449E4C669577DA8395D082E0EB004A816BDD774754BE01F49F01F95217E481E7183D0C0E036D3BC331DF252C02EF201BF56CF8CF46E2E3C927CF2A1F9E2254E3CA739842DAFE204C6B66D4CEAE403AF59E20E813D657C6AD031C424CDFD358E439040A0A135802BEDF6D0EC67405640A8BF0140EC17AF8E759
310
E223825F851CE09B8687DAE8B783A374C234F3ECE8AB8F10338C06A5AB6A369EC377F843F09D2DD79FD639DBE180DCABC45E921D8D6906C5B45DA11AE8B594FFBEFA2C33F2C49EDAAE00CED92782385AFCB2567E41D231A08AA8C3856BE4CA3D85740F431C9324E76ABD8DA882244C98BF79F18B1C6E3DEB4F1D04C56190DF
310
22025AC90CAA7BC0682A4031A6CABC9209CD234E82075500EE0BA7FA1B1C3C0A78FD0018EB2D7A40D462D6149A47A98FA3248F057D9F8677D334B36FCB1FC799B8F6C41D4F46DA582EC5EBECD1D4502A2FCE89707AE69045CD5B8A35B4E4228F06C0966D1604D033E5999FA438A0597B2C348C50190A605F54794B77BB9C03
310
A9B7C2D2D0D8EC3B436457FE2F0FB9ACBD3AC4A711DE137F8745856B3DAF0650295C5BD08ACC3E4C38A731E1B2433961AE062AB6094450C4AD96DA128494FB11C9F05BE24F96BC46F831B20B7DE8A532D1CD5E8F3EADA0AA9EE7248ACE2D897D69FF8BCF7194864597760D03C76D9CD08AAB505A1CF104F1E6E3CCB7B74436
310
DDD7A497BCA0F1ED247DF266F167E061F8A7C3A38FA0D07A438DBCEE59C71C3A13F1330652190D9DFE3BED886B58E9A332D1838439744DC18BFF4CE8FEA11BA1753A879370E7D330CC23BFA8071989A005C359CE3AE5EB68689F385FF14223212A27ED68080D7267D294BD87EE3EC02AD97C9C23CDCA3160148DE18ED6C990
310
132B5A4358FA42DE47C5B5EBBAF75F2FF53FF365F59EF2485E9E13B66DD5B4DE46E80E4C370C822E55852BE3484A9E7AD5E48BE4C5E53A0E032D44F15B714B5011C2C81315830979036ABD3FF0679C0540A46BF9BB37878CD892EDB1A7A88953630E630A876A69BA4FADDE7480EC44F9A8355E2B41A8114C1BB0E0D97BF121
310
FC86C1D5D0F9714B753556B1BE1285CD84C1CA518F0BB2BE7C5C37A4C04AE7A7BF0A8CC87343825A5D8846EE82A8EFAB63BFDA90A02CFABEBAF078F690479B185351194558E06DFAFE83BC4BDE587051B026CE6CE94E6E273D77B080D9C562B9ECCD1CDBED2D46CBD16439B873C6B7738B119EE42C20DC722DDBD7BD531AEF
310
756014D075B951C054E1FAD54FC773D3C1FFE31B45986CF0B958FC552F1465BB271AB2462E76BD50B412F5E675DDBF7342D4ED45EC559D73312BD0017EB96C0119E97ADFBDB5D0A27527D1AE73A522BEB2F09EBDADFCF41A5323F4D6FA50DBD146F9752E86D9534B95D2B75BC96B7783C1CC1E3B766FEE8E1630831DBBBDC9
310
BBC9ACB784D5F9AD3B98CF976513DD64AB6B75E597E0505D042B63349806F324A43094275BB42709DC8060EAD0815F5944B8BCD94003A0CAB87E23D0E1E9A762A69AE14DA89F0E1E300CA6435591F30086A270EBB831D43AFA0DC6A06212298753E623141E15ED06CA19BD312004320AF5C5DCC0384B0E0FA5F4C6B8120217
310
C77B71672A9E2AFF3E3E26D0815839DA55EEE9828BB2AC169D301C48E57B02603BDD90BCDD74AD0EC2197CDCE45969CC71E1688D0241BF10288C83A9DFA382F700C473D92EC7947B6A90749ACC5F8C83426A2FC36C2FC7EB15BC67CBAF96988CAFBEA034CCF7C29D97EA7D4D524FF419615E0CA13C080C65668AC53D7CF1DE
310
FACA1278C514A13B0A41807E3F8C477F588B248A92B858B266EA45155A3FC06BA7ADA5477ED0B8D8CED0927D8F1AEBC3DC8A13136FF9232C806B1915B3D102E25A0094F4540900ED11E10B78ACB67FB544AA08545AD82AC50878E44C1F4122897739226DAA1B2A0348C805D04A7E79FCA0173C8BC1107CFA2F504B03041400
310
060808005A6C9D4469AD3A343F01000046050000300000006662782F35363344393546352D313032422D343036372D383739342D4637453330393130443936392F636E782E786D6CCD944D4EC3301085AF12791FE7A74582CA7125169C800562E738D360EA78227B82E8EDB14B5A40A88845A576678DDF48EF9B791AB17E1F
310
6CF6063E18740DAB78C932701A3BE3FA864DB4C96F59B696C223D23719CB9C1AA061A9CCA4E83D4EE35CEA60A3269BAAD6B8ED5C5444DEB413416099B62A848605FD0283E26A22EC206C79A748F18A7B0838790DB19FCC0073BFF6A0083A26EBB25AE6E532AFEF1EABC56AB15CDDD4CFA2484A295A443BEB8D23F038661AE3
310
C34533A528D2B7149337B3261130F9E58CB7C68922FE4B11A25BD7CF3ADA8D49378ED66845714C056A02CAA308D4208A4FB11445E2FD41FD70FF74709075C68326F4BB0B0DA03A3580A3311E93F03FFEBDF06F6C6C5F23EEA5B67D1276B67536D4435A438CEBEFFDC71429D7DBEB0BFDD1D8F9331F4F09197D7DC8075F6722
310
2EF6272F2E3D5D40F901504B03041400060808005A6C9D44B44C81B57E000000A30000000B0000006662782F636E782E786D6C4D8CD10AC22018465F45FE7B4BDBD409EA20D6DE63343724A761337AFC3476D1D50787EF1CD57F368FDE36BD5C0C1AE88900B2E11E6717560D795F7007A8372AC5B8FFDD008569B31A2A06A3
310
D614F3F340B35DA6EC2BF52E3C0EC878334836324CC9E58A5BC205EE846CF1286E0D91940C92CB629CAB52E6D72B5BF3E60B504B03041400060808005A6C9D44A6D797065F0000008200000007000000636E782E786D6C4DCB3B0E80201045D1AD90E9FD7516806B51190811670C8A61F982B1B0BAC9C97B72CA7B1037C6D3
310
332918DA1E04D2CAC69353902EDB8C20262D23F3F59B81A079470595414B17391D1F19B4730A5583A7ED43BBE4025D9592775E5ADFFA01504B03041400060808005A6C9D444FEB6A7CA0000000F4000000130000005B436F6E74656E745F54797065735D2E786D6C7D8F4B0EC2300C44AF1279DFA6B0400835ED02B8011730
310
C16D239A8F121795DB93D02D6269CFBC19BBED573B8B17C564BC53B0AB1B10E4B47F18372A5878A88E20FAAEBDBD032591BD2E299898C349CAA427B2986A1FC86565F0D122E7318E32A07EE24872DF3407A9BD63725C71C980AEBDD080CBCCE2BAE6F5D69B7110E7CD57AA146008B3D1C8F92C5954F993BB1BF787F39A89AB
310
C491D09600F9FDA2FB00504B03041400060808005A6C9D443DEE336E64000000790000001B0000006175746F6465736B2D64657369676E2D7061636B6167652E786D6C35CBC10E83200C00D05F21DCA56CA76D41FC96062B120735B69A7DBE268BB7777961F8D5AF396893C2ADB70FE7ADA196782C2DF776D7A97B5933C430
310
F15651E5469C55D70F80A4992A3ADC954792C525AE70A1E4D6AD9816CC044FEFDF01FE3FDE907802504B03041400060808005A6C9D44E0264E04FA000000960100003B0000006662782F35363344393546352D313032422D343036372D383739342D4637453330393130443936392F7265736F75726365732F636F72652E78
310
6D6C8550CB6E833010FC15B477430C46249171441E7C414FBD596643AD043BF2A3EAE7D74EA8D49E7ADAD5ECCCECEEF0C3D7722F3ED1796D4D0FB4DC408146D9499BB98718AE640BC54170676DF84583C2C8057BC830083E3B1B1F2BA4AC0968326AEC842B28BDC70085BAA7A607AF3E7091A58C2131FCAD7C4875933396B4
310
7CF1048F514FAB544FC94D5F353A10DB9176ECC4067219DA96B0D3C8C8D07547B23B1F87533B8E97EE7CE655160B1EF4F2B35D3994012710F58632B261A4DEBDD166DFB07D5BBFF32A3305F7C1A59FD7A5F93B100EBD8D4EA1E7D56BFAC7353EA6FF5DA336A1A957D797C283A0E9C8E740F02AA794CA33C25473A2E21B504B
310
03041400060808005A6C9D44B371068AF1000000B1010000310000006662782F35363344393546352D313032422D343036372D383739342D4637453330393130443936392F636F72652E786D6C8D50CB6EC32010FC156BEFD8E0671C61225569BEA0A7DE10100725068B47D5CF2FC4AED4DE725A343BC3CC0E3D7D2F8FE24B
310
39AFAD998094180A658495DACC13C4704507284E8C3A6BC31F1A14862F6A820C03A3B3B371DD21614D5026A3C64AB583DC7B15A0108FF498C08B9B5A78C963480C7F2F572EEE7C562529371EA3412FBF52E1140F4A02AB3169116E513D7E90E6D8B4C7AEFEA45566321AA396BB9596C95D5FB572C0BABE398FDDA54304D76F
310
A8C5FD800EC3D8A2CBF0DEE091E0F3D88FB4CA62467D70E9E6FD937CDDABF24DF82F735CE50B99B5094DBD1B6E0A0F8CA43CCF05A3552E308D67BB69E6B2D90F504B03041400060808005A6C9D44915F53E054010000DD0200000C0000006662782F636F72652E786D6C8D52DB8E832014FC15C33BDE8AB16D90C65EFC827D
310
DA37AAD425553008A69FBFE025AE0FDBDD98209973CECC9909F8F46A1B6F60AAE7526420F243E03151CA8A8B3A03463FE01E7827829594FA471BF0046D59061C0C08AE9534DD0C955268261C2A64C56690F63DD3C02B1B7BC9405F7EB196FAD468DBD13FFD8E964F5A333FF2A73E828DE1D53CCA2BCBC61F9C2940F64594A2
310
0BCAE12D4F12882E0582799A9EE1E17ACE2F4951DCD2EB15076E9860CDDB45BD548C6A5601128711822182F1E123DA1D77E898C49F38709D04F75A59CFB3A87307C8E3FEC2C1846FF84C57FDCD67B8D0BB78E69B267A4022BBDE58203870F9D8DF18DE36432B6CF3D3F4DE2C169E161A58A9A542B65249B39606DA1866A943
310
6FFC7030552DF348F01B4FFC86E73D870D8A8ADAAE46B5BDDE8D76EADB9D3AA6E0A05F9E90AAA5CDBADCB4E27AAE421B4BCB78291BA9FE33BD585DC20CDCC324DF504B03041400060808005A6C9D442DBAA79008010000B201000008000000636F72652E786D6C8D50CB6EC32010FC15B477FCC472126122C78EBFA0A7DEA8
310
210E8A0D96C151FBF785D895DA5B4F8B66667786A1E7CF69444FB95865740569940092BA3742E9A182D5DDF001D099D1C518F74B0648F349561060607458CC3AEF506FB4933AA0DA08B983DC5AE900F5A37F5460FBBB9C78C457E715F611CDBC7FF0414669B4E918756AFA59ED17C99D14C0B224253821383BBEA5F92927A7
310
227BA7715032BAAE4AEC564A78777553720176E8D29234A4C6D7BA2830693A82EBB2BCE0637BA99BA2EBAE65DBD2382C336ADDE2FFBC1FF1391DB2FC197C69BC518C7E1833EE021F4A20A3C72F60098D03F127F43A8B7F8456DAE5D97E70DBB0C0521FE84578E3D0A01FAF7AFD0C6DB36F504B010214001400060808005A6C
310
9D440000000000000000000000003700000000000000000000000000000000006662782F35363344393546352D313032422D343036372D383739342D4637453330393130443936392F617474726962757465732E62696E504B010214001400060808005A6C9D44000000000000000000000000350000000000000000000000
310
0000550000006662782F35363344393546352D313032422D343036372D383739342D4637453330393130443936392F76657274696365732E62696E504B010214001400060808005A6C9D44F270F13306000000040000003600000000000000000000000000A80000006662782F35363344393546352D313032422D34303637
310
2D383739342D4637453330393130443936392F747269616E676C65732E62696E504B010214001400060808005A6C9D4451464CB489000000430100003600000000000000000000000000020100006662782F35363344393546352D313032422D343036372D383739342D4637453330393130443936392F6469726563746F72
310
792E786D6C504B010214001400060808005A6C9D44D2B1F83536070000201C00003400000000000000000000000000DF0100006662782F35363344393546352D313032422D343036372D383739342D4637453330393130443936392F6F626A656374732E786D6C504B010214001400060808005A6C9D4469AD3A343F010000
310
460500003000000000000000000000000000670900006662782F35363344393546352D313032422D343036372D383739342D4637453330393130443936392F636E782E786D6C504B010214001400060808005A6C9D44B44C81B57E000000A30000000B00000000000000000000000000F40A00006662782F636E782E786D6C
310
504B010214001400060808005A6C9D44A6D797065F0000008200000007000000000000000000000000009B0B0000636E782E786D6C504B010214001400060808005A6C9D444FEB6A7CA0000000F400000013000000000000000000000000001F0C00005B436F6E74656E745F54797065735D2E786D6C504B01021400140006
310
0808005A6C9D443DEE336E64000000790000001B00000000000000000000000000F00C00006175746F6465736B2D64657369676E2D7061636B6167652E786D6C504B010214001400060808005A6C9D44E0264E04FA000000960100003B000000000000000000000000008D0D00006662782F35363344393546352D31303242
310
2D343036372D383739342D4637453330393130443936392F7265736F75726365732F636F72652E786D6C504B010214001400060808005A6C9D44B371068AF1000000B10100003100000000000000000000000000E00E00006662782F35363344393546352D313032422D343036372D383739342D4637453330393130443936
310
392F636F72652E786D6C504B010214001400060808005A6C9D44915F53E054010000DD0200000C00000000000000000000000000201000006662782F636F72652E786D6C504B010214001400060808005A6C9D442DBAA79008010000B201000008000000000000000000000000009E110000636F72652E786D6C504B050600
310
0000000E000E0080040000CC1200000000
  0
XRECORD
  5
10
102
{ACAD_REACTORS
330
C
102
}
330
C
100
AcDbXrecord
280
     1
270
     1
271
     1
  0
XRECORD
  5
11
102
{ACAD_REACTORS
330
C
102
}
330
C
100
AcDbXrecord
280
     1
270
     1
271
     1
  0
XRECORD
  5
12
102
{ACAD_REACTORS
330
C
102
}
330
C
100
AcDbXrecord
280
     1
270
     1
271
     1
  0
XRECORD
  5
13
102
{ACAD_REACTORS
330
C
102
}
330
C
100
AcDbXrecord
280
     1
270
     1
271
     1
  0
CELLSTYLEMAP
  5
3C4
102
{ACAD_REACTORS
330
3C3
102
}
330
3C3
100
AcDbCellStyleMap
 90
        3
300
CELLSTYLE
  1
TABLEFORMAT_BEGIN
 90
        5
170
     1
 91
        0
 92
    32768
 62
   257
 93
        1
300
CONTENTFORMAT
  1
CONTENTFORMAT_BEGIN
 90
        0
 91
        0
 92
      512
 93
        0
300

 40
0.0
140
1.0
 94
        5
 62
     0
340
25
144
0.25
309
CONTENTFORMAT_END
171
     0
 94
        0
309
TABLEFORMAT_END
  1
CELLSTYLE_BEGIN
 90
        1
 91
        1
300
_TITLE
309
CELLSTYLE_END
300
CELLSTYLE
  1
TABLEFORMAT_BEGIN
 90
        5
170
     1
 91
        0
 92
        0
 62
   257
 93
        1
300
CONTENTFORMAT
  1
CONTENTFORMAT_BEGIN
 90
        0
 91
        0
 92
      512
 93
        0
300

 40
0.0
140
1.0
 94
        5
 62
     0
340
25
144
0.18
309
CONTENTFORMAT_END
171
     0
 94
        0
309
TABLEFORMAT_END
  1
CELLSTYLE_BEGIN
 90
        2
 91
        1
300
_HEADER
309
CELLSTYLE_END
300
CELLSTYLE
  1
TABLEFORMAT_BEGIN
 90
        5
170
     1
 91
        0
 92
        0
 62
   257
 93
        1
300
CONTENTFORMAT
  1
CONTENTFORMAT_BEGIN
 90
        0
 91
        0
 92
      512
 93
        0
300

 40
0.0
140
1.0
 94
        2
 62
     0
340
25
144
0.18
309
CONTENTFORMAT_END
171
     0
 94
        0
309
TABLEFORMAT_END
  1
CELLSTYLE_BEGIN
 90
        3
 91
        2
300
_DATA
309
CELLSTYLE_END
  0
XRECORD
  5
3CF
102
{ACAD_REACTORS
330
3CE
102
}
330
3CE
100
AcDbXrecord
280
     1
102
RTVSPost2010Prop28
280
     1
102
RTVSPost2010PropOp28
 70
     1
102
RTVSPost2010Prop29
280
     1
102
RTVSPost2010PropOp29
 70
     1
102
RTVSPost2010Prop30
280
     0
102
RTVSPost2010PropOp30
 70
     1
102
RTVSPost2010Prop31
280
     0
102
RTVSPost2010PropOp31
 70
     1
102
RTVSPost2010Prop32
280
     0
102
RTVSPost2010PropOp32
 70
     1
102
RTVSPost2010Prop33
280
     0
102
RTVSPost2010PropOp33
 70
     1
102
RTVSPost2010Prop34
280
     0
102
RTVSPost2010PropOp34
 70
     1
102
RTVSPost2010Prop35
280
     0
102
RTVSPost2010PropOp35
 70
     1
102
RTVSPost2010Prop36
280
     0
102
RTVSPost2010PropOp36
 70
     1
102
RTVSPost2010Prop37
 90
       50
102
RTVSPost2010PropOp37
 70
     1
102
RTVSPost2010Prop38
140
0.0
102
RTVSPost2010PropOp38
 70
     1
102
RTVSPost2010Prop39
140
1.0
102
RTVSPost2010PropOp39
 70
     1
102
RTVSPost2010Prop40
 90
        0
102
RTVSPost2010PropOp40
 70
     1
102
RTVSPost2010Prop41ColorIndex
 90
       18
102
RTVSPost2010Prop41ColorRGB
 90
        0
102
RTVSPost2010PropOp41
 70
     1
102
RTVSPost2010Prop42
 90
       50
102
RTVSPost2010PropOp42
 70
     1
102
RTVSPost2010Prop43
 90
        3
102
RTVSPost2010PropOp43
 70
     1
102
RTVSPost2010Prop44ColorIndex
 90
        5
102
RTVSPost2010Prop44ColorRGB
 90
      255
102
RTVSPost2010PropOp44
 70
     1
102
RTVSPost2010Prop45
280
     0
102
RTVSPost2010PropOp45
 70
     1
102
RTVSPost2010Prop46
 90
       50
102
RTVSPost2010PropOp46
 70
     1
102
RTVSPost2010Prop47
 90
       50
102
RTVSPost2010PropOp47
 70
     1
102
RTVSPost2010Prop48
 90
       50
102
RTVSPost2010PropOp48
 70
     1
102
RTVSPost2010Prop49
280
     0
102
RTVSPost2010PropOp49
 70
     1
102
RTVSPost2010Prop50
 90
       50
102
RTVSPost2010PropOp50
 70
     1
102
RTVSPost2010Prop51ColorIndex
 90
      256
102
RTVSPost2010Prop51ColorRGB
 90
-16777216
102
RTVSPost2010PropOp51
 70
     0
102
RTVSPost2010Prop52
140
1.0
102
RTVSPost2010PropOp52
 70
     0
102
RTVSPost2010Prop53
 90
        2
102
RTVSPost2010PropOp53
 70
     1
102
RTVSPost2010Prop54
  1
strokes_ogs.tif
102
RTVSPost2010PropOp54
 70
     1
102
RTVSPost2010Prop55
280
     0
102
RTVSPost2010PropOp55
 70
     1
102
RTVSPost2010Prop56
140
1.0
102
RTVSPost2010PropOp56
 70
     1
102
RTVSPost2010Prop57
140
1.0
102
RTVSPost2010PropOp57
 70
     1
102
RTVSPropertyOp0
 70
     1
102
RTVSPropertyOp1
 70
     1
102
RTVSPropertyOp2
 70
     1
102
RTVSPropertyOp3
 70
     1
102
RTVSPropertyOp4
 70
     1
102
RTVSPropertyOp5
 70
     1
102
RTVSPropertyOp6
 70
     1
102
RTVSPropertyOp7
 70
     1
102
RTVSPropertyOp8
 70
     1
102
RTVSPropertyOp9
 70
     1
102
RTVSPropertyOp10
 70
     1
102
RTVSPropertyOp11
 70
     1
102
RTVSPropertyOp12
 70
     1
102
RTVSPropertyOp13
 70
     1
102
RTVSPropertyOp14
 70
     1
102
RTVSPropertyOp15
 70
     1
102
RTVSPropertyOp16
 70
     1
102
RTVSPropertyOp17
 70
     1
102
RTVSPropertyOp18
 70
     1
102
RTVSPropertyOp19
 70
     1
102
RTVSPropertyOp20
 70
     1
102
RTVSPropertyOp21
 70
     1
102
RTVSPropertyOp22
 70
     1
102
RTVSPropertyOp23
 70
     1
102
RTVSPropertyOp24
 70
     1
102
RTVSPropertyOp25
 70
     1
102
RTVSPropertyOp26
 70
     1
102
RTVSPropertyOp27
 70
     1
102
RTVSPropertyOp28
 70
     1
102
RTVSPropertyOp29
 70
     1
102
RTVSPropertyOp30
 70
     1
102
RTVSPropertyOp31
 70
     1
102
RTVSPropertyOp32
 70
     1
102
RTVSPropertyOp33
 70
     1
102
RTVSPropertyOp34
 70
     1
102
RTVSPropertyOp35
 70
     1
102
RTVSPropertyOp36
 70
     1
102
RTVSPropertyOp37
 70
     1
102
RTVSPropertyOp38
 70
     1
102
RTVSPropertyOp39
 70
     1
102
RTVSPropertyOp40
 70
     1
102
RTVSPropertyOp41
 70
     1
102
RTVSPropertyOp42
 70
     1
102
RTVSPropertyOp43
 70
     1
102
RTVSPropertyOp44
 70
     1
102
RTVSPropertyOp45
 70
     1
102
RTVSPropertyOp46
 70
     1
102
RTVSPropertyOp47
 70
     1
102
RTVSPropertyOp48
 70
     1
102
RTVSPropertyOp49
 70
     1
102
RTVSPropertyOp50
 70
     1
102
RTVSPropertyOp51
 70
     0
102
RTVSPropertyOp52
 70
     0
102
RTVSPropertyOp53
 70
     1
102
RTVSPropertyOp54
 70
     1
102
RTVSPropertyOp55
 70
     1
102
RTVSPropertyOp56
 70
     1
102
RTVSPropertyOp57
 70
     1
102
RTVSPropertyOp58
 70
     1
102
RTVSPropertyOp59
 70
     1
102
RTVSPropertyOp60
 70
     1
102
RTVSPropertyOp61
 70
     1
102
RTVSPropertyOp62
 70
     1
  0
XRECORD
  5
3D1
102
{ACAD_REACTORS
330
3D0
102
}
330
3D0
100
AcDbXrecord
280
     1
102
RTVSPost2010Prop28
280
     0
102
RTVSPost2010PropOp28
 70
     1
102
RTVSPost2010Prop29
280
     1
102
RTVSPost2010PropOp29
 70
     1
102
RTVSPost2010Prop30
280
     1
102
RTVSPost2010PropOp30
 70
     1
102
RTVSPost2010Prop31
280
     0
102
RTVSPost2010PropOp31
 70
     1
102
RTVSPost2010Prop32
280
     0
102
RTVSPost2010PropOp32
 70
     1
102
RTVSPost2010Prop33
280
     0
102
RTVSPost2010PropOp33
 70
     1
102
RTVSPost2010Prop34
280
     0
102
RTVSPost2010PropOp34
 70
     1
102
RTVSPost2010Prop35
280
     0
102
RTVSPost2010PropOp35
 70
     1
102
RTVSPost2010Prop36
280
     0
102
RTVSPost2010PropOp36
 70
     1
102
RTVSPost2010Prop37
 90
       50
102
RTVSPost2010PropOp37
 70
     1
102
RTVSPost2010Prop38
140
0.0
102
RTVSPost2010PropOp38
 70
     1
102
RTVSPost2010Prop39
140
1.0
102
RTVSPost2010PropOp39
 70
     1
102
RTVSPost2010Prop40
 90
        0
102
RTVSPost2010PropOp40
 70
     1
102
RTVSPost2010Prop41ColorIndex
 90
       18
102
RTVSPost2010Prop41ColorRGB
 90
        0
102
RTVSPost2010PropOp41
 70
     1
102
RTVSPost2010Prop42
 90
       50
102
RTVSPost2010PropOp42
 70
     1
102
RTVSPost2010Prop43
 90
        3
102
RTVSPost2010PropOp43
 70
     1
102
RTVSPost2010Prop44ColorIndex
 90
        5
102
RTVSPost2010Prop44ColorRGB
 90
      255
102
RTVSPost2010PropOp44
 70
     1
102
RTVSPost2010Prop45
280
     0
102
RTVSPost2010PropOp45
 70
     1
102
RTVSPost2010Prop46
 90
       50
102
RTVSPost2010PropOp46
 70
     1
102
RTVSPost2010Prop47
 90
       50
102
RTVSPost2010PropOp47
 70
     1
102
RTVSPost2010Prop48
 90
       50
102
RTVSPost2010PropOp48
 70
     1
102
RTVSPost2010Prop49
280
     0
102
RTVSPost2010PropOp49
 70
     1
102
RTVSPost2010Prop50
 90
       50
102
RTVSPost2010PropOp50
 70
     1
102
RTVSPost2010Prop51ColorIndex
 90
      256
102
RTVSPost2010Prop51ColorRGB
 90
-16777216
102
RTVSPost2010PropOp51
 70
     0
102
RTVSPost2010Prop52
140
1.0
102
RTVSPost2010PropOp52
 70
     0
102
RTVSPost2010Prop53
 90
        2
102
RTVSPost2010PropOp53
 70
     1
102
RTVSPost2010Prop54
  1
strokes_ogs.tif
102
RTVSPost2010PropOp54
 70
     1
102
RTVSPost2010Prop55
280
     0
102
RTVSPost2010PropOp55
 70
     1
102
RTVSPost2010Prop56
140
1.0
102
RTVSPost2010PropOp56
 70
     1
102
RTVSPost2010Prop57
140
1.0
102
RTVSPost2010PropOp57
 70
     1
102
RTVSPropertyOp0
 70
     1
102
RTVSPropertyOp1
 70
     1
102
RTVSPropertyOp2
 70
     1
102
RTVSPropertyOp3
 70
     1
102
RTVSPropertyOp4
 70
     1
102
RTVSPropertyOp5
 70
     1
102
RTVSPropertyOp6
 70
     1
102
RTVSPropertyOp7
 70
     1
102
RTVSPropertyOp8
 70
     1
102
RTVSPropertyOp9
 70
     1
102
RTVSPropertyOp10
 70
     1
102
RTVSPropertyOp11
 70
     1
102
RTVSPropertyOp12
 70
     1
102
RTVSPropertyOp13
 70
     1
102
RTVSPropertyOp14
 70
     1
102
RTVSPropertyOp15
 70
     1
102
RTVSPropertyOp16
 70
     1
102
RTVSPropertyOp17
 70
     1
102
RTVSPropertyOp18
 70
     1
102
RTVSPropertyOp19
 70
     1
102
RTVSPropertyOp20
 70
     1
102
RTVSPropertyOp21
 70
     1
102
RTVSPropertyOp22
 70
     1
102
RTVSPropertyOp23
 70
     1
102
RTVSPropertyOp24
 70
     1
102
RTVSPropertyOp25
 70
     1
102
RTVSPropertyOp26
 70
     1
102
RTVSPropertyOp27
 70
     1
102
RTVSPropertyOp28
 70
     1
102
RTVSPropertyOp29
 70
     1
102
RTVSPropertyOp30
 70
     1
102
RTVSPropertyOp31
 70
     1
102
RTVSPropertyOp32
 70
     1
102
RTVSPropertyOp33
 70
     1
102
RTVSPropertyOp34
 70
     1
102
RTVSPropertyOp35
 70
     1
102
RTVSPropertyOp36
 70
     1
102
RTVSPropertyOp37
 70
     1
102
RTVSPropertyOp38
 70
     1
102
RTVSPropertyOp39
 70
     1
102
RTVSPropertyOp40
 70
     1
102
RTVSPropertyOp41
 70
     1
102
RTVSPropertyOp42
 70
     1
102
RTVSPropertyOp43
 70
     1
102
RTVSPropertyOp44
 70
     1
102
RTVSPropertyOp45
 70
     1
102
RTVSPropertyOp46
 70
     1
102
RTVSPropertyOp47
 70
     1
102
RTVSPropertyOp48
 70
     1
102
RTVSPropertyOp49
 70
     1
102
RTVSPropertyOp50
 70
     1
102
RTVSPropertyOp51
 70
     0
102
RTVSPropertyOp52
 70
     0
102
RTVSPropertyOp53
 70
     1
102
RTVSPropertyOp54
 70
     1
102
RTVSPropertyOp55
 70
     1
102
RTVSPropertyOp56
 70
     1
102
RTVSPropertyOp57
 70
     1
102
RTVSPropertyOp58
 70
     1
102
RTVSPropertyOp59
 70
     1
102
RTVSPropertyOp60
 70
     1
102
RTVSPropertyOp61
 70
     1
102
RTVSPropertyOp62
 70
     1
  0
XRECORD
  5
3D3
102
{ACAD_REACTORS
330
3D2
102
}
330
3D2
100
AcDbXrecord
280
     1
102
RTVSPost2010Prop28
280
     0
102
RTVSPost2010PropOp28
 70
     1
102
RTVSPost2010Prop29
280
     1
102
RTVSPost2010PropOp29
 70
     1
102
RTVSPost2010Prop30
280
     1
102
RTVSPost2010PropOp30
 70
     1
102
RTVSPost2010Prop31
280
     0
102
RTVSPost2010PropOp31
 70
     1
102
RTVSPost2010Prop32
280
     0
102
RTVSPost2010PropOp32
 70
     1
102
RTVSPost2010Prop33
280
     0
102
RTVSPost2010PropOp33
 70
     1
102
RTVSPost2010Prop34
280
     0
102
RTVSPost2010PropOp34
 70
     1
102
RTVSPost2010Prop35
280
     0
102
RTVSPost2010PropOp35
 70
     1
102
RTVSPost2010Prop36
280
     0
102
RTVSPost2010PropOp36
 70
     1
102
RTVSPost2010Prop37
 90
       50
102
RTVSPost2010PropOp37
 70
     1
102
RTVSPost2010Prop38
140
0.0
102
RTVSPost2010PropOp38
 70
     1
102
RTVSPost2010Prop39
140
1.0
102
RTVSPost2010PropOp39
 70
     1
102
RTVSPost2010Prop40
 90
        0
102
RTVSPost2010PropOp40
 70
     1
102
RTVSPost2010Prop41ColorIndex
 90
       18
102
RTVSPost2010Prop41ColorRGB
 90
        0
102
RTVSPost2010PropOp41
 70
     1
102
RTVSPost2010Prop42
 90
       50
102
RTVSPost2010PropOp42
 70
     1
102
RTVSPost2010Prop43
 90
        3
102
RTVSPost2010PropOp43
 70
     1
102
RTVSPost2010Prop44ColorIndex
 90
        5
102
RTVSPost2010Prop44ColorRGB
 90
      255
102
RTVSPost2010PropOp44
 70
     1
102
RTVSPost2010Prop45
280
     0
102
RTVSPost2010PropOp45
 70
     1
102
RTVSPost2010Prop46
 90
       50
102
RTVSPost2010PropOp46
 70
     1
102
RTVSPost2010Prop47
 90
       50
102
RTVSPost2010PropOp47
 70
     1
102
RTVSPost2010Prop48
 90
       50
102
RTVSPost2010PropOp48
 70
     1
102
RTVSPost2010Prop49
280
     0
102
RTVSPost2010PropOp49
 70
     1
102
RTVSPost2010Prop50
 90
       50
102
RTVSPost2010PropOp50
 70
     1
102
RTVSPost2010Prop51ColorIndex
 90
      256
102
RTVSPost2010Prop51ColorRGB
 90
-16777216
102
RTVSPost2010PropOp51
 70
     0
102
RTVSPost2010Prop52
140
1.0
102
RTVSPost2010PropOp52
 70
     0
102
RTVSPost2010Prop53
 90
        2
102
RTVSPost2010PropOp53
 70
     1
102
RTVSPost2010Prop54
  1
strokes_ogs.tif
102
RTVSPost2010PropOp54
 70
     1
102
RTVSPost2010Prop55
280
     0
102
RTVSPost2010PropOp55
 70
     1
102
RTVSPost2010Prop56
140
1.0
102
RTVSPost2010PropOp56
 70
     1
102
RTVSPost2010Prop57
140
1.0
102
RTVSPost2010PropOp57
 70
     1
102
RTVSPropertyOp0
 70
     1
102
RTVSPropertyOp1
 70
     1
102
RTVSPropertyOp2
 70
     1
102
RTVSPropertyOp3
 70
     1
102
RTVSPropertyOp4
 70
     1
102
RTVSPropertyOp5
 70
     1
102
RTVSPropertyOp6
 70
     1
102
RTVSPropertyOp7
 70
     1
102
RTVSPropertyOp8
 70
     1
102
RTVSPropertyOp9
 70
     1
102
RTVSPropertyOp10
 70
     1
102
RTVSPropertyOp11
 70
     1
102
RTVSPropertyOp12
 70
     1
102
RTVSPropertyOp13
 70
     1
102
RTVSPropertyOp14
 70
     1
102
RTVSPropertyOp15
 70
     1
102
RTVSPropertyOp16
 70
     1
102
RTVSPropertyOp17
 70
     1
102
RTVSPropertyOp18
 70
     1
102
RTVSPropertyOp19
 70
     1
102
RTVSPropertyOp20
 70
     1
102
RTVSPropertyOp21
 70
     1
102
RTVSPropertyOp22
 70
     1
102
RTVSPropertyOp23
 70
     1
102
RTVSPropertyOp24
 70
     1
102
RTVSPropertyOp25
 70
     1
102
RTVSPropertyOp26
 70
     1
102
RTVSPropertyOp27
 70
     1
102
RTVSPropertyOp28
 70
     1
102
RTVSPropertyOp29
 70
     1
102
RTVSPropertyOp30
 70
     1
102
RTVSPropertyOp31
 70
     1
102
RTVSPropertyOp32
 70
     1
102
RTVSPropertyOp33
 70
     1
102
RTVSPropertyOp34
 70
     1
102
RTVSPropertyOp35
 70
     1
102
RTVSPropertyOp36
 70
     1
102
RTVSPropertyOp37
 70
     1
102
RTVSPropertyOp38
 70
     1
102
RTVSPropertyOp39
 70
     1
102
RTVSPropertyOp40
 70
     1
102
RTVSPropertyOp41
 70
     1
102
RTVSPropertyOp42
 70
     1
102
RTVSPropertyOp43
 70
     1
102
RTVSPropertyOp44
 70
     1
102
RTVSPropertyOp45
 70
     1
102
RTVSPropertyOp46
 70
     1
102
RTVSPropertyOp47
 70
     1
102
RTVSPropertyOp48
 70
     1
102
RTVSPropertyOp49
 70
     1
102
RTVSPropertyOp50
 70
     1
102
RTVSPropertyOp51
 70
     0
102
RTVSPropertyOp52
 70
     0
102
RTVSPropertyOp53
 70
     1
102
RTVSPropertyOp54
 70
     1
102
RTVSPropertyOp55
 70
     1
102
RTVSPropertyOp56
 70
     1
102
RTVSPropertyOp57
 70
     1
102
RTVSPropertyOp58
 70
     1
102
RTVSPropertyOp59
 70
     1
102
RTVSPropertyOp60
 70
     1
102
RTVSPropertyOp61
 70
     1
102
RTVSPropertyOp62
 70
     1
  0
ENDSEC
  0
EOF
