  0
SECTION
  2
HEADER
  9
$ACADVER
  1
AC1021
  9
$ACADMAINTVER
 70
    50
  9
$DWGCODEPAGE
  3
ANSI_1252
  9
$INSBASE
 10
-9.999999999999886
 20
2081.623419100239
 30
0.0
  9
$EXTMIN
 10
-20.91155710038584
 20
-117.8126992008692
 30
-0.0000000349181948
  9
$EXTMAX
 10
8925.980349870117
 20
4774.719008907628
 30
0.0000000814935746
  9
$LIMMIN
 10
0.0
 20
0.0
  9
$LIMMAX
 10
297.0
 20
210.0
  9
$ORTHOMODE
 70
     0
  9
$REGENMODE
 70
     1
  9
$FILLMODE
 70
     1
  9
$QTEXTMODE
 70
     0
  9
$MIRRTEXT
 70
     1
  9
$LTSCALE
 40
10.0
  9
$ATTMODE
 70
     1
  9
$TEXTSIZE
 40
3.5
  9
$TRACEWID
 40
0.05
  9
$TEXTSTYLE
  7
SIMPLEX
  9
$CLAYER
  8
0
  9
$CELTYPE
  6
ByLayer
  9
$CECOLOR
 62
   256
  9
$CELTSCALE
 40
10.0
  9
$DISPSILH
 70
     0
  9
$DIMSCALE
 40
1.0
  9
$DIMASZ
 40
3.5
  9
$DIMEXO
 40
0.1
  9
$DIMDLI
 40
0.4
  9
$DIMRND
 40
0.0
  9
$DIMDLE
 40
0.0
  9
$DIMEXE
 40
1.8
  9
$DIMTP
 40
0.0
  9
$DIMTM
 40
0.0
  9
$DIMTXT
 40
3.5
  9
$DIMCEN
 40
5.0
  9
$DIMTSZ
 40
0.0
  9
$DIMTOL
 70
     0
  9
$DIMLIM
 70
     0
  9
$DIMTIH
 70
     0
  9
$DIMTOH
 70
     0
  9
$DIMSE1
 70
     0
  9
$DIMSE2
 70
     0
  9
$DIMTAD
 70
     1
  9
$DIMZIN
 70
     8
  9
$DIMBLK
  1

  9
$DIMASO
 70
     1
  9
$DIMSHO
 70
     1
  9
$DIMPOST
  1

  9
$DIMAPOST
  1

  9
$DIMALT
 70
     0
  9
$DIMALTD
 70
     2
  9
$DIMALTF
 40
25.4
  9
$DIMLFAC
 40
1.0
  9
$DIMTOFL
 70
     1
  9
$DIMTVP
 40
0.0
  9
$DIMTIX
 70
     0
  9
$DIMSOXD
 70
     0
  9
$DIMSAH
 70
     1
  9
$DIMBLK1
  1

  9
$DIMBLK2
  1

  9
$DIMSTYLE
  2
BEMASSUNG
  9
$DIMCLRD
 70
     1
  9
$DIMCLRE
 70
     1
  9
$DIMCLRT
 70
     1
  9
$DIMTFAC
 40
0.5714285714285714
  9
$DIMGAP
 40
0.1
  9
$DIMJUST
 70
     0
  9
$DIMSD1
 70
     0
  9
$DIMSD2
 70
     0
  9
$DIMTOLJ
 70
     1
  9
$DIMTZIN
 70
     8
  9
$DIMALTZ
 70
     8
  9
$DIMALTTZ
 70
     8
  9
$DIMUPT
 70
     0
  9
$DIMDEC
 70
     1
  9
$DIMTDEC
 70
     1
  9
$DIMALTU
 70
     2
  9
$DIMALTTD
 70
     2
  9
$DIMTXSTY
  7
STANDARD
  9
$DIMAUNIT
 70
     0
  9
$DIMADEC
 70
     0
  9
$DIMALTRND
 40
0.0
  9
$DIMAZIN
 70
     0
  9
$DIMDSEP
 70
    46
  9
$DIMATFIT
 70
     3
  9
$DIMFRAC
 70
     0
  9
$DIMLDRBLK
  1

  9
$DIMLUNIT
 70
     2
  9
$DIMLWD
 70
    -2
  9
$DIMLWE
 70
    -2
  9
$DIMTMOVE
 70
     2
  9
$DIMFXL
 40
1.0
  9
$DIMFXLON
 70
     0
  9
$DIMJOGANG
 40
0.7853981633974483
  9
$DIMTFILL
 70
     0
  9
$DIMTFILLCLR
 70
     0
  9
$DIMARCSYM
 70
     0
  9
$DIMLTYPE
  6

  9
$DIMLTEX1
  6

  9
$DIMLTEX2
  6

  9
$LUNITS
 70
     2
  9
$LUPREC
 70
     1
  9
$SKETCHINC
 40
12.0
  9
$FILLETRAD
 40
0.0
  9
$AUNITS
 70
     0
  9
$AUPREC
 70
     0
  9
$MENU
  1
acad
  9
$ELEVATION
 40
0.0
  9
$PELEVATION
 40
0.0
  9
$THICKNESS
 40
0.0
  9
$LIMCHECK
 70
     0
  9
$CHAMFERA
 40
5.0
  9
$CHAMFERB
 40
5.0
  9
$CHAMFERC
 40
0.0
  9
$CHAMFERD
 40
0.0
  9
$SKPOLY
 70
     0
  9
$TDCREATE
 40
2449974.465976621
  9
$TDUCREATE
 40
2449974.382643287
  9
$TDUPDATE
 40
2457129.407332280
  9
$TDUUPDATE
 40
2457129.323998947
  9
$TDINDWG
 40
1.7183435417
  9
$TDUSRTIMER
 40
1.7183435417
  9
$USRTIMER
 70
     1
  9
$ANGBASE
 50
0.0
  9
$ANGDIR
 70
     0
  9
$PDMODE
 70
     0
  9
$PDSIZE
 40
0.0
  9
$PLINEWID
 40
0.0
  9
$SPLFRAME
 70
     0
  9
$SPLINETYPE
 70
     6
  9
$SPLINESEGS
 70
     8
  9
$HANDSEED
  5
195
  9
$SURFTAB1
 70
     6
  9
$SURFTAB2
 70
     6
  9
$SURFTYPE
 70
     6
  9
$SURFU
 70
     6
  9
$SURFV
 70
     6
  9
$UCSBASE
  2

  9
$UCSNAME
  2

  9
$UCSORG
 10
0.0
 20
0.0
 30
0.0
  9
$UCSXDIR
 10
1.0
 20
0.0
 30
0.0
  9
$UCSYDIR
 10
0.0
 20
1.0
 30
0.0
  9
$UCSORTHOREF
  2

  9
$UCSORTHOVIEW
 70
     0
  9
$UCSORGTOP
 10
0.0
 20
0.0
 30
0.0
  9
$UCSORGBOTTOM
 10
0.0
 20
0.0
 30
0.0
  9
$UCSORGLEFT
 10
0.0
 20
0.0
 30
0.0
  9
$UCSORGRIGHT
 10
0.0
 20
0.0
 30
0.0
  9
$UCSORGFRONT
 10
0.0
 20
0.0
 30
0.0
  9
$UCSORGBACK
 10
0.0
 20
0.0
 30
0.0
  9
$PUCSBASE
  2

  9
$PUCSNAME
  2

  9
$PUCSORG
 10
0.0
 20
0.0
 30
0.0
  9
$PUCSXDIR
 10
1.0
 20
0.0
 30
0.0
  9
$PUCSYDIR
 10
0.0
 20
1.0
 30
0.0
  9
$PUCSORTHOREF
  2

  9
$PUCSORTHOVIEW
 70
     0
  9
$PUCSORGTOP
 10
0.0
 20
0.0
 30
0.0
  9
$PUCSORGBOTTOM
 10
0.0
 20
0.0
 30
0.0
  9
$PUCSORGLEFT
 10
0.0
 20
0.0
 30
0.0
  9
$PUCSORGRIGHT
 10
0.0
 20
0.0
 30
0.0
  9
$PUCSORGFRONT
 10
0.0
 20
0.0
 30
0.0
  9
$PUCSORGBACK
 10
0.0
 20
0.0
 30
0.0
  9
$USERI1
 70
     0
  9
$USERI2
 70
     0
  9
$USERI3
 70
     0
  9
$USERI4
 70
     0
  9
$USERI5
 70
     0
  9
$USERR1
 40
0.0
  9
$USERR2
 40
0.0
  9
$USERR3
 40
0.0
  9
$USERR4
 40
0.0
  9
$USERR5
 40
0.0
  9
$WORLDVIEW
 70
     1
  9
$SHADEDGE
 70
     3
  9
$SHADEDIF
 70
    70
  9
$TILEMODE
 70
     1
  9
$MAXACTVP
 70
    16
  9
$PINSBASE
 10
0.0
 20
0.0
 30
0.0
  9
$PLIMCHECK
 70
     0
  9
$PEXTMIN
 10
1.000000000000000E+20
 20
1.000000000000000E+20
 30
1.000000000000000E+20
  9
$PEXTMAX
 10
-1.000000000000000E+20
 20
-1.000000000000000E+20
 30
-1.000000000000000E+20
  9
$PLIMMIN
 10
0.0
 20
0.0
  9
$PLIMMAX
 10
12.0
 20
9.0
  9
$UNITMODE
 70
     0
  9
$VISRETAIN
 70
     0
  9
$PLINEGEN
 70
     0
  9
$PSLTSCALE
 70
     1
  9
$TREEDEPTH
 70
  3020
  9
$CMLSTYLE
  2
Standard
  9
$CMLJUST
 70
     0
  9
$CMLSCALE
 40
1.0
  9
$PROXYGRAPHICS
 70
     1
  9
$MEASUREMENT
 70
     0
  9
$CELWEIGHT
370
    -1
  9
$ENDCAPS
280
     0
  9
$JOINSTYLE
280
     0
  9
$LWDISPLAY
290
     0
  9
$INSUNITS
 70
     0
  9
$HYPERLINKBASE
  1

  9
$STYLESHEET
  1

  9
$XEDIT
290
     1
  9
$CEPSNTYPE
380
     0
  9
$PSTYLEMODE
290
     1
  9
$FINGERPRINTGUID
  2
{CE1BC86F-6AC6-48F6-8071-50E968228659}
  9
$VERSIONGUID
  2
{15C1B39A-ED88-4954-A367-1F8711E4416E}
  9
$EXTNAMES
290
     1
  9
$PSVPSCALE
 40
0.0
  9
$OLESTARTUP
290
     0
  9
$SORTENTS
280
   127
  9
$INDEXCTL
280
     0
  9
$HIDETEXT
280
     1
  9
$XCLIPFRAME
290
     0
  9
$HALOGAP
280
     0
  9
$OBSCOLOR
 70
   257
  9
$OBSLTYPE
280
     0
  9
$INTERSECTIONDISPLAY
280
     0
  9
$INTERSECTIONCOLOR
 70
   257
  9
$DIMASSOC
280
     2
  9
$PROJECTNAME
  1

  9
$CAMERADISPLAY
290
     0
  9
$LENSLENGTH
 40
50.0
  9
$CAMERAHEIGHT
 40
0.0
  9
$STEPSPERSEC
 40
2.0
  9
$STEPSIZE
 40
6.0
  9
$3DDWFPREC
 40
2.0
  9
$PSOLWIDTH
 40
0.25
  9
$PSOLHEIGHT
 40
4.0
  9
$LOFTANG1
 40
1.570796326794896
  9
$LOFTANG2
 40
1.570796326794896
  9
$LOFTMAG1
 40
0.0
  9
$LOFTMAG2
 40
0.0
  9
$LOFTPARAM
 70
     7
  9
$LOFTNORMALS
280
     1
  9
$LATITUDE
 40
37.795
  9
$LONGITUDE
 40
-122.394
  9
$NORTHDIRECTION
 40
0.0
  9
$TIMEZONE
 70
 -8000
  9
$LIGHTGLYPHDISPLAY
280
     1
  9
$TILEMODELIGHTSYNCH
280
     1
  9
$CMATERIAL
347
36
  9
$SOLIDHIST
280
     0
  9
$SHOWHIST
280
     1
  9
$DWFFRAME
280
     2
  9
$DGNFRAME
280
     0
  9
$REALWORLDSCALE
290
     1
  9
$INTERFERECOLOR
 62
     1
  9
$INTERFEREOBJVS
345
4E
  9
$INTERFEREVPVS
346
4F
  9
$CSHADOW
280
     0
  9
$SHADOWPLANELOCATION
 40
0.0
  0
ENDSEC
  0
SECTION
  2
CLASSES
  0
CLASS
  1
ACDBDICTIONARYWDFLT
  2
AcDbDictionaryWithDefault
  3
ObjectDBX Classes
 90
        0
 91
        1
280
     0
281
     0
  0
CLASS
  1
MATERIAL
  2
AcDbMaterial
  3
ObjectDBX Classes
 90
     1153
 91
        3
280
     0
281
     0
  0
CLASS
  1
VISUALSTYLE
  2
AcDbVisualStyle
  3
ObjectDBX Classes
 90
     4095
 91
        3
280
     0
281
     0
  0
CLASS
  1
SCALE
  2
AcDbScale
  3
ObjectDBX Classes
 90
     1153
 91
       17
280
     0
281
     0
  0
CLASS
  1
TABLESTYLE
  2
AcDbTableStyle
  3
ObjectDBX Classes
 90
     4095
 91
        1
280
     0
281
     0
  0
CLASS
  1
MLEADERSTYLE
  2
AcDbMLeaderStyle
  3
ACDB_MLEADERSTYLE_CLASS
 90
     4095
 91
        0
280
     0
281
     0
  0
CLASS
  1
ACDB_TEXTOBJECTCONTEXTDATA_CLASS
  2
AcDbTextObjectContextData
  3
ObjectDBX Classes
 90
     1153
 91
        0
280
     0
281
     0
  0
CLASS
  1
SORTENTSTABLE
  2
AcDbSortentsTable
  3
ObjectDBX Classes
 90
        0
 91
        2
280
     0
281
     0
  0
CLASS
  1
DICTIONARYVAR
  2
AcDbDictionaryVar
  3
ObjectDBX Classes
 90
        0
 91
        7
280
     0
281
     0
  0
CLASS
  1
ACDBSECTIONVIEWSTYLE
  2
AcDbSectionViewStyle
  3
ObjectDBX Classes
 90
     1025
 91
        0
280
     0
281
     0
  0
CLASS
  1
ACDBDETAILVIEWSTYLE
  2
AcDbDetailViewStyle
  3
ObjectDBX Classes
 90
     1025
 91
        0
280
     0
281
     0
  0
CLASS
  1
DIMASSOC
  2
AcDbDimAssoc
  3
"AcDbDimAssoc|Product Desc:     AcDim ARX App For Dimension|Company:          Autodesk, Inc.|WEB Address:      www.autodesk.com"
 90
        0
 91
        0
280
     0
281
     0
  0
CLASS
  1
MULTILEADER
  2
AcDbMLeader
  3
ACDB_MLEADER_CLASS
 90
     1025
 91
        0
280
     0
281
     1
  0
CLASS
  1
ACDB_MLEADEROBJECTCONTEXTDATA_CLASS
  2
AcDbMLeaderObjectContextData
  3
ObjectDBX Classes
 90
     1153
 91
        0
280
     0
281
     0
  0
CLASS
  1
ACDB_MTEXTOBJECTCONTEXTDATA_CLASS
  2
AcDbMTextObjectContextData
  3
ObjectDBX Classes
 90
     1153
 91
        2
280
     0
281
     0
  0
CLASS
  1
EXACXREFPANELOBJECT
  2
ExAcXREFPanelObject
  3
EXAC_ESW
 90
     1025
 91
        0
280
     1
281
     0
  0
CLASS
  1
NPOCOLLECTION
  2
AcDbImpNonPersistentObjectsCollection
  3
ObjectDBX Classes
 90
     1153
 91
        0
280
     0
281
     0
  0
CLASS
  1
EXACTERMXREFMAP
  2
ExAcTermXrefMap
  3
EXAC_SERVICE
 90
     1025
 91
        0
280
     1
281
     0
  0
CLASS
  1
SOLID_BACKGROUND
  2
AcDbSolidBackground
  3
SCENEOE
 90
     4095
 91
        0
280
     0
281
     0
  0
CLASS
  1
CELLSTYLEMAP
  2
AcDbCellStyleMap
  3
ObjectDBX Classes
 90
     1152
 91
        1
280
     0
281
     0
  0
ENDSEC
  0
SECTION
  2
TABLES
  0
TABLE
  2
VPORT
  5
29
330
0
100
AcDbSymbolTable
 70
     1
  0
VPORT
  5
2A
330
29
100
AcDbSymbolTableRecord
100
AcDbViewportTableRecord
  2
*ACTIVE
 70
     0
 10
0.0
 20
0.0
 11
1.0
 21
1.0
 12
1635.349263120222
 22
2365.492969986144
 13
0.0
 23
0.0
 14
1.0
 24
1.0
 15
10.0
 25
10.0
 16
0.0
 26
0.0
 36
1.0
 17
0.0
 27
0.0
 37
0.0
 40
3102.0301744357
 41
1.996753246753246
 42
50.0
 43
0.0
 44
0.0
 50
0.0
 51
0.0
 71
     0
 72
  2000
 73
     1
 74
     0
 75
     0
 76
     0
 77
     0
 78
     0
281
     0
 65
     1
110
0.0
120
0.0
130
0.0
111
1.0
121
0.0
131
0.0
112
0.0
122
1.0
132
0.0
 79
     0
146
0.0
348
2B
 60
     3
 61
     5
292
     1
282
     0
141
0.0
142
0.0
 63
   250
421
  3355443
1001
ACAD_NAV_VCDISPLAY
1070
     3
  0
ENDTAB
  0
TABLE
  2
LTYPE
  5
24
330
0
100
AcDbSymbolTable
 70
     2
  0
LTYPE
  5
25
330
24
100
AcDbSymbolTableRecord
100
AcDbLinetypeTableRecord
  2
ByBlock
 70
     0
  3

 72
    65
 73
     0
 40
0.0
  0
LTYPE
  5
26
330
24
100
AcDbSymbolTableRecord
100
AcDbLinetypeTableRecord
  2
ByLayer
 70
     0
  3

 72
    65
 73
     0
 40
0.0
  0
LTYPE
  5
14
330
24
100
AcDbSymbolTableRecord
100
AcDbLinetypeTableRecord
  2
CONTINUOUS
 70
     0
  3
Durchgezogene Linie
 72
    65
 73
     0
 40
0.0
  0
LTYPE
  5
114
330
24
100
AcDbSymbolTableRecord
100
AcDbLinetypeTableRecord
  2
STRICHPUNKT
 70
     0
  3
__ . __ . __ . __ . __ . __ . __ . __ . __ . __
 72
    65
 73
     4
 40
1.0
 49
0.5
 74
     0
 49
-0.25
 74
     0
 49
0.0
 74
     0
 49
-0.25
 74
     0
  0
ENDTAB
  0
TABLE
  2
LAYER
  5
1E
102
{ACAD_XDICTIONARY
360
1F
102
}
330
0
100
AcDbSymbolTable
 70
     6
  0
LAYER
  5
6
330
1E
100
AcDbSymbolTableRecord
100
AcDbLayerTableRecord
  2
0
 70
     0
 62
     7
  6
CONTINUOUS
370
    -3
390
7
347
A
  0
LAYER
  5
64
330
1E
100
AcDbSymbolTableRecord
100
AcDbLayerTableRecord
  2
Beschriftung
 70
     0
 62
     1
  6
CONTINUOUS
370
    -3
390
7
347
A
  0
LAYER
  5
75
102
{ACAD_XDICTIONARY
360
76
102
}
330
1E
100
AcDbSymbolTableRecord
100
AcDbLayerTableRecord
  2
Plankopf
 70
     0
 62
     7
  6
CONTINUOUS
370
     9
390
7
347
A
1001
AcAecLayerStandard
1000

1000

  0
LAYER
  5
D0
330
1E
100
AcDbSymbolTableRecord
100
AcDbLayerTableRecord
  2
Kasten
 70
     0
 62
     7
  6
CONTINUOUS
370
    30
390
7
347
A
1001
AcAecLayerStandard
1000

1000

1001
AcCmTransparency
1071
        0
  0
LAYER
  5
118
330
1E
100
AcDbSymbolTableRecord
100
AcDbLayerTableRecord
  2
Bauseitig
 70
     0
 62
     3
  6
CONTINUOUS
370
     5
390
7
347
A
1001
AcAecLayerStandard
1000

1000

1001
AcCmTransparency
1071
        0
  0
LAYER
  5
182
102
{ACAD_XDICTIONARY
360
184
102
}
330
1E
100
AcDbSymbolTableRecord
100
AcDbLayerTableRecord
  2
Beschriftung @ 1
 70
     0
 62
     1
  6
CONTINUOUS
370
    -3
390
7
347
A
1001
AcadAnnotativeDecomposition
1000
AnnotativeData
1002
{
1070
     1
1070
     1
1002
}
  0
ENDTAB
  0
TABLE
  2
STYLE
  5
21
330
0
100
AcDbSymbolTable
 70
     3
  0
STYLE
  5
22
330
21
100
AcDbSymbolTableRecord
100
AcDbTextStyleTableRecord
  2
STANDARD
 70
     0
 40
0.0
 41
1.0
 50
0.0
 71
     0
 42
3.5
  3
txt
  4

  0
STYLE
  5
4A
330
21
100
AcDbSymbolTableRecord
100
AcDbTextStyleTableRecord
  2
SIMPLEX
 70
     0
 40
0.0
 41
1.0
 50
0.0
 71
     0
 42
3.5
  3
C:\ACADWIN\FONTS\ISO.SHX
  4

1001
AcadAnnotative
1000
AnnotativeData
1002
{
1070
     1
1070
     1
1002
}
  0
STYLE
  5
6D
330
21
100
AcDbSymbolTableRecord
100
AcDbTextStyleTableRecord
  2
TECHNICBOLD
 70
     0
 40
0.0
 41
1.0
 50
0.0
 71
     0
 42
3.5
  3
teb_____.pfb
  4

  0
ENDTAB
  0
TABLE
  2
VIEW
  5
27
330
0
100
AcDbSymbolTable
 70
     0
  0
ENDTAB
  0
TABLE
  2
UCS
  5
28
330
0
100
AcDbSymbolTable
 70
     0
  0
ENDTAB
  0
TABLE
  2
APPID
  5
2E
330
0
100
AcDbSymbolTable
 70
     9
  0
APPID
  5
2F
330
2E
100
AcDbSymbolTableRecord
100
AcDbRegAppTableRecord
  2
ACAD
 70
     0
  0
APPID
  5
4B
330
2E
100
AcDbSymbolTableRecord
100
AcDbRegAppTableRecord
  2
AcadAnnotative
 70
     0
  0
APPID
  5
2D
330
2E
100
AcDbSymbolTableRecord
100
AcDbRegAppTableRecord
  2
ACAD_NAV_VCDISPLAY
 70
     0
  0
APPID
  5
10C
330
2E
100
AcDbSymbolTableRecord
100
AcDbRegAppTableRecord
  2
GradientColor1ACI
 70
     0
  0
APPID
  5
10D
330
2E
100
AcDbSymbolTableRecord
100
AcDbRegAppTableRecord
  2
GradientColor2ACI
 70
     0
  0
APPID
  5
19
330
2E
100
AcDbSymbolTableRecord
100
AcDbRegAppTableRecord
  2
ACAD_PSEXT
 70
     0
  0
APPID
  5
77
330
2E
100
AcDbSymbolTableRecord
100
AcDbRegAppTableRecord
  2
AcAecLayerStandard
 70
     0
  0
APPID
  5
D1
330
2E
100
AcDbSymbolTableRecord
100
AcDbRegAppTableRecord
  2
AcCmTransparency
 70
     0
  0
APPID
  5
183
330
2E
100
AcDbSymbolTableRecord
100
AcDbRegAppTableRecord
  2
AcadAnnotativeDecomposition
 70
     0
  0
ENDTAB
  0
TABLE
  2
DIMSTYLE
  5
30
330
0
100
AcDbSymbolTable
 70
     1
100
AcDbDimStyleTable
 71
     1
340
31
  0
DIMSTYLE
105
31
330
30
100
AcDbSymbolTableRecord
100
AcDbDimStyleTableRecord
  2
BEMASSUNG
 70
     0
 41
3.5
 42
0.1
 43
0.4
 44
1.8
 73
     0
 74
     0
 77
     1
 78
     8
140
3.5
141
5.0
146
0.5714285714285714
147
0.1
172
     1
176
     1
177
     1
178
     1
271
     1
272
     1
279
     2
284
     8
285
     8
286
     8
340
22
  0
ENDTAB
  0
TABLE
  2
BLOCK_RECORD
  5
1
330
0
100
AcDbSymbolTable
 70
     0
  0
BLOCK_RECORD
  5
2
102
{ACAD_XDICTIONARY
360
3
102
}
330
1
100
AcDbSymbolTableRecord
100
AcDbBlockTableRecord
  2
*Model_Space
340
16
 70
     0
280
     1
281
     0
  0
BLOCK_RECORD
  5
1A
330
1
100
AcDbSymbolTableRecord
100
AcDbBlockTableRecord
  2
*Paper_Space
340
1D
 70
     0
280
     1
281
     0
  0
ENDTAB
  0
ENDSEC
  0
SECTION
  2
BLOCKS
  0
BLOCK
  5
5
330
2
100
AcDbEntity
  8
0
100
AcDbBlockBegin
  2
*Model_Space
 70
     0
 10
0.0
 20
0.0
 30
0.0
  3
*Model_Space
  1

  0
ENDBLK
  5
15
330
2
100
AcDbEntity
  8
0
100
AcDbBlockEnd
  0
BLOCK
  5
1B
330
1A
100
AcDbEntity
 67
     1
  8
0
100
AcDbBlockBegin
  2
*Paper_Space
 70
     0
 10
0.0
 20
0.0
 30
0.0
  3
*Paper_Space
  1

  0
ENDBLK
  5
1C
330
1A
100
AcDbEntity
 67
     1
  8
0
100
AcDbBlockEnd
  0
ENDSEC
  0
SECTION
  2
ENTITIES
  0
MTEXT
  5
61
102
{ACAD_XDICTIONARY
360
62
102
}
330
2
100
AcDbEntity
  8
Beschriftung @ 1
100
AcDbMText
 10
49.21332151181752
 20
3153.390576954908
 30
0.0
 40
25.0
 41
671.3325342184098
 46
0.0
 71
     1
 72
     5
  1
Ausdruck auf A4 im Masssatab 1:5
  7
SIMPLEX
 73
     1
 44
1.0
1001
AcadAnnotative
1000
AnnotativeData
1002
{
1070
     1
1070
     0
1002
}
1001
ACAD
1000
ACAD_MTEXT_COLUMN_INFO_BEGIN
1070
    75
1070
     2
1070
    79
1070
     0
1070
    76
1070
     1
1070
    78
1070
     0
1070
    48
1040
671.3325342184098
1070
    49
1040
17.5
1070
    50
1070
     1
1040
0.0
1000
ACAD_MTEXT_COLUMN_INFO_END
  0
MTEXT
  5
67
102
{ACAD_XDICTIONARY
360
68
102
}
330
2
100
AcDbEntity
  8
Beschriftung @ 1
100
AcDbMText
 10
49.21332151181752
 20
3106.076553145013
 30
0.0
 40
25.0
 41
671.3325342184098
 46
0.0
 71
     1
 72
     5
  1
Ausdruck auf A3 im Masssatab 1:3,5
  7
SIMPLEX
 73
     1
 44
1.0
1001
AcadAnnotative
1000
AnnotativeData
1002
{
1070
     1
1070
     0
1002
}
1001
ACAD
1000
ACAD_MTEXT_COLUMN_INFO_BEGIN
1070
    75
1070
     2
1070
    79
1070
     0
1070
    76
1070
     1
1070
    78
1070
     0
1070
    48
1040
671.3325342184098
1070
    49
1040
17.5
1070
    50
1070
     1
1040
0.0
1000
ACAD_MTEXT_COLUMN_INFO_END
  0
TEXT
  5
6C
330
2
100
AcDbEntity
  8
Beschriftung
100
AcDbText
 10
1302.244157430312
 20
2373.539314625802
 30
0.0
 40
11.2
  1
Konstruktionsdecke
 50
90.0
  7
TECHNICBOLD
100
AcDbText
  0
TEXT
  5
6E
330
2
100
AcDbEntity
  8
Beschriftung
100
AcDbText
 10
1284.394157430321
 20
2373.539314625802
 30
0.0
 40
11.2
  1
Beton oder
 50
90.0
  7
TECHNICBOLD
100
AcDbText
  0
TEXT
  5
6F
330
2
100
AcDbEntity
  8
Beschriftung
100
AcDbText
 10
544.1172332000751
 20
2521.3531645913
 30
0.0
 40
9.469599999999999
  1
in mehreren Lagen vollständig
  7
TECHNICBOLD
100
AcDbText
  0
TEXT
  5
70
330
2
100
AcDbEntity
  8
Beschriftung
100
AcDbText
 10
544.1172332000751
 20
2551.219454935035
 30
0.0
 40
9.469599999999999
  1
Hohlraum muss mit Brandschutzschaum,
  7
TECHNICBOLD
100
AcDbText
  0
TEXT
  5
71
330
2
100
AcDbEntity
  8
Beschriftung
100
AcDbText
 10
544.1172332000751
 20
2536.204454935034
 30
0.0
 40
9.469599999999999
  1
zb. Permabond 229-FR,
  7
TECHNICBOLD
100
AcDbText
  0
TEXT
  5
72
330
2
100
AcDbEntity
  8
Beschriftung
100
AcDbText
 10
544.1172332000751
 20
2506.3381645913
 30
0.0
 40
9.469599999999999
  1
ausgeschäumt werden.
  7
TECHNICBOLD
100
AcDbText
  0
LINE
  5
73
330
2
100
AcDbEntity
  8
Beschriftung
100
AcDbLine
 10
537.2621902322198
 20
2525.737599795404
 30
0.0
 11
140.3976773843556
 21
2525.737599795404
 31
0.0
  0
LWPOLYLINE
  5
74
330
2
100
AcDbEntity
  8
Plankopf
100
AcDbPolyline
 90
        4
 70
     1
 43
0.0
 10
-9.999999999999886
 20
2081.623419100239
 10
1387.6
 20
2081.623419100239
 10
1387.6
 20
3056.623419100239
 10
-9.999999999999886
 20
3056.623419100239
  0
LINE
  5
78
330
2
100
AcDbEntity
  8
Plankopf
 62
     0
100
AcDbLine
 10
1134.159999999999
 20
2129.307684828239
 30
0.0
 11
1300.303999999999
 21
2129.307684828239
 31
0.0
  0
LINE
  5
79
330
2
100
AcDbEntity
  8
Plankopf
 62
     0
100
AcDbLine
 10
1134.159999999999
 20
2141.228733660239
 30
0.0
 11
1387.6
 21
2141.228733660239
 31
0.0
  0
LINE
  5
7A
330
2
100
AcDbEntity
  8
Plankopf
 62
     0
100
AcDbLine
 10
993.3599999999996
 20
2117.386619100239
 30
0.0
 11
1387.6
 21
2117.386619100239
 31
0.0
  0
LINE
  5
7B
330
2
100
AcDbEntity
  8
Plankopf
 62
     0
100
AcDbLine
 10
852.5599999999993
 20
2153.149819100239
 30
0.0
 11
1343.952
 21
2153.149819100239
 31
0.0
  0
LINE
  5
7C
330
2
100
AcDbEntity
  8
Plankopf
 62
     0
100
AcDbLine
 10
852.5599999999993
 20
2177.085819100239
 30
0.0
 11
1387.6
 21
2177.085819100238
 31
0.0
  0
LINE
  5
7D
330
2
100
AcDbEntity
  8
Plankopf
 62
     0
100
AcDbLine
 10
852.5599999999991
 20
2177.085819100239
 30
0.0
 11
852.5599999999993
 21
2153.149819100239
 31
0.0
  0
LINE
  5
7E
330
2
100
AcDbEntity
  8
Plankopf
 62
     0
100
AcDbLine
 10
852.5599999999993
 20
2153.149819100239
 30
0.0
 11
852.5599999999993
 21
2081.623419100239
 31
0.0
  0
LINE
  5
7F
330
2
100
AcDbEntity
  8
Plankopf
 62
     0
100
AcDbLine
 10
938.4479999999994
 20
2153.149819100239
 30
0.0
 11
938.4479999999996
 21
2177.085819100239
 31
0.0
  0
LINE
  5
80
330
2
100
AcDbEntity
  8
Plankopf
 62
     0
100
AcDbLine
 10
1052.495999999999
 20
2153.149819100239
 30
0.0
 11
1052.495999999999
 21
2177.085819100239
 31
0.0
  0
LINE
  5
81
330
2
100
AcDbEntity
  8
Plankopf
 62
     0
100
AcDbLine
 10
880.7199999999992
 20
2153.149819100239
 30
0.0
 11
880.7199999999994
 21
2177.085819100239
 31
0.0
  0
LINE
  5
82
330
2
100
AcDbEntity
  8
Plankopf
 62
     0
100
AcDbLine
 10
915.9199999999994
 20
2153.149819100239
 30
0.0
 11
915.9199999999994
 21
2177.085819100239
 31
0.0
  0
LINE
  5
83
330
2
100
AcDbEntity
  8
Plankopf
 62
     0
100
AcDbLine
 10
993.3599999999996
 20
2129.307684828239
 30
0.0
 11
1134.159999999999
 21
2129.307684828239
 31
0.0
  0
LINE
  5
84
330
2
100
AcDbEntity
  8
Plankopf
 62
     0
100
AcDbLine
 10
1015.887999999999
 20
2141.181819100239
 30
0.0
 11
1134.159999999999
 21
2141.181819100239
 31
0.0
  0
LINE
  5
85
330
2
100
AcDbEntity
  8
Plankopf
 62
     0
100
AcDbLine
 10
993.3599999999996
 20
2081.623419100239
 30
0.0
 11
993.3599999999994
 21
2153.149819100239
 31
0.0
  0
LINE
  5
86
330
2
100
AcDbEntity
  8
Plankopf
 62
     0
100
AcDbLine
 10
1029.968
 20
2117.386619100239
 30
0.0
 11
1029.968
 21
2129.307684828239
 31
0.0
  0
LINE
  5
87
330
2
100
AcDbEntity
  8
Plankopf
 62
     0
100
AcDbLine
 10
1187.067143682837
 20
2117.386619100239
 30
0.0
 11
1187.067143682837
 21
2153.149819100239
 31
0.0
  0
LINE
  5
88
330
2
100
AcDbEntity
  8
Plankopf
 62
     0
100
AcDbLine
 10
1134.159999999999
 20
2117.386619100239
 30
0.0
 11
1134.159999999999
 21
2153.149819100239
 31
0.0
  0
LINE
  5
89
330
2
100
AcDbEntity
  8
Plankopf
 62
     0
100
AcDbLine
 10
1343.952
 20
2117.386619100239
 30
0.0
 11
1343.952
 21
2153.149819100239
 31
0.0
  0
LINE
  5
8A
330
2
100
AcDbEntity
  8
Plankopf
 62
     0
100
AcDbLine
 10
1343.952
 20
2153.149819100239
 30
0.0
 11
1343.952
 21
2177.085819100239
 31
0.0
  0
LINE
  5
8B
330
2
100
AcDbEntity
  8
Plankopf
 62
     0
100
AcDbLine
 10
1258.064
 20
2081.623419100239
 30
0.0
 11
1258.064
 21
2117.386619100239
 31
0.0
  0
LINE
  5
8C
330
2
100
AcDbEntity
  8
Plankopf
 62
     0
100
AcDbLine
 10
1249.0528
 20
2153.149819100239
 30
0.0
 11
1249.0528
 21
2141.228733660239
 31
0.0
  0
LINE
  5
8D
330
2
100
AcDbEntity
  8
Plankopf
 62
     0
100
AcDbLine
 10
1300.303999999999
 20
2117.386619100239
 30
0.0
 11
1300.303999999999
 21
2141.228733660239
 31
0.0
  0
TEXT
  5
8E
330
2
100
AcDbEntity
  8
Plankopf
 62
     0
100
AcDbText
 10
905.4192174273019
 20
2124.909778170413
 30
0.0
 40
5.588351999999999
  1
Columbus Treppen AG
  7
TECHNICBOLD
100
AcDbText
  0
TEXT
  5
8F
330
2
100
AcDbEntity
  8
Plankopf
 62
     0
100
AcDbText
 10
905.4192174273019
 20
2116.527250170413
 30
0.0
 40
5.588351999999999
  1
Industriestrasse 12
  7
TECHNICBOLD
100
AcDbText
  0
TEXT
  5
90
330
2
100
AcDbEntity
  8
Plankopf
 62
     0
100
AcDbText
 10
905.4192174273019
 20
2108.144722170413
 30
0.0
 40
5.588351999999999
  1
9245 Oberbüren
  7
TECHNICBOLD
100
AcDbText
  0
TEXT
  5
91
330
2
100
AcDbEntity
  8
Plankopf
 62
     0
100
AcDbText
 10
904.829693772065
 20
2099.762194170413
 30
0.0
 40
5.588351999999999
  1
Tel. 071 - 955 96 00
  7
TECHNICBOLD
100
AcDbText
  0
TEXT
  5
92
330
2
100
AcDbEntity
  8
Plankopf
 62
     0
100
AcDbText
 10
905.4192174273019
 20
2091.379666170413
 30
0.0
 40
5.588351999999999
  1
Fax 071 - 955 96 60
  7
TECHNICBOLD
100
AcDbText
  0
TEXT
  5
93
330
2
100
AcDbEntity
  8
Plankopf
 62
     0
100
AcDbText
 10
863.4612291465455
 20
2139.303257004534
 30
0.0
 40
8.0256
  1
COLUMBUS TREPPEN
  7
TECHNICBOLD
100
AcDbText
  0
ARC
  5
94
330
2
100
AcDbEntity
  8
Plankopf
 62
     0
100
AcDbCircle
 10
878.2564556567038
 20
2108.783732396862
 30
0.0
 40
7.73696
100
AcDbArc
 50
26.99999999998745
 51
333.0000000000126
  0
ARC
  5
95
330
2
100
AcDbEntity
  8
Plankopf
 62
     0
100
AcDbCircle
 10
878.2564556567038
 20
2108.783732396862
 30
0.0
 40
13.11552
100
AcDbArc
 50
26.99999999998745
 51
333.0000000000126
  0
ARC
  5
96
330
2
100
AcDbEntity
  8
Plankopf
 62
     0
100
AcDbCircle
 10
878.2564556567038
 20
2108.783732396862
 30
0.0
 40
20.33856
100
AcDbArc
 50
206.9999999999875
 51
153.0000000000125
  0
ARC
  5
97
330
2
100
AcDbEntity
  8
Plankopf
 62
     0
100
AcDbCircle
 10
878.2564556567038
 20
2108.783732396862
 30
0.0
 40
14.96
100
AcDbArc
 50
206.9999999999875
 51
153.0000000000125
  0
LWPOLYLINE
  5
98
330
2
100
AcDbEntity
  8
Plankopf
 62
     0
100
AcDbPolyline
 90
        2
 70
     0
 43
5.378559999999999
 10
867.830215656704
 20
2108.783732396862
 42
0.7883364345850938
 10
887.5463035194579
 20
2104.050318488857
 42
1.0
  0
LWPOLYLINE
  5
99
330
2
100
AcDbEntity
  8
Plankopf
 62
     0
100
AcDbPolyline
 90
        2
 70
     0
 43
5.378559999999999
 10
887.5463035194579
 20
2113.517146304866
 42
0.7883364345850913
 10
867.830215656704
 20
2108.783732396862
 42
1.0
  0
LWPOLYLINE
  5
9A
330
2
100
AcDbEntity
  8
Plankopf
 62
     0
100
AcDbPolyline
 90
        3
 70
     0
 43
5.378560000000001
 10
862.530832029477
 20
2100.771126949618
 42
0.7883364345850931
 10
895.9057356567043
 20
2108.783732396862
 42
0.7883364345850921
 10
862.530832029477
 20
2116.796337844105
 42
1.0
  0
LINE
  5
9B
330
2
100
AcDbEntity
  8
Plankopf
 62
     0
100
AcDbLine
 10
864.926998054846
 20
2101.992034520758
 30
0.0
 11
860.1346660041071
 21
2099.550219378479
 31
0.0
  0
LINE
  5
9C
330
2
100
AcDbEntity
  8
Plankopf
 62
     0
100
AcDbLine
 10
864.926998054846
 20
2115.575430272966
 30
0.0
 11
860.1346660041071
 21
2118.017245415245
 31
0.0
  0
CIRCLE
  5
9D
330
2
100
AcDbEntity
  8
Plankopf
 62
     0
100
AcDbCircle
 10
878.2564556567038
 20
2108.783732396862
 30
0.0
 40
5.892480000000001
  0
LWPOLYLINE
  5
9E
330
2
100
AcDbEntity
  8
Plankopf
 62
     0
100
AcDbPolyline
 90
        2
 70
     1
 43
5.892480000000001
 10
875.3102156567036
 20
2108.783732396862
 42
1.0
 10
881.2026956567041
 20
2108.783732396862
 42
1.0
  0
LINE
  5
9F
330
2
100
AcDbEntity
  8
Plankopf
 62
     0
100
AcDbLine
 10
885.1501374940889
 20
2105.271226059997
 30
0.0
 11
889.9424695448269
 21
2102.829410917718
 31
0.0
  0
LINE
  5
A0
330
2
100
AcDbEntity
  8
Plankopf
 62
     0
100
AcDbLine
 10
885.1501374940889
 20
2112.296238733727
 30
0.0
 11
889.9424695448269
 21
2114.738053876006
 31
0.0
  0
CIRCLE
  5
A1
330
2
100
AcDbEntity
  8
Plankopf
 62
     0
100
AcDbCircle
 10
986.2238317771232
 20
2143.945007239324
 30
0.0
 40
3.223971823094429
  0
TEXT
  5
A2
330
2
100
AcDbEntity
  8
Plankopf
 62
     0
100
AcDbText
 10
984.558454369864
 20
2142.32327073297
 30
0.0
 40
4.35950592
  1
c
  7
TECHNICBOLD
100
AcDbText
  0
TEXT
  5
A3
330
2
100
AcDbEntity
  8
Plankopf
 62
     0
100
AcDbText
 10
1273.898362514371
 20
2086.073511906866
 30
0.0
 40
14.19264
  1
E01Zuerich
  7
TECHNICBOLD
100
AcDbText
  0
TEXT
  5
A4
102
{ACAD_XDICTIONARY
360
A5
102
}
330
2
100
AcDbEntity
  8
Plankopf
 62
     0
100
AcDbText
 10
1057.825313647412
 20
2161.920287265399
 30
0.0
 40
7.601428799999998
  1
Spezial Lukenkasten Typ Zürich EI30 
  7
TECHNICBOLD
100
AcDbText
1001
AcadAnnotative
1000
AnnotativeData
1002
{
1070
     1
1070
     0
1002
}
  0
TEXT
  5
A8
330
2
100
AcDbEntity
  8
Plankopf
 62
     0
100
AcDbText
 10
996.1583040453469
 20
2120.531133660239
 30
0.0
 40
5.632
  1
Sach-Nr.
  7
TECHNICBOLD
100
AcDbText
  0
TEXT
  5
A9
330
2
100
AcDbEntity
  8
Plankopf
 62
     0
100
AcDbText
 10
997.8655999999981
 20
2108.610085766907
 30
0.0
 40
5.632
  1
Benennung
  7
TECHNICBOLD
100
AcDbText
  0
TEXT
  5
AA
330
2
100
AcDbEntity
  8
Plankopf
 62
     0
100
AcDbText
 10
1136.068742732146
 20
2132.452199388239
 30
0.0
 40
5.632
  1
Ursprung
  7
TECHNICBOLD
100
AcDbText
  0
TEXT
  5
AB
330
2
100
AcDbEntity
  8
Plankopf
 62
     0
100
AcDbText
 10
1136.068742732146
 20
2120.531133660239
 30
0.0
 40
5.632
  1
Ersatz für
  7
TECHNICBOLD
100
AcDbText
  0
TEXT
  5
AC
330
2
100
AcDbEntity
  8
Plankopf
 62
     0
100
AcDbText
 10
1136.068742732146
 20
2144.373248220238
 30
0.0
 40
5.632
  1
Gezeichnet
  7
TECHNICBOLD
100
AcDbText
  0
TEXT
  5
AD
330
2
100
AcDbEntity
  8
Plankopf
 62
     0
100
AcDbText
 10
1262.569599999998
 20
2108.610085766907
 30
0.0
 40
5.632
  1
Zeichnungs-Nr.
  7
TECHNICBOLD
100
AcDbText
  0
TEXT
  5
AE
330
2
100
AcDbEntity
  8
Plankopf
 62
     0
100
AcDbText
 10
1301.804732345299
 20
2133.109257653643
 30
0.0
 40
4.5056
  1
Anzahl Blatt
  7
TECHNICBOLD
100
AcDbText
  0
TEXT
  5
AF
330
2
100
AcDbEntity
  8
Plankopf
 62
     0
100
AcDbText
 10
1352.532152321873
 20
2133.109257653643
 30
0.0
 40
4.5056
  1
Blatt-Nr.
  7
TECHNICBOLD
100
AcDbText
  0
TEXT
  5
B0
330
2
100
AcDbEntity
  8
Plankopf
 62
     0
100
AcDbText
 10
1348.457599999997
 20
2168.309285766907
 30
0.0
 40
5.632
  1
Massstab
  7
TECHNICBOLD
100
AcDbText
  0
TEXT
  5
B1
330
2
100
AcDbEntity
  8
Plankopf
 62
     0
100
AcDbText
 10
864.4497777777759
 20
2161.413068939905
 30
0.0
 40
5.632
  1
*
  7
TECHNICBOLD
 72
     1
 11
866.6399999999983
 21
2161.413068939905
 31
0.0
100
AcDbText
  0
TEXT
  5
B2
330
2
100
AcDbEntity
  8
Plankopf
 62
     0
100
AcDbText
 10
896.1297777777758
 20
2161.413068939905
 30
0.0
 40
5.632
  1
*
  7
TECHNICBOLD
 72
     1
 11
898.319999999998
 21
2161.413068939905
 31
0.0
100
AcDbText
  0
TEXT
  5
B3
330
2
100
AcDbEntity
  8
Plankopf
 62
     0
100
AcDbText
 10
1356.44607233358
 20
2148.399661137352
 30
0.0
 40
12.672
  1
1:5
  7
TECHNICBOLD
100
AcDbText
  0
TEXT
  5
B4
330
2
100
AcDbEntity
  8
Plankopf
 62
     0
100
AcDbText
 10
1316.794390702388
 20
2123.817294645139
 30
0.0
 40
4.5056
  1
1
  7
TECHNICBOLD
100
AcDbText
  0
TEXT
  5
B5
330
2
100
AcDbEntity
  8
Plankopf
 62
     0
100
AcDbText
 10
1367.521810678961
 20
2123.817294645139
 30
0.0
 40
4.5056
  1
1
  7
TECHNICBOLD
100
AcDbText
  0
TEXT
  5
B6
102
{ACAD_XDICTIONARY
360
B7
102
}
330
2
100
AcDbEntity
  8
Plankopf
 62
     0
100
AcDbText
 10
1048.602340662051
 20
2104.134057720674
 30
0.0
 40
8.001503999999998
  1
Spezial Lukenkasten Typ Zürich 
  7
TECHNICBOLD
100
AcDbText
1001
AcadAnnotative
1000
AnnotativeData
1002
{
1070
     1
1070
     0
1002
}
  0
TEXT
  5
BA
102
{ACAD_XDICTIONARY
360
BB
102
}
330
2
100
AcDbEntity
  8
Plankopf
 62
     0
100
AcDbText
 10
1048.602340662051
 20
2090.075804538521
 30
0.0
 40
8.001503999999998
  1
Feuerhemmend EI30
  7
TECHNICBOLD
100
AcDbText
1001
AcadAnnotative
1000
AnnotativeData
1002
{
1070
     1
1070
     0
1002
}
  0
TEXT
  5
BE
330
2
100
AcDbEntity
  8
Plankopf
 62
     0
100
AcDbText
 10
1021.716376303637
 20
2144.326333660238
 30
0.0
 40
5.632
  1
1
  7
TECHNICBOLD
100
AcDbText
  0
TEXT
  5
BF
330
2
100
AcDbEntity
  8
Plankopf
 62
     0
100
AcDbText
 10
1033.100412597007
 20
2144.148027179967
 30
0.0
 40
4.5056
  1
08.08.12 neue Ausführung EI30
  7
TECHNICBOLD
100
AcDbText
  0
TEXT
  5
C0
330
2
100
AcDbEntity
  8
Plankopf
 62
     0
100
AcDbText
 10
1190.613235401871
 20
2144.37324822024
 30
0.0
 40
5.632
  1
02.03.12 TE
  7
TECHNICBOLD
100
AcDbText
  0
TEXT
  5
C1
102
{ACAD_XDICTIONARY
360
C2
102
}
330
2
100
AcDbEntity
  8
Plankopf
 62
     0
100
AcDbText
 10
1259.576468430564
 20
2161.574014495985
 30
0.0
 40
7.601428799999998
  1
VKF Nr. 23863
  7
TECHNICBOLD
100
AcDbText
1001
AcadAnnotative
1000
AnnotativeData
1002
{
1070
     1
1070
     0
1002
}
  0
TEXT
  5
C5
330
2
100
AcDbEntity
  8
Plankopf
 62
     0
100
AcDbText
 10
1253.770588369634
 20
2144.37324822024
 30
0.0
 40
5.632
  1
En 1363-1 En1634-1
  7
TECHNICBOLD
100
AcDbText
  0
TEXT
  5
C6
330
2
100
AcDbEntity
  8
Plankopf
 62
     0
100
AcDbText
 10
1190.613235401875
 20
2132.405248220239
 30
0.0
 40
5.632
  1
E8629
  7
TECHNICBOLD
100
AcDbText
  0
TEXT
  5
C7
330
2
100
AcDbEntity
  8
Plankopf
 62
     0
100
AcDbText
 10
1190.613235401875
 20
2120.484199388239
 30
0.0
 40
5.632
  1
E8629 A
  7
TECHNICBOLD
100
AcDbText
  0
TEXT
  5
C8
330
2
100
AcDbEntity
  8
Beschriftung
100
AcDbText
 10
94.86281356390099
 20
2373.539314625802
 30
0.0
 40
11.2
  1
Konstruktionsdecke
 50
90.0
  7
TECHNICBOLD
100
AcDbText
  0
TEXT
  5
C9
330
2
100
AcDbEntity
  8
Beschriftung
100
AcDbText
 10
77.01281356390973
 20
2373.539314625802
 30
0.0
 40
11.2
  1
Beton oder
 50
90.0
  7
TECHNICBOLD
100
AcDbText
  0
LWPOLYLINE
  5
CA
330
2
100
AcDbEntity
  8
Beschriftung
100
AcDbPolyline
 90
        4
 70
     1
 43
0.0
 10
537.2621902322198
 20
2500.868964516205
 10
796.8316382420826
 20
2500.868964516205
 10
796.8316382420826
 20
2565.257271107194
 10
537.2621902322198
 20
2565.257271107194
  0
LINE
  5
CB
330
2
100
AcDbEntity
  8
Beschriftung
100
AcDbLine
 10
1230.832843330378
 20
2525.737599795404
 30
0.0
 11
796.8316382420826
 21
2525.737599795404
 31
0.0
  0
LINE
  5
CC
330
2
100
AcDbEntity
  8
Plankopf
 62
     0
100
AcDbLine
 10
1029.968
 20
2129.213819100239
 30
0.0
 11
1029.968
 21
2153.149819100239
 31
0.0
  0
LINE
  5
CD
330
2
100
AcDbEntity
  8
Plankopf
 62
     0
100
AcDbLine
 10
1015.887999999999
 20
2129.213819100239
 30
0.0
 11
1015.887999999999
 21
2153.149819100239
 31
0.0
  0
TEXT
  5
CE
330
2
100
AcDbEntity
  8
Plankopf
 62
     0
100
AcDbText
 10
995.9059513420738
 20
2139.22353963721
 30
0.0
 40
5.632
  1
änd.
  7
TECHNICBOLD
 72
     1
 11
1003.917553681255
 21
2139.22353963721
 31
0.0
100
AcDbText
  0
LINE
  5
CF
330
2
100
AcDbEntity
  8
Kasten
100
AcDbLine
 10
1207.77219144721
 20
2917.799942740067
 30
0.0
 11
1207.77219144721
 21
2869.306949316467
 31
0.0
  0
LINE
  5
D2
330
2
100
AcDbEntity
  8
Kasten
100
AcDbLine
 10
1187.772191447211
 20
2917.799942740067
 30
0.0
 11
1187.772191447211
 21
2862.250559654818
 31
0.0
  0
LINE
  5
D3
330
2
100
AcDbEntity
  8
Kasten
100
AcDbLine
 10
180.7091900191735
 20
2937.147598266592
 30
0.0
 11
222.7299361532018
 21
2939.349812255293
 31
0.0
  0
LINE
  5
D4
330
2
100
AcDbEntity
  8
Kasten
100
AcDbLine
 10
183.2091900191735
 20
2921.299942740069
 30
0.0
 11
183.2091900191735
 21
2850.299942740069
 31
0.0
  0
LINE
  5
D5
330
2
100
AcDbEntity
  8
Kasten
100
AcDbLine
 10
187.7091900191735
 20
2859.040728689748
 30
0.0
 11
187.7091900191735
 21
2871.559156790391
 31
0.0
  0
LINE
  5
D6
330
2
100
AcDbEntity
  8
Kasten
100
AcDbLine
 10
192.9148020129501
 20
2865.299942740069
 30
0.0
 11
181.5819584527517
 21
2865.299942740069
 31
0.0
  0
LINE
  5
D7
330
2
100
AcDbEntity
  8
Kasten
100
AcDbLine
 10
180.7091900191735
 20
2850.299942740069
 30
0.0
 11
183.2091900191735
 21
2850.299942740069
 31
0.0
  0
LINE
  5
D8
330
2
100
AcDbEntity
  8
Kasten
100
AcDbLine
 10
190.6763179515978
 20
2868.299942740069
 30
0.0
 11
187.7091900191735
 21
2868.299942740069
 31
0.0
  0
LINE
  5
D9
330
2
100
AcDbEntity
  8
Kasten
100
AcDbLine
 10
191.2763179515978
 20
2867.699942740069
 30
0.0
 11
187.7091900191735
 21
2867.699942740069
 31
0.0
  0
LINE
  5
DA
330
2
100
AcDbEntity
  8
Kasten
100
AcDbLine
 10
190.6763179515978
 20
2862.299942740069
 30
0.0
 11
187.7091900191735
 21
2862.299942740069
 31
0.0
  0
LINE
  5
DB
330
2
100
AcDbEntity
  8
Kasten
100
AcDbLine
 10
191.2763179515978
 20
2862.89994274007
 30
0.0
 11
187.7091900191735
 21
2862.899942740069
 31
0.0
  0
LINE
  5
DC
330
2
100
AcDbEntity
  8
Kasten
100
AcDbLine
 10
191.2763179515978
 20
2862.89994274007
 30
0.0
 11
191.2763179515978
 21
2867.699942740069
 31
0.0
  0
LINE
  5
DD
330
2
100
AcDbEntity
  8
Kasten
100
AcDbLine
 10
191.2763179515978
 20
2862.89994274007
 30
0.0
 11
190.6763179515978
 21
2862.299942740069
 31
0.0
  0
LINE
  5
DE
330
2
100
AcDbEntity
  8
Kasten
100
AcDbLine
 10
190.6763179515978
 20
2862.299942740069
 30
0.0
 11
190.6763179515978
 21
2868.299942740069
 31
0.0
  0
LINE
  5
DF
330
2
100
AcDbEntity
  8
Kasten
100
AcDbLine
 10
191.2763179515978
 20
2867.699942740069
 30
0.0
 11
190.6763179515978
 21
2868.299942740069
 31
0.0
  0
LINE
  5
E0
330
2
100
AcDbEntity
  8
Kasten
100
AcDbLine
 10
187.7091900191735
 20
2859.040728689748
 30
0.0
 11
183.2091900191735
 21
2859.040728689748
 31
0.0
  0
LINE
  5
E1
330
2
100
AcDbEntity
  8
Kasten
100
AcDbLine
 10
192.9148020129501
 20
2896.299942740069
 30
0.0
 11
181.5819584527517
 21
2896.299942740069
 31
0.0
  0
LINE
  5
E2
330
2
100
AcDbEntity
  8
Kasten
100
AcDbLine
 10
191.2763179515978
 20
2898.69994274007
 30
0.0
 11
190.6763179515978
 21
2899.299942740069
 31
0.0
  0
LINE
  5
E3
330
2
100
AcDbEntity
  8
Kasten
100
AcDbLine
 10
191.2763179515978
 20
2898.69994274007
 30
0.0
 11
187.7091900191735
 21
2898.69994274007
 31
0.0
  0
LINE
  5
E4
330
2
100
AcDbEntity
  8
Kasten
100
AcDbLine
 10
190.6763179515978
 20
2899.299942740069
 30
0.0
 11
187.7091900191735
 21
2899.299942740069
 31
0.0
  0
LINE
  5
E5
330
2
100
AcDbEntity
  8
Kasten
100
AcDbLine
 10
191.2763179515978
 20
2893.89994274007
 30
0.0
 11
190.6763179515978
 21
2893.299942740069
 31
0.0
  0
LINE
  5
E6
330
2
100
AcDbEntity
  8
Kasten
100
AcDbLine
 10
191.2763179515978
 20
2893.89994274007
 30
0.0
 11
187.7091900191735
 21
2893.899942740069
 31
0.0
  0
LINE
  5
E7
330
2
100
AcDbEntity
  8
Kasten
100
AcDbLine
 10
190.6763179515978
 20
2893.299942740069
 30
0.0
 11
187.7091900191735
 21
2893.299942740069
 31
0.0
  0
LINE
  5
E8
330
2
100
AcDbEntity
  8
Kasten
100
AcDbLine
 10
190.6763179515978
 20
2893.299942740069
 30
0.0
 11
190.6763179515978
 21
2899.299942740069
 31
0.0
  0
LINE
  5
E9
330
2
100
AcDbEntity
  8
Kasten
100
AcDbLine
 10
191.2763179515978
 20
2893.89994274007
 30
0.0
 11
191.2763179515978
 21
2898.69994274007
 31
0.0
  0
LINE
  5
EA
330
2
100
AcDbEntity
  8
Kasten
100
AcDbLine
 10
187.7091900191735
 20
2902.559156790391
 30
0.0
 11
183.2091900191735
 21
2902.559156790391
 31
0.0
  0
LINE
  5
EB
330
2
100
AcDbEntity
  8
Kasten
100
AcDbLine
 10
187.7091900191735
 20
2890.040728689747
 30
0.0
 11
183.2091900191735
 21
2890.040728689748
 31
0.0
  0
LINE
  5
EC
330
2
100
AcDbEntity
  8
Kasten
100
AcDbLine
 10
187.7091900191735
 20
2890.040728689747
 30
0.0
 11
187.7091900191735
 21
2902.559156790391
 31
0.0
  0
LINE
  5
ED
330
2
100
AcDbEntity
  8
Kasten
100
AcDbLine
 10
187.7091900191735
 20
2871.559156790391
 30
0.0
 11
183.2091900191735
 21
2871.559156790391
 31
0.0
  0
LINE
  5
EE
330
2
100
AcDbEntity
  8
Kasten
100
AcDbLine
 10
164.0716590128154
 20
2937.799942740069
 30
0.0
 11
142.7091900191735
 21
2937.782062761954
 31
0.0
  0
ARC
  5
EF
330
2
100
AcDbEntity
  8
Kasten
100
AcDbCircle
 10
143.2091900191735
 20
2930.799942740069
 30
0.0
 40
7.0
100
AcDbArc
 50
94.09604375814486
 51
265.903956241829
  0
ARC
  5
F0
330
2
100
AcDbEntity
  8
Kasten
100
AcDbCircle
 10
143.2091900191735
 20
2930.799942740069
 30
0.0
 40
3.5
100
AcDbArc
 50
98.21321070172317
 51
261.7867892982769
  0
ARC
  5
F1
330
2
100
AcDbEntity
  8
Kasten
100
AcDbCircle
 10
178.2091900191735
 20
2921.299942740069
 30
0.0
 40
5.0
100
AcDbArc
 50
0.0
 51
60.00000000000067
  0
LINE
  5
F2
330
2
100
AcDbEntity
  8
Kasten
100
AcDbLine
 10
222.5990962625942
 20
2941.846386092179
 30
0.0
 11
222.7299361532018
 21
2939.349812255293
 31
0.0
  0
LINE
  5
F3
330
2
100
AcDbEntity
  8
Kasten
100
AcDbLine
 10
1254.255230974149
 20
2830.427186224799
 30
0.0
 11
1249.761398067754
 21
2830.191674421706
 31
0.0
  0
LINE
  5
F4
330
2
100
AcDbEntity
  8
Kasten
100
AcDbLine
 10
1253.600067068844
 20
2842.928458254802
 30
0.0
 11
1249.106234162449
 21
2842.692946451709
 31
0.0
  0
LINE
  5
F5
330
2
100
AcDbEntity
  8
Kasten
100
AcDbLine
 10
1257.364282034081
 20
2839.261222174595
 30
0.0
 11
1256.733702739482
 21
2839.828998321703
 31
0.0
  0
LINE
  5
F6
330
2
100
AcDbEntity
  8
Kasten
100
AcDbLine
 10
1257.04771847694
 20
2833.837221113175
 30
0.0
 11
1256.733702739482
 21
2839.828998321703
 31
0.0
  0
LINE
  5
F7
330
2
100
AcDbEntity
  8
Kasten
100
AcDbLine
 10
1257.615494624048
 20
2834.467800407774
 30
0.0
 11
1257.04771847694
 21
2833.837221113175
 31
0.0
  0
LINE
  5
F8
330
2
100
AcDbEntity
  8
Kasten
100
AcDbLine
 10
1257.615494624048
 20
2834.467800407774
 30
0.0
 11
1257.364282034081
 21
2839.261222174595
 31
0.0
  0
LINE
  5
F9
330
2
100
AcDbEntity
  8
Kasten
100
AcDbLine
 10
1257.615494624048
 20
2834.467800407774
 30
0.0
 11
1254.053255316479
 21
2834.28111135639
 31
0.0
  0
LINE
  5
FA
330
2
100
AcDbEntity
  8
Kasten
100
AcDbLine
 10
1257.04771847694
 20
2833.837221113175
 30
0.0
 11
1254.084656890225
 21
2833.681933635537
 31
0.0
  0
LINE
  5
FB
330
2
100
AcDbEntity
  8
Kasten
100
AcDbLine
 10
1257.364282034081
 20
2839.261222174595
 30
0.0
 11
1253.802042726515
 21
2839.074533123211
 31
0.0
  0
LINE
  5
FC
330
2
100
AcDbEntity
  8
Kasten
100
AcDbLine
 10
1256.733702739482
 20
2839.828998321703
 30
0.0
 11
1253.770641152769
 21
2839.673710844064
 31
0.0
  0
LINE
  5
FD
330
2
100
AcDbEntity
  8
Kasten
100
AcDbLine
 10
1254.255230974149
 20
2830.427186224799
 30
0.0
 11
1253.600067068844
 21
2842.928458254802
 31
0.0
  0
LINE
  5
FE
330
2
100
AcDbEntity
  8
Kasten
100
AcDbLine
 10
1252.266464636917
 20
2868.375108545473
 30
0.0
 11
1247.772631730522
 21
2868.139596742379
 31
0.0
  0
LINE
  5
FF
330
2
100
AcDbEntity
  8
Kasten
100
AcDbLine
 10
1251.611300731612
 20
2880.876380575477
 30
0.0
 11
1247.117467825217
 21
2880.640868772383
 31
0.0
  0
LINE
  5
100
330
2
100
AcDbEntity
  8
Kasten
100
AcDbLine
 10
1255.626728286816
 20
2872.415722728448
 30
0.0
 11
1255.058952139708
 21
2871.78514343385
 31
0.0
  0
LINE
  5
101
330
2
100
AcDbEntity
  8
Kasten
100
AcDbLine
 10
1254.74493640225
 20
2877.776920642377
 30
0.0
 11
1255.058952139708
 21
2871.78514343385
 31
0.0
  0
LINE
  5
102
330
2
100
AcDbEntity
  8
Kasten
100
AcDbLine
 10
1255.375515696849
 20
2877.20914449527
 30
0.0
 11
1254.74493640225
 21
2877.776920642377
 31
0.0
  0
LINE
  5
103
330
2
100
AcDbEntity
  8
Kasten
100
AcDbLine
 10
1255.375515696849
 20
2877.20914449527
 30
0.0
 11
1255.626728286816
 21
2872.415722728448
 31
0.0
  0
LINE
  5
104
330
2
100
AcDbEntity
  8
Kasten
100
AcDbLine
 10
1255.375515696849
 20
2877.20914449527
 30
0.0
 11
1251.813276389283
 21
2877.022455443885
 31
0.0
  0
LINE
  5
105
330
2
100
AcDbEntity
  8
Kasten
100
AcDbLine
 10
1254.74493640225
 20
2877.776920642377
 30
0.0
 11
1251.781874815537
 21
2877.621633164738
 31
0.0
  0
LINE
  5
106
330
2
100
AcDbEntity
  8
Kasten
100
AcDbLine
 10
1255.626728286816
 20
2872.415722728448
 30
0.0
 11
1252.064488979247
 21
2872.229033677064
 31
0.0
  0
LINE
  5
107
330
2
100
AcDbEntity
  8
Kasten
100
AcDbLine
 10
1255.058952139708
 20
2871.78514343385
 30
0.0
 11
1252.095890552993
 21
2871.629855956211
 31
0.0
  0
LINE
  5
108
330
2
100
AcDbEntity
  8
Kasten
100
AcDbLine
 10
1251.611300731612
 20
2880.876380575477
 30
0.0
 11
1252.266464636917
 21
2868.375108545473
 31
0.0
  0
LINE
  5
109
330
2
100
AcDbEntity
  8
Kasten
100
AcDbLine
 10
1187.772191447211
 20
2842.22311273486
 30
0.0
 11
1187.77219144721
 21
2697.799942740068
 31
0.0
  0
LINE
  5
10A
330
2
100
AcDbEntity
  8
Kasten
100
AcDbLine
 10
1207.77219144721
 20
2837.263034244534
 30
0.0
 11
1207.77219144721
 21
2697.799942740068
 31
0.0
  0
HATCH
  5
10B
330
2
100
AcDbEntity
  8
Kasten
 48
10.0
100
AcDbHatch
 10
0.0
 20
0.0
 30
0.0
210
0.0
220
0.0
230
1.0
  2
ANSI31
 70
     0
 71
     0
 91
        1
 92
        1
 93
        4
 72
     1
 10
165.7091900191735
 20
2367.032965462815
 11
167.5091900191746
 21
2367.032965462815
 72
     1
 10
167.5091900191746
 20
2367.032965462815
 11
167.5091900191746
 21
2351.032965462815
 72
     1
 10
167.5091900191746
 20
2351.032965462815
 11
165.7091900191735
 21
2351.032965462815
 72
     1
 10
165.7091900191735
 20
2351.032965462815
 11
165.7091900191735
 21
2367.032965462815
 97
        0
 75
     1
 76
     1
 52
0.0
 41
1.0
 77
     0
 78
     1
 53
45.0
 43
-1863.721976999019
 44
0.0
 45
-0.0883883476483184
 46
0.0883883476483185
 79
     0
 98
        1
 10
5223.515927341145
 20
-1037.616013464638
1001
GradientColor1ACI
1070
     5
1001
GradientColor2ACI
1070
     2
1001
ACAD
1010
0.0
1020
0.0
1030
0.0
  0
LWPOLYLINE
  5
10E
330
2
100
AcDbEntity
  8
Kasten
100
AcDbPolyline
 90
        4
 70
     1
 43
0.0
 10
165.7091900191735
 20
2367.032965462815
 10
167.5091900191746
 20
2367.032965462815
 10
167.5091900191746
 20
2351.032965462815
 10
165.7091900191735
 20
2351.032965462815
  0
LWPOLYLINE
  5
10F
330
2
100
AcDbEntity
  8
Kasten
100
AcDbPolyline
 90
        4
 70
     1
 43
0.0
 10
96.70919001917354
 20
2318.032965462815
 10
156.7091900191735
 20
2318.032965462815
 10
156.7091900191735
 20
2310.032965462815
 10
96.70919001917354
 20
2310.032965462815
  0
LWPOLYLINE
  5
110
330
2
100
AcDbEntity
  8
Kasten
100
AcDbPolyline
 90
        4
 70
     1
 43
0.0
 10
163.7091900191753
 20
2343.432965462814
 10
221.7091900191753
 20
2343.432965462814
 10
221.7091900191753
 20
2322.032965462815
 10
163.7091900191753
 20
2322.032965462815
  0
HATCH
  5
111
330
2
100
AcDbEntity
  8
Kasten
 48
10.0
100
AcDbHatch
 10
0.0
 20
0.0
 30
0.0
210
0.0
220
0.0
230
1.0
  2
ANSI31
 70
     0
 71
     0
 91
        1
 92
        7
 72
     0
 73
     1
 93
        7
 10
160.5091900191746
 20
2351.032965462815
 10
158.7091900191735
 20
2351.032965462815
 10
156.7091900191735
 20
2351.032965462815
 10
156.7091900191735
 20
2310.032965462814
 10
158.7091900191735
 20
2310.032965462814
 10
158.7091900191735
 20
2335.032965462815
 10
160.5091900191746
 20
2335.032965462815
 97
        0
 75
     1
 76
     1
 52
0.0
 41
1.0
 77
     0
 78
     1
 53
45.0
 43
-1863.721976999019
 44
0.0
 45
-0.0883883476483184
 46
0.0883883476483185
 79
     0
 47
0.0747267265956861
 98
        1
 10
158.7202656406293
 20
2344.650197464539
1001
GradientColor1ACI
1070
     5
1001
GradientColor2ACI
1070
     2
1001
ACAD
1010
0.0
1020
0.0
1030
0.0
  0
LWPOLYLINE
  5
112
330
2
100
AcDbEntity
  8
Kasten
100
AcDbPolyline
 90
        7
 70
     1
 43
0.0
 10
156.7091900191735
 20
2351.032965462815
 10
158.7091900191735
 20
2351.032965462815
 10
160.5091900191746
 20
2351.032965462815
 10
160.5091900191746
 20
2335.032965462815
 10
158.7091900191735
 20
2335.032965462815
 10
158.7091900191735
 20
2310.032965462814
 10
156.7091900191735
 20
2310.032965462814
  0
LINE
  5
113
330
2
100
AcDbEntity
  8
Kasten
  6
STRICHPUNKT
100
AcDbLine
 10
283.7161857080646
 20
2469.668508940845
 30
0.0
 11
283.7161857080646
 21
2446.383007564788
 31
0.0
  0
LINE
  5
115
330
2
100
AcDbEntity
  8
Kasten
  6
STRICHPUNKT
100
AcDbLine
 10
272.0734350200364
 20
2458.025758252816
 30
0.0
 11
295.3589363960928
 21
2458.025758252816
 31
0.0
  0
LINE
  5
116
330
2
100
AcDbEntity
  8
Kasten
  6
STRICHPUNKT
100
AcDbLine
 10
126.9544137174889
 20
2458.025758252816
 30
0.0
 11
187.5675792382772
 21
2458.025758252816
 31
0.0
  0
HATCH
  5
117
330
2
100
AcDbEntity
  8
Bauseitig
100
AcDbHatch
 10
0.0
 20
0.0
 30
0.0
210
0.0
220
0.0
230
1.0
  2
AR-SAND,I
 70
     0
 71
     0
 91
        2
 92
        7
 72
     0
 73
     1
 93
        7
 10
1235.772191447209
 20
2427.032965462815
 10
1230.772191447209
 20
2427.032965462815
 10
1230.772191447209
 20
2328.032965462814
 10
1225.772191447209
 20
2328.032965462814
 10
1225.772191447209
 20
2318.032965462815
 10
1235.772191447209
 20
2318.032965462815
 10
1235.772191447209
 20
2326.032965462816
 97
        0
 92
        7
 72
     0
 73
     1
 93
        4
 10
1235.772191447209
 20
2558.032965462821
 10
1225.772191447209
 20
2558.032965462821
 10
1225.772191447209
 20
2503.032965462815
 10
1235.772191447209
 20
2503.032965462815
 97
        0
 75
     2
 76
     1
 52
0.0
 41
2.0
 77
     0
 78
     4
 53
37.5
 43
0.0
 44
2096.623419100239
 45
-0.1259867162192163
 46
3.853647538026317
 79
     6
 49
0.0
 49
-3.04
 49
0.0
 49
-3.399999999999999
 49
0.0
 49
-3.25
 53
7.499999999999999
 43
0.0
 44
2096.623419100239
 45
3.539553410535454
 46
5.64429213045948
 79
     6
 49
0.0
 49
-1.639999999999999
 49
0.0
 49
-2.74
 49
0.0
 49
-1.05
 53
327.5
 43
-2.460000000000036
 44
2096.623419100239
 45
6.22828372350299
 46
0.0113181070739299
 79
     6
 49
0.0
 49
-1.0
 49
0.0
 49
-3.6
 49
0.0
 49
-4.7
 53
317.5
 43
-2.460000000000036
 44
2096.623419100239
 45
6.012253209144587
 46
1.755351129868498
 79
     6
 49
0.0
 49
-0.5
 49
0.0
 49
-2.359999999999999
 49
0.0
 49
-2.7
 47
0.6014990469807611
 98
        2
 10
1234.778900590083
 20
2411.826056776347
 10
1232.371607545106
 20
2523.103376941177
1001
GradientColor1ACI
1070
     5
1001
GradientColor2ACI
1070
     2
1001
ACAD
1010
0.0
1020
0.0
1030
0.0
  0
LWPOLYLINE
  5
119
330
2
100
AcDbEntity
  8
Kasten
100
AcDbPolyline
 90
        4
 70
     1
 43
0.0
 10
1209.772191447209
 20
2318.032965462815
 10
1269.772191447209
 20
2318.032965462815
 10
1269.772191447209
 20
2310.032965462815
 10
1209.772191447209
 20
2310.032965462815
  0
LWPOLYLINE
  5
11A
330
2
100
AcDbEntity
  8
Kasten
100
AcDbPolyline
 90
        6
 70
     1
 43
0.0
 10
188.7091900191753
 20
2343.432965462814
 10
221.7091900191753
 20
2343.432965462814
 10
221.7091900191753
 20
2322.032965462814
 10
1177.772191447209
 20
2322.032965462815
 10
1177.772191447209
 20
2360.032965462814
 10
188.7091900191753
 20
2360.032965462814
  0
LWPOLYLINE
  5
11B
330
2
100
AcDbEntity
  8
Kasten
100
AcDbPolyline
 90
        4
 70
     1
 43
0.0
 10
1225.772191447209
 20
2388.032965462814
 10
1187.772191447209
 20
2388.032965462814
 10
1187.772191447209
 20
2677.799942740068
 10
1225.772191447209
 20
2677.799942740068
  0
HATCH
  5
11C
330
2
100
AcDbEntity
  8
Kasten
 48
10.0
100
AcDbHatch
 10
0.0
 20
0.0
 30
0.0
210
0.0
220
0.0
230
1.0
  2
ANSI31
 70
     0
 71
     1
 91
        1
 92
        1
 93
        4
 72
     1
 10
1202.772191447209
 20
2367.032965462815
 11
1200.97219144721
 21
2367.032965462815
 72
     1
 10
1200.97219144721
 20
2367.032965462815
 11
1200.97219144721
 21
2351.032965462815
 72
     1
 10
1200.97219144721
 20
2351.032965462815
 11
1202.772191447209
 21
2351.032965462815
 72
     1
 10
1202.772191447209
 20
2351.032965462815
 11
1202.772191447209
 21
2367.032965462815
 97
        1
330
11D
 75
     1
 76
     1
 52
0.0
 41
1.0
 77
     0
 78
     1
 53
45.0
 43
-1863.721976999019
 44
0.0
 45
-0.0883883476483184
 46
0.0883883476483185
 79
     0
 98
        1
 10
-3855.034545874758
 20
-1037.616013464643
1001
GradientColor1ACI
1070
     5
1001
GradientColor2ACI
1070
     2
1001
ACAD
1010
0.0
1020
0.0
1030
0.0
  0
LWPOLYLINE
  5
11D
102
{ACAD_REACTORS
330
11C
102
}
330
2
100
AcDbEntity
  8
Kasten
100
AcDbPolyline
 90
        4
 70
     1
 43
0.0
 10
1202.772191447209
 20
2367.032965462815
 10
1200.97219144721
 20
2367.032965462815
 10
1200.97219144721
 20
2351.032965462815
 10
1202.772191447209
 20
2351.032965462815
  0
HATCH
  5
11E
330
2
100
AcDbEntity
  8
Kasten
 48
10.0
100
AcDbHatch
 10
0.0
 20
0.0
 30
0.0
210
0.0
220
0.0
230
1.0
  2
ANSI31
 70
     0
 71
     1
 91
        1
 92
        1
 93
        4
 72
     1
 10
1206.072191447209
 20
2346.243491778604
 11
1204.272191447209
 21
2346.243491778604
 72
     1
 10
1204.272191447209
 20
2346.243491778604
 11
1204.272191447209
 21
2330.243491778604
 72
     1
 10
1204.272191447209
 20
2330.243491778604
 11
1206.072191447209
 21
2330.243491778604
 72
     1
 10
1206.072191447209
 20
2330.243491778604
 11
1206.072191447209
 21
2346.243491778604
 97
        1
330
11F
 75
     1
 76
     1
 52
0.0
 41
1.0
 77
     0
 78
     1
 53
45.0
 43
-1863.721976999019
 44
0.0
 45
-0.0883883476483184
 46
0.0883883476483185
 79
     0
 98
        1
 10
-3851.734545874757
 20
-1058.405487148854
1001
GradientColor1ACI
1070
     5
1001
GradientColor2ACI
1070
     2
1001
ACAD
1010
0.0
1020
0.0
1030
0.0
  0
LWPOLYLINE
  5
11F
102
{ACAD_REACTORS
330
11E
102
}
330
2
100
AcDbEntity
  8
Kasten
100
AcDbPolyline
 90
        4
 70
     1
 43
0.0
 10
1206.072191447209
 20
2346.243491778604
 10
1204.272191447209
 20
2346.243491778604
 10
1204.272191447209
 20
2330.243491778604
 10
1206.072191447209
 20
2330.243491778604
  0
LWPOLYLINE
  5
120
330
2
100
AcDbEntity
  8
Kasten
100
AcDbPolyline
 90
        4
 70
     1
 43
0.0
 10
170.7091900191753
 20
2360.032965462814
 10
1197.772191447209
 20
2360.032965462814
 10
1197.772191447209
 20
2364.032965462814
 10
170.7091900191753
 20
2364.032965462814
  0
LWPOLYLINE
  5
121
330
2
100
AcDbEntity
  8
Kasten
100
AcDbPolyline
 90
        4
 70
     1
 43
0.0
 10
203.6003892972317
 20
2318.032965462815
 10
1202.772191447209
 20
2318.032965462815
 10
1202.772191447209
 20
2322.032965462815
 10
200.5792596730789
 20
2322.032965462814
  0
LWPOLYLINE
  5
122
330
2
100
AcDbEntity
  8
Kasten
100
AcDbPolyline
 90
        8
 70
     0
 43
0.0
 10
1204.272191447209
 20
2346.032965462814
 10
1202.772191447209
 20
2346.032965462814
 10
1202.772191447209
 20
2316.032965462815
 42
3.732050807568986
 10
1204.522191447209
 20
2319.064054376061
 10
1204.272191447209
 20
2318.905246786084
 10
1205.12933430435
 20
2317.67426907611
 42
-4.075101114960545
 10
1204.272191447209
 20
2316.032965462815
 10
1204.272191447209
 20
2346.032965462814
  0
LWPOLYLINE
  5
123
330
2
100
AcDbEntity
  8
Kasten
100
AcDbPolyline
 90
        5
 70
     0
 43
0.0
 10
1208.272191447209
 20
2346.032965462814
 10
1209.772191447209
 20
2346.032965462814
 10
1209.772191447209
 20
2316.032965462815
 42
-3.732050807568986
 10
1208.022191447209
 20
2319.064054376061
 10
1208.272191447204
 20
2318.905246786075
  0
LWPOLYLINE
  5
124
330
2
100
AcDbEntity
  8
Kasten
100
AcDbPolyline
 90
        2
 70
     0
 43
0.0
 10
1208.272191447209
 20
2318.905246786084
 10
1208.272191447209
 20
2346.032965462814
  0
LWPOLYLINE
  5
125
330
2
100
AcDbEntity
  8
Kasten
100
AcDbPolyline
 90
        4
 70
     1
 43
0.0
 10
1225.772191447209
 20
2328.032965462814
 10
1230.772191447209
 20
2328.032965462814
 10
1230.772191447209
 20
2473.032965462815
 10
1225.772191447209
 20
2473.032965462815
  0
LWPOLYLINE
  5
126
330
2
100
AcDbEntity
  8
Kasten
100
AcDbPolyline
 90
        4
 70
     1
 43
0.0
 10
1225.772191447209
 20
2328.032965462814
 10
1230.772191447209
 20
2328.032965462814
 10
1230.772191447209
 20
2473.032965462815
 10
1225.772191447209
 20
2473.032965462815
  0
LINE
  5
127
330
2
100
AcDbEntity
  8
Kasten
  6
STRICHPUNKT
100
AcDbLine
 10
1085.772191447209
 20
2469.668508940845
 30
0.0
 11
1085.772191447209
 21
2446.383007564788
 31
0.0
  0
LINE
  5
128
330
2
100
AcDbEntity
  8
Kasten
  6
STRICHPUNKT
100
AcDbLine
 10
1097.414942135237
 20
2458.025758252816
 30
0.0
 11
1074.129440759181
 21
2458.025758252816
 31
0.0
  0
LWPOLYLINE
  5
129
330
2
100
AcDbEntity
  8
Kasten
100
AcDbPolyline
 90
        4
 70
     1
 43
0.0
 10
184.2568777021288
 20
2364.032965462814
 10
254.2568777021288
 20
2364.032965462814
 10
254.2568777021288
 20
2379.032965462814
 10
184.2568777021288
 20
2379.032965462814
  0
LWPOLYLINE
  5
12A
330
2
100
AcDbEntity
  8
Kasten
100
AcDbPolyline
 90
        4
 70
     1
 43
0.0
 10
142.7091900191735
 20
2917.799942740069
 10
180.7091900191735
 20
2917.799942740069
 10
180.7091900191735
 20
2937.799942740069
 10
142.7091900191735
 20
2937.799942740069
  0
LWPOLYLINE
  5
12B
330
2
100
AcDbEntity
  8
Kasten
100
AcDbPolyline
 90
        4
 70
     1
 43
0.0
 10
1187.772191447209
 20
2677.799942740068
 10
1225.772191447209
 20
2677.799942740068
 10
1225.772191447209
 20
2697.799942740068
 10
1187.772191447209
 20
2697.799942740068
  0
LINE
  5
12C
330
2
100
AcDbEntity
  8
Kasten
100
AcDbLine
 10
1187.772191447209
 20
2367.032965462815
 30
0.0
 11
254.2568777021288
 21
2367.103721674388
 31
0.0
  0
LINE
  5
12D
330
2
100
AcDbEntity
  8
Kasten
100
AcDbLine
 10
200.5792596730771
 20
2322.032965462816
 30
0.0
 11
214.2929994570277
 21
2303.875863332126
 31
0.0
  0
LINE
  5
12E
330
2
100
AcDbEntity
  8
Kasten
100
AcDbLine
 10
184.7091900191753
 20
2322.032965462816
 30
0.0
 11
215.8114165114512
 21
2279.042530699376
 31
0.0
  0
ARC
  5
12F
330
2
100
AcDbEntity
  8
Kasten
100
AcDbCircle
 10
228.5082731979291
 20
2287.932965462816
 30
0.0
 40
15.5
100
AcDbArc
 50
215.0000000000172
 51
115.6310844215338
  0
ARC
  5
130
330
2
100
AcDbEntity
  8
Kasten
100
AcDbCircle
 10
219.2079117227604
 20
2307.317321950233
 30
0.0
 40
6.0
100
AcDbArc
 50
215.0000000000172
 51
295.6310844215338
  0
LINE
  5
131
330
2
100
AcDbEntity
  8
Kasten
100
AcDbLine
 10
158.7091900191753
 20
2327.032965462814
 30
0.0
 11
163.7091900191753
 21
2327.032965462814
 31
0.0
  0
CIRCLE
  5
132
330
2
100
AcDbEntity
  8
Kasten
100
AcDbCircle
 10
1085.772191447209
 20
2458.025758252816
 30
0.0
 40
3.75
  0
CIRCLE
  5
133
330
2
100
AcDbEntity
  8
Kasten
100
AcDbCircle
 10
283.7161857080646
 20
2458.025758252816
 30
0.0
 40
3.75
  0
LINE
  5
134
330
2
100
AcDbEntity
  8
Bauseitig
 62
     5
100
AcDbLine
 10
136.3491900191734
 20
2503.312965462814
 30
0.0
 11
136.3491900191734
 21
2427.312965462814
 31
0.0
  0
LINE
  5
135
330
2
100
AcDbEntity
  8
Bauseitig
 62
     5
100
AcDbLine
 10
138.9891900191733
 20
2503.312965462814
 30
0.0
 11
138.9891900191733
 21
2427.312965462814
 31
0.0
  0
LINE
  5
136
330
2
100
AcDbEntity
  8
Bauseitig
 62
     5
100
AcDbLine
 10
142.7091900191744
 20
2490.545230862352
 30
0.0
 11
132.7091900191735
 21
2480.545230862352
 31
0.0
  0
LINE
  5
137
330
2
100
AcDbEntity
  8
Bauseitig
 62
     5
100
AcDbLine
 10
142.709190019174
 20
2484.181269842352
 30
0.0
 11
132.7091900191735
 21
2474.181269842352
 31
0.0
  0
LINE
  5
138
330
2
100
AcDbEntity
  8
Bauseitig
 62
     5
100
AcDbLine
 10
142.709190019174
 20
2477.817308786352
 30
0.0
 11
132.7091900191735
 21
2467.817308786352
 31
0.0
  0
LINE
  5
139
330
2
100
AcDbEntity
  8
Bauseitig
 62
     5
100
AcDbLine
 10
142.709190019174
 20
2471.453347766352
 30
0.0
 11
132.7091900191735
 21
2461.453347766352
 31
0.0
  0
LINE
  5
13A
330
2
100
AcDbEntity
  8
Bauseitig
 62
     5
100
AcDbLine
 10
142.7091900191744
 20
2452.361464678279
 30
0.0
 11
132.7091900191735
 21
2442.361464678278
 31
0.0
  0
LINE
  5
13B
330
2
100
AcDbEntity
  8
Bauseitig
 62
     5
100
AcDbLine
 10
142.709190019174
 20
2445.997503658279
 30
0.0
 11
132.7091900191735
 21
2435.997503658278
 31
0.0
  0
LINE
  5
13C
330
2
100
AcDbEntity
  8
Bauseitig
 62
     5
100
AcDbLine
 10
142.709190019174
 20
2439.633542602279
 30
0.0
 11
132.7091900191735
 21
2429.633542602279
 31
0.0
  0
LINE
  5
13D
330
2
100
AcDbEntity
  8
Bauseitig
 62
     5
100
AcDbLine
 10
142.709190019174
 20
2433.269581582278
 30
0.0
 11
136.7525738997096
 21
2427.312965462814
 31
0.0
  0
LINE
  5
13E
330
2
100
AcDbEntity
  8
Bauseitig
 62
     5
100
AcDbLine
 10
136.3850415315628
 20
2503.312965462815
 30
0.0
 11
132.7091900191731
 21
2499.637113950424
 31
0.0
  0
LWPOLYLINE
  5
13F
330
2
100
AcDbEntity
  8
Bauseitig
 62
     5
100
AcDbPolyline
 90
        4
 70
     1
 43
0.0
 10
132.7091900191735
 20
2503.312965462814
 10
142.7091900191735
 20
2503.312965462814
 10
142.7091900191735
 20
2427.312965462814
 10
132.7091900191735
 20
2427.312965462814
  0
LINE
  5
140
330
2
100
AcDbEntity
  8
Bauseitig
 62
     5
100
AcDbLine
 10
1229.412191447209
 20
2503.032965462815
 30
0.0
 11
1229.412191447209
 21
2473.901269842353
 31
0.0
  0
LINE
  5
141
330
2
100
AcDbEntity
  8
Bauseitig
 62
     5
100
AcDbLine
 10
1232.052191447209
 20
2503.032965462815
 30
0.0
 11
1232.052191447209
 21
2427.032965462815
 31
0.0
  0
LINE
  5
142
330
2
100
AcDbEntity
  8
Bauseitig
 62
     5
100
AcDbLine
 10
1235.77219144721
 20
2490.265230862352
 30
0.0
 11
1225.772191447209
 21
2480.265230862352
 31
0.0
  0
LINE
  5
143
330
2
100
AcDbEntity
  8
Bauseitig
 62
     5
100
AcDbLine
 10
1235.772191447209
 20
2483.901269842352
 30
0.0
 11
1225.772191447209
 21
2473.901269842353
 31
0.0
  0
LINE
  5
144
330
2
100
AcDbEntity
  8
Bauseitig
 62
     5
100
AcDbLine
 10
1235.772191447209
 20
2477.537308786353
 30
0.0
 11
1230.772191447209
 21
2472.537308786352
 31
0.0
  0
LINE
  5
145
330
2
100
AcDbEntity
  8
Bauseitig
 62
     5
100
AcDbLine
 10
1235.772191447209
 20
2471.173347766353
 30
0.0
 11
1230.772191447209
 21
2466.173347766352
 31
0.0
  0
LINE
  5
146
330
2
100
AcDbEntity
  8
Bauseitig
 62
     5
100
AcDbLine
 10
1235.77219144721
 20
2452.08146467828
 30
0.0
 11
1230.772191447209
 21
2447.081464678279
 31
0.0
  0
LINE
  5
147
330
2
100
AcDbEntity
  8
Bauseitig
 62
     5
100
AcDbLine
 10
1235.772191447209
 20
2445.717503658279
 30
0.0
 11
1230.772191447209
 21
2440.717503658279
 31
0.0
  0
LINE
  5
148
330
2
100
AcDbEntity
  8
Bauseitig
 62
     5
100
AcDbLine
 10
1235.772191447209
 20
2439.353542602279
 30
0.0
 11
1230.772191447209
 21
2434.353542602278
 31
0.0
  0
LINE
  5
149
330
2
100
AcDbEntity
  8
Bauseitig
 62
     5
100
AcDbLine
 10
1235.772191447209
 20
2432.989581582279
 30
0.0
 11
1230.772191447209
 21
2427.989581582278
 31
0.0
  0
LINE
  5
14A
330
2
100
AcDbEntity
  8
Bauseitig
 62
     5
100
AcDbLine
 10
1229.448042959599
 20
2503.032965462815
 30
0.0
 11
1225.772191447209
 21
2499.357113950425
 31
0.0
  0
LWPOLYLINE
  5
14B
330
2
100
AcDbEntity
  8
Bauseitig
 62
     5
100
AcDbPolyline
 90
        6
 70
     1
 43
0.0
 10
1225.772191447209
 20
2503.032965462815
 10
1235.772191447209
 20
2503.032965462815
 10
1235.772191447209
 20
2427.032965462815
 10
1230.772191447209
 20
2427.032965462815
 10
1230.772191447209
 20
2473.901269842353
 10
1225.772191447209
 20
2473.901269842353
  0
LINE
  5
14C
330
2
100
AcDbEntity
  8
Kasten
100
AcDbLine
 10
209.6426485455386
 20
2310.032965462814
 30
0.0
 11
1209.772191447209
 21
2310.032965462814
 31
0.0
  0
LINE
  5
14D
330
2
100
AcDbEntity
  8
Bauseitig
100
AcDbLine
 10
1230.772191447209
 20
2427.032965462815
 30
0.0
 11
1235.971781613411
 21
2427.032965462815
 31
0.0
  0
LINE
  5
14E
330
2
100
AcDbEntity
  8
Bauseitig
100
AcDbLine
 10
1225.772191447209
 20
2558.032965462821
 30
0.0
 11
1235.971781613411
 21
2558.032965462821
 31
0.0
  0
LINE
  5
14F
330
2
100
AcDbEntity
  8
Kasten
  6
STRICHPUNKT
100
AcDbLine
 10
1239.526967748887
 20
2458.025758252815
 30
0.0
 11
1180.9138022281
 21
2458.025758252815
 31
0.0
  0
HATCH
  5
150
330
2
100
AcDbEntity
  8
Bauseitig
100
AcDbHatch
 10
0.0
 20
0.0
 30
0.0
210
0.0
220
0.0
230
1.0
  2
ANSI33,I
 70
     0
 71
     0
 91
        1
 92
        1
 93
        4
 72
     1
 10
1334.968822179773
 20
2326.032965462816
 11
1235.772191447209
 21
2326.032965462816
 72
     1
 10
1235.772191447209
 20
2326.032965462816
 11
1235.772191447209
 21
2318.032965462815
 72
     1
 10
1235.772191447209
 20
2318.032965462815
 11
1334.968822179773
 21
2318.03296546282
 72
     1
 10
1334.968822179773
 20
2318.03296546282
 11
1334.968822179773
 21
2326.032965462816
 97
        0
 75
     2
 76
     1
 52
0.0
 41
36.0
 77
     0
 78
     2
 53
45.0
 43
-3133.860327198094
 44
1925.842726566371
 45
-6.363961030678927
 46
6.363961030678928
 79
     0
 53
45.0
 43
-3127.496366178104
 44
1925.842726566371
 45
-6.363961030678927
 46
6.363961030678928
 79
     2
 49
4.5
 49
-2.25
 98
        1
 10
1296.6217731783
 20
2320.317092545411
1001
GradientColor1ACI
1070
     5
1001
GradientColor2ACI
1070
     2
1001
ACAD
1010
0.0
1020
0.0
1030
0.0
  0
HATCH
  5
151
330
2
100
AcDbEntity
  8
Bauseitig
100
AcDbHatch
 10
0.0
 20
0.0
 30
0.0
210
0.0
220
0.0
230
1.0
  2
ANSI33
 70
     0
 71
     0
 91
        3
 92
        1
 93
        4
 72
     1
 10
1334.968822179773
 20
2558.03296546282
 11
1235.772191447209
 21
2558.03296546282
 72
     1
 10
1235.772191447209
 20
2558.03296546282
 11
1235.772191447209
 21
2326.032965462816
 72
     1
 10
1235.772191447209
 20
2326.032965462816
 11
1334.968822179773
 21
2326.032965462816
 72
     1
 10
1334.968822179773
 20
2326.032965462816
 11
1334.968822179773
 21
2558.03296546282
 97
        0
 92
       16
 93
        4
 72
     1
 10
1287.174684223184
 20
2371.928727214548
 11
1287.174684223184
 21
2458.955489116018
 72
     1
 10
1287.174684223184
 20
2458.955489116018
 11
1270.276438609149
 21
2458.955489116018
 72
     1
 10
1270.276438609149
 20
2458.955489116018
 11
1270.276438609148
 21
2371.928727214548
 72
     1
 10
1270.276438609148
 20
2371.928727214548
 11
1287.174684223184
 21
2371.928727214548
 97
        0
 92
       16
 93
        4
 72
     1
 10
1305.143397673467
 20
2371.928727214548
 11
1305.143397673467
 21
2522.055756057393
 72
     1
 10
1305.143397673467
 20
2522.055756057393
 11
1288.122345041889
 21
2522.055756057393
 72
     1
 10
1288.122345041889
 20
2522.055756057393
 11
1288.122345041889
 21
2371.928727214548
 72
     1
 10
1288.122345041889
 20
2371.928727214548
 11
1305.143397673467
 21
2371.928727214548
 97
        0
 75
     1
 76
     1
 52
90.0
 41
40.0
 77
     0
 78
     2
 53
135.0
 43
-0.1995901662012329
 44
1964.893955696596
 45
-7.071067811865475
 46
-7.071067811865474
 79
     0
 53
135.0
 43
-0.1995901662012329
 44
1971.965023496596
 45
-7.071067811865475
 46
-7.071067811865474
 79
     2
 49
5.0
 49
-2.5
 98
        1
 10
1269.92499877153
 20
2503.991652500172
1001
GradientColor1ACI
1070
     5
1001
GradientColor2ACI
1070
     2
1001
ACAD
1010
0.0
1020
0.0
1030
0.0
  0
LWPOLYLINE
  5
152
330
2
100
AcDbEntity
  8
Bauseitig
100
AcDbPolyline
 90
        4
 70
     1
 43
0.0
 10
1235.772191447209
 20
2326.032965462816
 10
1334.968822179773
 20
2326.032965462816
 10
1334.968822179773
 20
2558.03296546282
 10
1235.772191447209
 20
2558.03296546282
  0
LWPOLYLINE
  5
153
330
2
100
AcDbEntity
  8
Bauseitig
100
AcDbPolyline
 90
        4
 70
     1
 43
0.0
 10
1235.772191447209
 20
2326.032965462816
 10
1334.968822179773
 20
2326.032965462816
 10
1334.968822179773
 20
2318.03296546282
 10
1235.772191447209
 20
2318.03296546282
  0
LWPOLYLINE
  5
154
330
2
100
AcDbEntity
  8
Kasten
 48
10.0
100
AcDbPolyline
 90
        4
 70
     1
 43
0.0
 10
1168.308622215598
 20
2951.354028354283
 10
1208.253803605781
 20
2953.447466604001
 10
1206.160365356063
 20
2993.392647994184
 10
1166.21518396588
 20
2991.299209744466
  0
LWPOLYLINE
  5
155
330
2
100
AcDbEntity
  8
Kasten
 48
10.0
100
AcDbPolyline
 90
        4
 70
     1
 43
0.0
 10
1218.72099485437
 20
2753.721559653084
 10
1237.694956014707
 20
2754.7159428217
 10
1225.134326516399
 20
2994.3870311628
 10
1206.160365356063
 20
2993.392647994184
  0
LWPOLYLINE
  5
156
330
2
100
AcDbEntity
  8
Kasten
 48
10.0
100
AcDbPolyline
 90
        4
 70
     1
 43
0.0
 10
143.7116093831214
 20
2956.738142665566
 10
1224.139943347783
 20
3013.360992323137
 10
1225.134326516399
 20
2994.3870311628
 10
144.7059925517374
 20
2937.764181505229
  0
LWPOLYLINE
  5
157
330
2
100
AcDbEntity
  8
Kasten
 48
10.0
100
AcDbPolyline
 90
        5
 70
     0
 43
0.0
 10
163.7091900191753
 20
2322.032965462813
 10
163.7091900191753
 20
2318.032965462815
 10
187.6030641252114
 20
2318.032965462815
 10
184.7091900191772
 20
2322.032965462813
 10
163.7091900191753
 20
2322.032965462815
  0
LWPOLYLINE
  5
158
330
2
100
AcDbEntity
  8
Kasten
 48
10.0
100
AcDbPolyline
 90
        7
 70
     0
 43
0.0
 10
163.7091900191753
 20
2349.032965462814
 10
163.7091900191753
 20
2343.432965462814
 10
188.7091900191753
 20
2343.432965462814
 10
188.7091900191753
 20
2360.032965462814
 10
170.7091900191753
 20
2360.032965462814
 10
170.7091900191753
 20
2349.032965462814
 10
163.7091900191753
 20
2349.032965462814
  0
LWPOLYLINE
  5
159
330
2
100
AcDbEntity
  8
Kasten
 48
10.0
100
AcDbPolyline
 90
        9
 70
     0
 43
0.0
 10
180.7091900191735
 20
2367.032965462815
 10
180.7091900191735
 20
2388.032965462814
 10
142.7091900191735
 20
2388.032965462814
 10
142.7091900191735
 20
2318.032965462815
 10
156.7091900191735
 20
2318.032965462815
 10
156.7091900191753
 20
2351.032965462815
 10
165.7091900191735
 20
2351.032965462815
 10
165.7091900191735
 20
2367.032965462815
 10
180.7091900191735
 20
2367.032965462815
  0
LWPOLYLINE
  5
15A
330
2
100
AcDbEntity
  8
Kasten
100
AcDbPolyline
 90
        4
 70
     1
 43
0.0
 10
180.7091900191735
 20
2937.799942740068
 10
180.7091900191735
 20
2917.799942740068
 10
1207.77219144721
 20
2917.799942740067
 10
1207.77219144721
 20
2937.799942740067
  0
LWPOLYLINE
  5
15B
330
2
100
AcDbEntity
  8
Kasten
 48
10.0
100
AcDbPolyline
 90
        4
 70
     1
 43
0.0
 10
142.7091900191735
 20
2917.799942740069
 10
142.7091900191735
 20
2388.032965462814
 10
180.7091900191735
 20
2388.032965462814
 10
180.7091900191735
 20
2917.799942740068
  0
LWPOLYLINE
  5
15C
330
2
100
AcDbEntity
  8
Kasten
100
AcDbPolyline
 90
        4
 70
     0
 43
0.0
 10
1214.324774529963
 20
2837.606440572468
 10
1195.350813369625
 20
2836.612057403852
 10
1193.676062769851
 20
2868.568202515998
 10
1212.650023930187
 20
2869.562585684614
  0
LWPOLYLINE
  5
15D
330
2
100
AcDbEntity
  8
Kasten
100
AcDbPolyline
 90
        4
 70
     0
 43
0.0
 10
1193.990078507309
 20
2862.576425307471
 10
1164.031192464672
 20
2861.006346620182
 10
1165.077911589531
 20
2841.033755925091
 10
1195.036797632168
 20
2842.603834612379
  0
LWPOLYLINE
  5
15E
330
2
100
AcDbEntity
  8
Kasten
100
AcDbPolyline
 90
       13
 70
     0
 43
0.0
 10
1164.978287387508
 20
2842.934698941283
 10
1148.622771536841
 20
2842.07754267652
 42
0.4846095535913782
 10
1135.070745982382
 20
2821.090159355787
 42
0.1056514431018735
 10
1140.279830746877
 20
2808.765348096629
 42
-0.9999999999992271
 10
1133.274990806775
 20
2803.806657470755
 42
-0.1449845555316173
 10
1125.801722086402
 20
2826.175192035524
 10
1124.609370636918
 20
2848.926613022919
 10
1123.417019187441
 20
2871.678034010233
 42
-0.1449845555320548
 10
1128.511200016207
 20
2894.705200697197
 42
-0.9999999999993438
 10
1135.995991021139
 20
2890.505879451795
 42
0.1056514431018211
 10
1132.103735749001
 20
2877.704087172813
 42
0.4846095535914894
 10
1147.775300816031
 20
2858.24824733923
 10
1164.130816666694
 20
2859.105403603991
  0
LWPOLYLINE
  5
15F
330
2
100
AcDbEntity
  8
Kasten
100
AcDbPolyline
 90
       13
 70
     0
 43
0.0
 10
1277.974583628715
 20
2865.071702615687
 10
1294.330099479379
 20
2865.928858880449
 42
0.4846095535913784
 10
1307.88212503384
 20
2886.916242201183
 42
0.1056514431018733
 10
1302.673040269346
 20
2899.24105346034
 42
-0.9999999999992267
 10
1309.677880209451
 20
2904.199744086211
 42
-0.1449845555319864
 10
1317.151148929823
 20
2881.831209521385
 10
1318.343500379305
 20
2859.07978853405
 10
1319.535851828786
 20
2836.328367546678
 42
-0.1449845555318018
 10
1314.441671000014
 20
2813.301200859767
 42
-0.9999999999993429
 10
1306.956879995085
 20
2817.500522105175
 42
0.1056514431019271
 10
1310.849135267222
 20
2830.302314384156
 42
0.4846095535914897
 10
1295.177570200191
 20
2849.75815421774
 10
1278.82205434953
 20
2848.900997952978
  0
LWPOLYLINE
  5
160
330
2
100
AcDbEntity
  8
Kasten
100
AcDbPolyline
 90
        3
 70
     0
 43
0.0
 10
1272.881484128356
 20
2866.710948680588
 10
1272.053901578489
 20
2882.502164434969
 10
1247.088490834189
 20
2881.193782698971
  0
LWPOLYLINE
  5
161
330
2
100
AcDbEntity
  8
Kasten
100
AcDbPolyline
 90
        4
 70
     0
 43
0.0
 10
1248.962792508915
 20
2845.429976249498
 10
1278.921678551553
 20
2847.000054936787
 10
1277.874959426694
 20
2866.972645631879
 10
1247.916073384056
 20
2865.40256694459
  0
LWPOLYLINE
  5
162
330
2
100
AcDbEntity
  8
Kasten
100
AcDbPolyline
 90
        4
 70
     0
 43
0.0
 10
1230.760441812516
 20
2887.034356176681
 10
1246.73851436859
 20
2887.871731476568
 10
1250.140351524382
 20
2822.960811717521
 10
1234.162278968308
 20
2822.123436417634
  0
LWPOLYLINE
  5
163
330
2
100
AcDbEntity
  8
Kasten
 48
10.0
100
AcDbPolyline
 90
        7
 70
     0
 43
0.0
 10
1197.772191447209
 20
2360.032965462814
 10
1177.772191447209
 20
2360.032965462814
 10
1177.772191447209
 20
2322.032965462815
 10
1202.772191447209
 20
2322.032965462815
 10
1202.772191447209
 20
2349.032965462814
 10
1197.772191447209
 20
2349.032965462814
 10
1197.772191447209
 20
2360.032965462814
  0
LWPOLYLINE
  5
164
330
2
100
AcDbEntity
  8
Kasten
 48
10.0
100
AcDbPolyline
 90
        9
 70
     0
 43
0.0
 10
1187.772191447209
 20
2388.032965462814
 10
1187.772191447209
 20
2367.032965462815
 10
1202.772191447209
 20
2367.032965462815
 10
1202.772191447209
 20
2351.032965462815
 10
1209.772191447209
 20
2351.032965462815
 10
1209.772191447209
 20
2318.032965462815
 10
1225.772191447209
 20
2318.032965462815
 10
1225.772191447209
 20
2388.032965462814
 10
1187.772191447209
 20
2388.032965462814
  0
HATCH
  5
165
330
2
100
AcDbEntity
  8
Bauseitig
100
AcDbHatch
 10
0.0
 20
0.0
 30
0.0
210
0.0
220
0.0
230
1.0
  2
AR-SAND,I
 70
     0
 71
     0
 91
        2
 92
        1
 93
        5
 72
     1
 10
132.7091900191735
 20
2427.032965462815
 11
142.7091900191735
 21
2427.032965462815
 72
     1
 10
142.7091900191735
 20
2427.032965462815
 11
142.7091900191735
 21
2318.032965462815
 72
     1
 10
142.7091900191735
 20
2318.032965462815
 11
132.7091900191735
 21
2318.032965462815
 72
     1
 10
132.7091900191735
 20
2318.032965462815
 11
132.7091900191735
 21
2326.032965462816
 72
     1
 10
132.7091900191735
 20
2326.032965462816
 11
132.7091900191735
 21
2427.032965462815
 97
        0
 92
        1
 93
        4
 72
     1
 10
132.7091900191735
 20
2558.032965462821
 11
142.7091900191735
 21
2558.032965462821
 72
     1
 10
142.7091900191735
 20
2558.032965462821
 11
142.7091900191735
 21
2503.032965462815
 72
     1
 10
142.7091900191735
 20
2503.032965462815
 11
132.7091900191735
 21
2503.032965462815
 72
     1
 10
132.7091900191735
 20
2503.032965462815
 11
132.7091900191735
 21
2558.032965462821
 97
        0
 75
     2
 76
     1
 52
0.0
 41
2.0
 77
     0
 78
     4
 53
37.5
 43
0.0
 44
2096.623419100239
 45
-0.1259867162192163
 46
3.853647538026317
 79
     6
 49
0.0
 49
-3.04
 49
0.0
 49
-3.399999999999999
 49
0.0
 49
-3.25
 53
7.499999999999999
 43
0.0
 44
2096.623419100239
 45
3.539553410535454
 46
5.64429213045948
 79
     6
 49
0.0
 49
-1.639999999999999
 49
0.0
 49
-2.74
 49
0.0
 49
-1.05
 53
327.5
 43
-2.460000000000036
 44
2096.623419100239
 45
6.22828372350299
 46
0.0113181070739299
 79
     6
 49
0.0
 49
-1.0
 49
0.0
 49
-3.6
 49
0.0
 49
-4.7
 53
317.5
 43
-2.460000000000036
 44
2096.623419100239
 45
6.012253209144587
 46
1.755351129868498
 79
     6
 49
0.0
 49
-0.5
 49
0.0
 49
-2.359999999999999
 49
0.0
 49
-2.7
 98
        2
 10
133.7024808762999
 20
2411.826056776347
 10
136.1097739212764
 20
2523.103376941177
1001
GradientColor1ACI
1070
     5
1001
GradientColor2ACI
1070
     2
1001
ACAD
1010
0.0
1020
0.0
1030
0.0
  0
LINE
  5
166
330
2
100
AcDbEntity
  8
Bauseitig
100
AcDbLine
 10
142.7091900191735
 20
2558.032965462821
 30
0.0
 11
132.5095998529723
 21
2558.032965462821
 31
0.0
  0
HATCH
  5
167
330
2
100
AcDbEntity
  8
Bauseitig
100
AcDbHatch
 10
0.0
 20
0.0
 30
0.0
210
0.0
220
0.0
230
1.0
  2
ANSI33,I
 70
     0
 71
     0
 91
        1
 92
        1
 93
        4
 72
     1
 10
33.51255928660976
 20
2326.032965462816
 11
132.7091900191735
 21
2326.032965462816
 72
     1
 10
132.7091900191735
 20
2326.032965462816
 11
132.7091900191735
 21
2318.032965462815
 72
     1
 10
132.7091900191735
 20
2318.032965462815
 11
33.51255928660976
 21
2318.03296546282
 72
     1
 10
33.51255928660976
 20
2318.03296546282
 11
33.51255928660976
 21
2326.032965462816
 97
        0
 75
     2
 76
     1
 52
0.0
 41
36.0
 77
     0
 78
     2
 53
45.0
 43
-3133.860327198094
 44
1925.842726566371
 45
-6.363961030678927
 46
6.363961030678928
 79
     0
 53
45.0
 43
-3127.496366178104
 44
1925.842726566371
 45
-6.363961030678927
 46
6.363961030678928
 79
     2
 49
4.5
 49
-2.25
 98
        1
 10
71.85960828808311
 20
2320.317092545411
1001
GradientColor1ACI
1070
     5
1001
GradientColor2ACI
1070
     2
1001
ACAD
1010
0.0
1020
0.0
1030
0.0
  0
HATCH
  5
168
330
2
100
AcDbEntity
  8
Bauseitig
100
AcDbHatch
 10
0.0
 20
0.0
 30
0.0
210
0.0
220
0.0
230
1.0
  2
ANSI33
 70
     0
 71
     0
 91
        3
 92
        1
 93
        4
 72
     1
 10
33.51255928660976
 20
2558.03296546282
 11
132.7091900191735
 21
2558.03296546282
 72
     1
 10
132.7091900191735
 20
2558.03296546282
 11
132.7091900191735
 21
2326.032965462816
 72
     1
 10
132.7091900191735
 20
2326.032965462816
 11
33.51255928660976
 21
2326.032965462816
 72
     1
 10
33.51255928660976
 20
2326.032965462816
 11
33.51255928660976
 21
2558.03296546282
 97
        0
 92
       16
 93
        4
 72
     1
 10
81.30669724319933
 20
2371.732877580221
 11
81.30669724319909
 21
2521.147684403198
 72
     1
 10
81.30669724319909
 20
2521.147684403198
 11
98.20494285723407
 21
2521.147684403198
 72
     1
 10
98.20494285723407
 20
2521.147684403198
 11
98.2049428572343
 21
2371.732877580221
 72
     1
 10
98.2049428572343
 20
2371.732877580221
 11
81.30669724319933
 21
2371.732877580221
 97
        0
 92
       16
 93
        4
 72
     1
 10
63.33798379291557
 20
2371.732877580221
 11
63.33798379291557
 21
2458.62157317972
 72
     1
 10
63.33798379291557
 20
2458.62157317972
 11
80.35903642449421
 21
2458.62157317972
 72
     1
 10
80.35903642449421
 20
2458.62157317972
 11
80.35903642449421
 21
2371.732877580221
 72
     1
 10
80.35903642449421
 20
2371.732877580221
 11
63.33798379291557
 21
2371.732877580221
 97
        0
 75
     1
 76
     1
 52
90.0
 41
40.0
 77
     0
 78
     2
 53
135.0
 43
-0.1995901662012329
 44
1964.893955696596
 45
-7.071067811865475
 46
-7.071067811865474
 79
     0
 53
135.0
 43
-0.1995901662012329
 44
1971.965023496596
 45
-7.071067811865475
 46
-7.071067811865474
 79
     2
 49
5.0
 49
-2.5
 98
        1
 10
98.55638269485281
 20
2503.991652500172
1001
GradientColor1ACI
1070
     5
1001
GradientColor2ACI
1070
     2
1001
ACAD
1010
0.0
1020
0.0
1030
0.0
  0
LWPOLYLINE
  5
169
330
2
100
AcDbEntity
  8
Bauseitig
100
AcDbPolyline
 90
        4
 70
     1
 43
0.0
 10
132.7091900191735
 20
2326.032965462816
 10
33.51255928660976
 20
2326.032965462816
 10
33.51255928660976
 20
2558.03296546282
 10
132.7091900191735
 20
2558.03296546282
  0
LWPOLYLINE
  5
16A
330
2
100
AcDbEntity
  8
Bauseitig
100
AcDbPolyline
 90
        4
 70
     1
 43
0.0
 10
132.7091900191735
 20
2326.032965462816
 10
33.51255928660976
 20
2326.032965462816
 10
33.51255928660976
 20
2318.03296546282
 10
132.7091900191735
 20
2318.03296546282
  0
LINE
  5
16B
330
2
100
AcDbEntity
  8
Kasten
 48
10.0
100
AcDbLine
 10
180.7091900191735
 20
2367.032965462815
 30
0.0
 11
184.2568777021288
 21
2367.032965462815
 31
0.0
  0
HATCH
  5
16C
330
2
100
AcDbEntity
  8
Kasten
 48
10.0
100
AcDbHatch
 10
0.0
 20
0.0
 30
0.0
210
0.0
220
0.0
230
1.0
  2
SOLID
 70
     1
 71
     0
 91
        1
 92
        5
 93
        1
 72
     4
 94
        3
 73
     0
 74
     0
 95
       64
 96
       60
 40
0.0
 40
0.0
 40
0.0
 40
0.0
 40
0.0809893541776085
 40
0.0809893541776085
 40
0.1619787083552169
 40
0.1619787083552169
 40
0.2429680625328254
 40
0.2429680625328254
 40
0.4180734319561053
 40
0.4180734319561053
 40
0.5931788013793851
 40
0.5931788013793851
 40
0.9444022600212724
 40
0.9444022600212724
 40
1.295625718663159
 40
1.295625718663159
 40
1.985050375288317
 40
1.985050375288317
 40
2.350947300382532
 40
2.350947300382532
 40
2.641064231450696
 40
2.641064231450696
 40
2.818975824328583
 40
2.818975824328583
 40
2.953555413178176
 40
2.953555413178176
 40
3.048940820643631
 40
3.048940820643631
 40
3.129146267728047
 40
3.129146267728047
 40
3.209351714812464
 40
3.209351714812464
 40
3.28955716189688
 40
3.28955716189688
 40
3.369762608981297
 40
3.369762608981297
 40
3.537551039856827
 40
3.537551039856827
 40
3.705339470732357
 40
3.705339470732357
 40
4.039705903318371
 40
4.039705903318371
 40
4.374072335904386
 40
4.374072335904386
 40
5.037413780698035
 40
5.037413780698035
 40
5.446175347641837
 40
5.446175347641837
 40
5.746084864320358
 40
5.746084864320358
 40
5.936816384533487
 40
5.936816384533487
 40
6.077359650610816
 40
6.077359650610816
 40
6.177503800658251
 40
6.177503800658251
 40
6.258694268525349
 40
6.258694268525349
 40
6.283185307179586
 40
6.283185307179586
 40
6.283185307179586
 40
6.283185307179586
 10
168.6051161868618
 20
2365.532965462814
 10
168.6051161868618
 20
2365.418161446408
 10
168.6334852135603
 20
2365.305487715045
 10
168.7187495390562
 20
2365.120618783675
 10
168.7734859771949
 20
2365.046906399429
 10
168.8859250540784
 20
2364.925815022096
 10
168.9442920113793
 20
2364.877587239873
 10
169.1323367048269
 20
2364.744074801361
 10
169.2675515479409
 20
2364.67874542655
 10
169.5690264533641
 20
2364.559323024667
 10
169.7353138004666
 20
2364.507139008502
 10
170.2896716707787
 20
2364.362429614434
 10
170.7335131526465
 20
2364.282631232284
 10
171.7397861661602
 20
2364.154488586801
 10
172.3010811772221
 20
2364.106830545757
 10
174.0470702956495
 20
2364.020078763886
 10
175.3090898734203
 20
2364.03541557166
 10
176.9991205160113
 20
2364.166190605347
 10
177.540259378427
 20
2364.230603188714
 10
178.3781247574932
 20
2364.376515529596
 10
178.7016704102621
 20
2364.450958732545
 10
179.1452251040825
 20
2364.593665394304
 10
179.2956637454381
 20
2364.652581547852
 10
179.5391042724143
 20
2364.780736983914
 10
179.6380868760736
 20
2364.84313219095
 10
179.8014972463666
 20
2364.994261957026
 10
179.8687710093086
 20
2365.071381880883
 10
179.9687291901643
 20
2365.260701069106
 10
180.0034027256065
 20
2365.367102231235
 10
180.019392351669
 20
2365.593174937935
 10
179.9994777173258
 20
2365.70903574468
 10
179.9245563366451
 20
2365.903324889016
 10
179.8722379500746
 20
2365.982458327059
 10
179.7629625115719
 20
2366.111477667516
 10
179.705469760974
 20
2366.162508700158
 10
179.5249212831736
 20
2366.299338689933
 10
179.3973758245502
 20
2366.364559689689
 10
179.1156122725724
 20
2366.483176255068
 10
178.9611572046597
 20
2366.534665003181
 10
178.4493174493275
 20
2366.677149563678
 10
178.0418087389403
 20
2366.756111346073
 10
177.1134230744981
 20
2366.886266373479
 10
176.5936238810629
 20
2366.936727420641
 10
174.9506657228351
 20
2367.038458154908
 10
173.7381924295503
 20
2367.039865298357
 10
171.9651736928613
 20
2366.934720691581
 10
171.3340868003476
 20
2366.870097489314
 10
170.3940805451978
 20
2366.720922162467
 10
170.0445392802189
 20
2366.646896149306
 10
169.5593906516237
 20
2366.503521563546
 10
169.3922236392279
 20
2366.442920188506
 10
169.128265447418
 20
2366.314213567481
 10
169.0238296661437
 20
2366.253173791443
 10
168.8508255966251
 20
2366.10734673055
 10
168.7792051501003
 20
2366.033450661004
 10
168.6690009820172
 20
2365.850618120204
 10
168.6279513211575
 20
2365.748905360197
 10
168.6075575462864
 20
2365.602391372927
 10
168.6051161868618
 20
2365.567681996019
 10
168.6051161868618
 20
2365.532965462814
 97
        0
 75
     1
 76
     1
 47
0.0480643440037337
 98
        1
 10
179.0740589395277
 20
2366.219537534034
450
        0
451
        0
460
0.0
461
0.0
452
        0
462
1.0
453
        2
463
0.0
 63
     5
421
      255
463
1.0
 63
     2
421
 16776960
470
LINEAR
1001
GradientColor1ACI
1070
     5
1001
GradientColor2ACI
1070
     2
1001
ACAD
1010
0.0
1020
0.0
1030
0.0
  0
ELLIPSE
  5
16D
330
2
100
AcDbEntity
  8
Kasten
 48
10.0
100
AcDbEllipse
 10
174.3091900191757
 20
2365.532965462814
 30
0.0
 11
-5.114073832314129
 21
0.0
 31
0.0
210
0.0
220
0.0
230
1.0
 40
0.1759849439511463
 41
0.0
 42
6.283185307179586
  0
SPLINE
  5
16E
330
2
100
AcDbEntity
  8
Kasten
 48
10.0
100
AcDbSpline
210
0.0
220
0.0
230
1.0
 70
     9
 71
     3
 72
    64
 73
    60
 74
     0
 42
0.000000001
 43
0.0000000001
 40
0.0
 40
0.0
 40
0.0
 40
0.0
 40
0.0809893541776085
 40
0.0809893541776085
 40
0.1619787083552169
 40
0.1619787083552169
 40
0.2429680625328254
 40
0.2429680625328254
 40
0.4180734319561053
 40
0.4180734319561053
 40
0.5931788013793851
 40
0.5931788013793851
 40
0.9444022600212724
 40
0.9444022600212724
 40
1.295625718663159
 40
1.295625718663159
 40
1.985050375288317
 40
1.985050375288317
 40
2.350947300382532
 40
2.350947300382532
 40
2.641064231450696
 40
2.641064231450696
 40
2.818975824328583
 40
2.818975824328583
 40
2.953555413178176
 40
2.953555413178176
 40
3.048940820643631
 40
3.048940820643631
 40
3.129146267728047
 40
3.129146267728047
 40
3.209351714812464
 40
3.209351714812464
 40
3.28955716189688
 40
3.28955716189688
 40
3.369762608981297
 40
3.369762608981297
 40
3.537551039856827
 40
3.537551039856827
 40
3.705339470732357
 40
3.705339470732357
 40
4.039705903318371
 40
4.039705903318371
 40
4.374072335904386
 40
4.374072335904386
 40
5.037413780698035
 40
5.037413780698035
 40
5.446175347641837
 40
5.446175347641837
 40
5.746084864320358
 40
5.746084864320358
 40
5.936816384533487
 40
5.936816384533487
 40
6.077359650610816
 40
6.077359650610816
 40
6.177503800658251
 40
6.177503800658251
 40
6.258694268525349
 40
6.258694268525349
 40
6.283185307179586
 40
6.283185307179586
 40
6.283185307179586
 40
6.283185307179586
 10
168.6051161868618
 20
2365.532965462814
 30
0.0
 10
168.6051161868618
 20
2365.418161446408
 30
0.0
 10
168.6334852135603
 20
2365.305487715045
 30
0.0
 10
168.7187495390562
 20
2365.120618783675
 30
0.0
 10
168.7734859771949
 20
2365.046906399429
 30
0.0
 10
168.8859250540784
 20
2364.925815022096
 30
0.0
 10
168.9442920113793
 20
2364.877587239873
 30
0.0
 10
169.1323367048269
 20
2364.744074801361
 30
0.0
 10
169.2675515479409
 20
2364.67874542655
 30
0.0
 10
169.5690264533641
 20
2364.559323024667
 30
0.0
 10
169.7353138004666
 20
2364.507139008502
 30
0.0
 10
170.2896716707787
 20
2364.362429614434
 30
0.0
 10
170.7335131526465
 20
2364.282631232284
 30
0.0
 10
171.7397861661602
 20
2364.154488586801
 30
0.0
 10
172.3010811772221
 20
2364.106830545757
 30
0.0
 10
174.0470702956495
 20
2364.020078763886
 30
0.0
 10
175.3090898734203
 20
2364.03541557166
 30
0.0
 10
176.9991205160113
 20
2364.166190605347
 30
0.0
 10
177.540259378427
 20
2364.230603188714
 30
0.0
 10
178.3781247574932
 20
2364.376515529596
 30
0.0
 10
178.7016704102621
 20
2364.450958732545
 30
0.0
 10
179.1452251040825
 20
2364.593665394304
 30
0.0
 10
179.2956637454381
 20
2364.652581547852
 30
0.0
 10
179.5391042724143
 20
2364.780736983914
 30
0.0
 10
179.6380868760736
 20
2364.84313219095
 30
0.0
 10
179.8014972463666
 20
2364.994261957026
 30
0.0
 10
179.8687710093086
 20
2365.071381880883
 30
0.0
 10
179.9687291901643
 20
2365.260701069106
 30
0.0
 10
180.0034027256065
 20
2365.367102231235
 30
0.0
 10
180.019392351669
 20
2365.593174937935
 30
0.0
 10
179.9994777173258
 20
2365.70903574468
 30
0.0
 10
179.9245563366451
 20
2365.903324889016
 30
0.0
 10
179.8722379500746
 20
2365.982458327059
 30
0.0
 10
179.7629625115719
 20
2366.111477667516
 30
0.0
 10
179.705469760974
 20
2366.162508700158
 30
0.0
 10
179.5249212831736
 20
2366.299338689933
 30
0.0
 10
179.3973758245502
 20
2366.364559689689
 30
0.0
 10
179.1156122725724
 20
2366.483176255068
 30
0.0
 10
178.9611572046597
 20
2366.534665003181
 30
0.0
 10
178.4493174493275
 20
2366.677149563678
 30
0.0
 10
178.0418087389403
 20
2366.756111346073
 30
0.0
 10
177.1134230744981
 20
2366.886266373479
 30
0.0
 10
176.5936238810629
 20
2366.936727420641
 30
0.0
 10
174.9506657228351
 20
2367.038458154908
 30
0.0
 10
173.7381924295503
 20
2367.039865298357
 30
0.0
 10
171.9651736928613
 20
2366.934720691581
 30
0.0
 10
171.3340868003476
 20
2366.870097489314
 30
0.0
 10
170.3940805451978
 20
2366.720922162467
 30
0.0
 10
170.0445392802189
 20
2366.646896149306
 30
0.0
 10
169.5593906516237
 20
2366.503521563546
 30
0.0
 10
169.3922236392279
 20
2366.442920188506
 30
0.0
 10
169.128265447418
 20
2366.314213567481
 30
0.0
 10
169.0238296661437
 20
2366.253173791443
 30
0.0
 10
168.8508255966251
 20
2366.10734673055
 30
0.0
 10
168.7792051501003
 20
2366.033450661004
 30
0.0
 10
168.6690009820172
 20
2365.850618120204
 30
0.0
 10
168.6279513211575
 20
2365.748905360197
 30
0.0
 10
168.6075575462864
 20
2365.602391372927
 30
0.0
 10
168.6051161868618
 20
2365.567681996019
 30
0.0
 10
168.6051161868618
 20
2365.532965462814
 30
0.0
  0
LINE
  5
16F
330
2
100
AcDbEntity
  8
Kasten
 48
10.0
100
AcDbLine
 10
158.7091900191735
 20
2310.032965462814
 30
0.0
 11
193.3908123372816
 21
2310.032965462814
 31
0.0
  0
ARC
  5
170
330
2
100
AcDbEntity
  8
Kasten
 48
10.0
100
AcDbCircle
 10
171.9943690101599
 20
2321.285298716882
 30
0.0
 40
19.16724924852023
100
AcDbArc
 50
115.6108849490228
 51
126.8132328344493
  0
HATCH
  5
171
330
2
100
AcDbEntity
  8
Kasten
 48
10.0
100
AcDbHatch
 10
0.0
 20
0.0
 30
0.0
210
0.0
220
0.0
230
1.0
  2
SOLID
 70
     1
 71
     0
 91
        1
 92
        5
 93
        1
 72
     4
 94
        3
 73
     0
 74
     0
 95
       64
 96
       60
 40
0.0
 40
0.0
 40
0.0
 40
0.0
 40
0.0809893541776085
 40
0.0809893541776085
 40
0.1619787083552169
 40
0.1619787083552169
 40
0.2429680625328254
 40
0.2429680625328254
 40
0.4180734319561053
 40
0.4180734319561053
 40
0.5931788013793851
 40
0.5931788013793851
 40
0.9444022600212724
 40
0.9444022600212724
 40
1.295625718663159
 40
1.295625718663159
 40
1.985050375288317
 40
1.985050375288317
 40
2.350947300382532
 40
2.350947300382532
 40
2.641064231450696
 40
2.641064231450696
 40
2.818975824328583
 40
2.818975824328583
 40
2.953555413178176
 40
2.953555413178176
 40
3.048940820643631
 40
3.048940820643631
 40
3.129146267728047
 40
3.129146267728047
 40
3.209351714812464
 40
3.209351714812464
 40
3.28955716189688
 40
3.28955716189688
 40
3.369762608981297
 40
3.369762608981297
 40
3.537551039856827
 40
3.537551039856827
 40
3.705339470732357
 40
3.705339470732357
 40
4.039705903318371
 40
4.039705903318371
 40
4.374072335904386
 40
4.374072335904386
 40
5.037413780698035
 40
5.037413780698035
 40
5.446175347641837
 40
5.446175347641837
 40
5.746084864320358
 40
5.746084864320358
 40
5.936816384533487
 40
5.936816384533487
 40
6.077359650610816
 40
6.077359650610816
 40
6.177503800658251
 40
6.177503800658251
 40
6.258694268525349
 40
6.258694268525349
 40
6.283185307179586
 40
6.283185307179586
 40
6.283185307179586
 40
6.283185307179586
 10
1188.374463159408
 20
2365.532965462814
 10
1188.374463159408
 20
2365.418161446408
 10
1188.402832186107
 20
2365.305487715045
 10
1188.488096511603
 20
2365.120618783675
 10
1188.542832949742
 20
2365.046906399429
 10
1188.655272026625
 20
2364.925815022096
 10
1188.713638983926
 20
2364.877587239873
 10
1188.901683677374
 20
2364.744074801361
 10
1189.036898520487
 20
2364.67874542655
 10
1189.338373425911
 20
2364.559323024667
 10
1189.504660773013
 20
2364.507139008502
 10
1190.059018643325
 20
2364.362429614434
 10
1190.502860125193
 20
2364.282631232284
 10
1191.509133138707
 20
2364.154488586801
 10
1192.070428149769
 20
2364.106830545757
 10
1193.816417268196
 20
2364.020078763886
 10
1195.078436845967
 20
2364.03541557166
 10
1196.768467488558
 20
2364.166190605347
 10
1197.309606350974
 20
2364.230603188714
 10
1198.14747173004
 20
2364.376515529596
 10
1198.471017382809
 20
2364.450958732545
 10
1198.914572076629
 20
2364.593665394304
 10
1199.065010717985
 20
2364.652581547852
 10
1199.308451244961
 20
2364.780736983914
 10
1199.40743384862
 20
2364.84313219095
 10
1199.570844218913
 20
2364.994261957026
 10
1199.638117981855
 20
2365.071381880883
 10
1199.738076162711
 20
2365.260701069106
 10
1199.772749698153
 20
2365.367102231235
 10
1199.788739324216
 20
2365.593174937935
 10
1199.768824689873
 20
2365.70903574468
 10
1199.693903309192
 20
2365.903324889016
 10
1199.641584922621
 20
2365.982458327059
 10
1199.532309484119
 20
2366.111477667516
 10
1199.47481673352
 20
2366.162508700158
 10
1199.29426825572
 20
2366.299338689933
 10
1199.166722797097
 20
2366.364559689689
 10
1198.884959245119
 20
2366.483176255068
 10
1198.730504177206
 20
2366.534665003181
 10
1198.218664421874
 20
2366.677149563678
 10
1197.811155711487
 20
2366.756111346073
 10
1196.882770047045
 20
2366.886266373479
 10
1196.362970853609
 20
2366.936727420641
 10
1194.720012695381
 20
2367.038458154908
 10
1193.507539402097
 20
2367.039865298357
 10
1191.734520665408
 20
2366.934720691581
 10
1191.103433772894
 20
2366.870097489314
 10
1190.163427517744
 20
2366.720922162467
 10
1189.813886252766
 20
2366.646896149306
 10
1189.32873762417
 20
2366.503521563546
 10
1189.161570611775
 20
2366.442920188506
 10
1188.897612419965
 20
2366.314213567481
 10
1188.79317663869
 20
2366.253173791443
 10
1188.620172569172
 20
2366.10734673055
 10
1188.548552122647
 20
2366.033450661004
 10
1188.438347954564
 20
2365.850618120204
 10
1188.397298293704
 20
2365.748905360197
 10
1188.376904518833
 20
2365.602391372927
 10
1188.374463159408
 20
2365.567681996019
 10
1188.374463159408
 20
2365.532965462814
 97
        0
 75
     1
 76
     1
 47
0.0480643440037337
 98
        1
 10
1198.843405912074
 20
2366.219537534034
450
        0
451
        0
460
0.0
461
0.0
452
        0
462
1.0
453
        2
463
0.0
 63
     5
421
      255
463
1.0
 63
     2
421
 16776960
470
LINEAR
1001
GradientColor1ACI
1070
     5
1001
GradientColor2ACI
1070
     2
1001
ACAD
1010
0.0
1020
0.0
1030
0.0
  0
ELLIPSE
  5
172
330
2
100
AcDbEntity
  8
Kasten
 48
10.0
100
AcDbEllipse
 10
1194.078536991722
 20
2365.532965462814
 30
0.0
 11
-5.114073832314129
 21
0.0
 31
0.0
210
0.0
220
0.0
230
1.0
 40
0.1759849439511463
 41
0.0
 42
6.283185307179586
  0
SPLINE
  5
173
330
2
100
AcDbEntity
  8
Kasten
 48
10.0
100
AcDbSpline
210
0.0
220
0.0
230
1.0
 70
     9
 71
     3
 72
    64
 73
    60
 74
     0
 42
0.000000001
 43
0.0000000001
 40
0.0
 40
0.0
 40
0.0
 40
0.0
 40
0.0809893541776085
 40
0.0809893541776085
 40
0.1619787083552169
 40
0.1619787083552169
 40
0.2429680625328254
 40
0.2429680625328254
 40
0.4180734319561053
 40
0.4180734319561053
 40
0.5931788013793851
 40
0.5931788013793851
 40
0.9444022600212724
 40
0.9444022600212724
 40
1.295625718663159
 40
1.295625718663159
 40
1.985050375288317
 40
1.985050375288317
 40
2.350947300382532
 40
2.350947300382532
 40
2.641064231450696
 40
2.641064231450696
 40
2.818975824328583
 40
2.818975824328583
 40
2.953555413178176
 40
2.953555413178176
 40
3.048940820643631
 40
3.048940820643631
 40
3.129146267728047
 40
3.129146267728047
 40
3.209351714812464
 40
3.209351714812464
 40
3.28955716189688
 40
3.28955716189688
 40
3.369762608981297
 40
3.369762608981297
 40
3.537551039856827
 40
3.537551039856827
 40
3.705339470732357
 40
3.705339470732357
 40
4.039705903318371
 40
4.039705903318371
 40
4.374072335904386
 40
4.374072335904386
 40
5.037413780698035
 40
5.037413780698035
 40
5.446175347641837
 40
5.446175347641837
 40
5.746084864320358
 40
5.746084864320358
 40
5.936816384533487
 40
5.936816384533487
 40
6.077359650610816
 40
6.077359650610816
 40
6.177503800658251
 40
6.177503800658251
 40
6.258694268525349
 40
6.258694268525349
 40
6.283185307179586
 40
6.283185307179586
 40
6.283185307179586
 40
6.283185307179586
 10
1188.374463159408
 20
2365.532965462814
 30
0.0
 10
1188.374463159408
 20
2365.418161446408
 30
0.0
 10
1188.402832186107
 20
2365.305487715045
 30
0.0
 10
1188.488096511603
 20
2365.120618783675
 30
0.0
 10
1188.542832949742
 20
2365.046906399429
 30
0.0
 10
1188.655272026625
 20
2364.925815022096
 30
0.0
 10
1188.713638983926
 20
2364.877587239873
 30
0.0
 10
1188.901683677374
 20
2364.744074801361
 30
0.0
 10
1189.036898520487
 20
2364.67874542655
 30
0.0
 10
1189.338373425911
 20
2364.559323024667
 30
0.0
 10
1189.504660773013
 20
2364.507139008502
 30
0.0
 10
1190.059018643325
 20
2364.362429614434
 30
0.0
 10
1190.502860125193
 20
2364.282631232284
 30
0.0
 10
1191.509133138707
 20
2364.154488586801
 30
0.0
 10
1192.070428149769
 20
2364.106830545757
 30
0.0
 10
1193.816417268196
 20
2364.020078763886
 30
0.0
 10
1195.078436845967
 20
2364.03541557166
 30
0.0
 10
1196.768467488558
 20
2364.166190605347
 30
0.0
 10
1197.309606350974
 20
2364.230603188714
 30
0.0
 10
1198.14747173004
 20
2364.376515529596
 30
0.0
 10
1198.471017382809
 20
2364.450958732545
 30
0.0
 10
1198.914572076629
 20
2364.593665394304
 30
0.0
 10
1199.065010717985
 20
2364.652581547852
 30
0.0
 10
1199.308451244961
 20
2364.780736983914
 30
0.0
 10
1199.40743384862
 20
2364.84313219095
 30
0.0
 10
1199.570844218913
 20
2364.994261957026
 30
0.0
 10
1199.638117981855
 20
2365.071381880883
 30
0.0
 10
1199.738076162711
 20
2365.260701069106
 30
0.0
 10
1199.772749698153
 20
2365.367102231235
 30
0.0
 10
1199.788739324216
 20
2365.593174937935
 30
0.0
 10
1199.768824689873
 20
2365.70903574468
 30
0.0
 10
1199.693903309192
 20
2365.903324889016
 30
0.0
 10
1199.641584922621
 20
2365.982458327059
 30
0.0
 10
1199.532309484119
 20
2366.111477667516
 30
0.0
 10
1199.47481673352
 20
2366.162508700158
 30
0.0
 10
1199.29426825572
 20
2366.299338689933
 30
0.0
 10
1199.166722797097
 20
2366.364559689689
 30
0.0
 10
1198.884959245119
 20
2366.483176255068
 30
0.0
 10
1198.730504177206
 20
2366.534665003181
 30
0.0
 10
1198.218664421874
 20
2366.677149563678
 30
0.0
 10
1197.811155711487
 20
2366.756111346073
 30
0.0
 10
1196.882770047045
 20
2366.886266373479
 30
0.0
 10
1196.362970853609
 20
2366.936727420641
 30
0.0
 10
1194.720012695381
 20
2367.038458154908
 30
0.0
 10
1193.507539402097
 20
2367.039865298357
 30
0.0
 10
1191.734520665408
 20
2366.934720691581
 30
0.0
 10
1191.103433772894
 20
2366.870097489314
 30
0.0
 10
1190.163427517744
 20
2366.720922162467
 30
0.0
 10
1189.813886252766
 20
2366.646896149306
 30
0.0
 10
1189.32873762417
 20
2366.503521563546
 30
0.0
 10
1189.161570611775
 20
2366.442920188506
 30
0.0
 10
1188.897612419965
 20
2366.314213567481
 30
0.0
 10
1188.79317663869
 20
2366.253173791443
 30
0.0
 10
1188.620172569172
 20
2366.10734673055
 30
0.0
 10
1188.548552122647
 20
2366.033450661004
 30
0.0
 10
1188.438347954564
 20
2365.850618120204
 30
0.0
 10
1188.397298293704
 20
2365.748905360197
 30
0.0
 10
1188.376904518833
 20
2365.602391372927
 30
0.0
 10
1188.374463159408
 20
2365.567681996019
 30
0.0
 10
1188.374463159408
 20
2365.532965462814
 30
0.0
  0
ENDSEC
  0
SECTION
  2
OBJECTS
  0
DICTIONARY
  5
9
330
0
100
AcDbDictionary
281
     1
  3
ACAD_COLOR
350
46
  3
ACAD_GROUP
350
33
  3
ACAD_LAYOUT
350
17
  3
ACAD_MATERIAL
350
B
  3
ACAD_MLEADERSTYLE
350
49
  3
ACAD_MLINESTYLE
350
34
  3
ACAD_PLOTSETTINGS
350
35
  3
ACAD_PLOTSTYLENAME
350
8
  3
ACAD_SCALELIST
350
47
  3
ACAD_TABLESTYLE
350
48
  3
ACAD_VISUALSTYLE
350
2C
  3
ACDB_RECOMPOSE_DATA
350
186
  3
AcDbVariableDictionary
350
178
  3
AcDsDecomposeData
350
18C
  0
DICTIONARY
  5
1F
330
1E
100
AcDbDictionary
280
     1
281
     1
  3
ACAD_LAYERSTATES
360
20
  0
DICTIONARY
  5
76
330
75
100
AcDbDictionary
280
     1
281
     1
  0
DICTIONARY
  5
184
330
182
100
AcDbDictionary
280
     1
281
     1
  3
ASDK_XREC_ANNO_SCALE_INFO
360
185
  0
DICTIONARY
  5
3
330
2
100
AcDbDictionary
280
     1
281
     1
  3
ACAD_SORTENTS
360
174
  0
DICTIONARY
  5
62
330
61
100
AcDbDictionary
280
     1
281
     1
  3
AcDbContextDataManager
360
63
  0
DICTIONARY
  5
68
330
67
100
AcDbDictionary
280
     1
281
     1
  3
AcDbContextDataManager
360
69
  0
DICTIONARY
  5
A5
330
A4
100
AcDbDictionary
280
     1
281
     1
  3
AcDbContextDataManager
360
A6
  0
DICTIONARY
  5
B7
330
B6
100
AcDbDictionary
280
     1
281
     1
  3
AcDbContextDataManager
360
B8
  0
DICTIONARY
  5
BB
330
BA
100
AcDbDictionary
280
     1
281
     1
  3
AcDbContextDataManager
360
BC
  0
DICTIONARY
  5
C2
330
C1
100
AcDbDictionary
280
     1
281
     1
  3
AcDbContextDataManager
360
C3
  0
DICTIONARY
  5
46
102
{ACAD_REACTORS
330
9
102
}
330
9
100
AcDbDictionary
281
     1
  0
DICTIONARY
  5
33
102
{ACAD_REACTORS
330
9
102
}
330
9
100
AcDbDictionary
281
     1
  0
DICTIONARY
  5
17
102
{ACAD_REACTORS
330
9
102
}
330
9
100
AcDbDictionary
281
     1
  3
Layout1
350
1D
  3
Model
350
16
  0
DICTIONARY
  5
B
102
{ACAD_REACTORS
330
9
102
}
330
9
100
AcDbDictionary
281
     1
  3
ByBlock
350
3E
  3
ByLayer
350
36
  3
Global
350
A
  0
DICTIONARY
  5
49
102
{ACAD_REACTORS
330
9
102
}
330
9
100
AcDbDictionary
281
     1
  0
DICTIONARY
  5
34
102
{ACAD_REACTORS
330
9
102
}
330
9
100
AcDbDictionary
281
     1
  3
Standard
350
4C
  0
DICTIONARY
  5
35
102
{ACAD_REACTORS
330
9
102
}
330
9
100
AcDbDictionary
281
     1
  0
ACDBDICTIONARYWDFLT
  5
8
102
{ACAD_REACTORS
330
9
102
}
330
9
100
AcDbDictionary
281
     1
  3
Normal
350
7
100
AcDbDictionaryWithDefault
340
7
  0
DICTIONARY
  5
47
102
{ACAD_REACTORS
330
9
102
}
330
9
100
AcDbDictionary
281
     1
  3
A0
350
50
  3
A1
350
51
  3
A2
350
52
  3
A3
350
53
  3
A4
350
54
  3
A5
350
55
  3
A6
350
56
  3
A7
350
57
  3
A8
350
58
  3
A9
350
59
  3
B0
350
5A
  3
B1
350
5B
  3
B2
350
5C
  3
B3
350
5D
  3
B4
350
5E
  3
B5
350
5F
  3
B6
350
60
  0
DICTIONARY
  5
48
102
{ACAD_REACTORS
330
9
102
}
330
9
100
AcDbDictionary
281
     1
  3
Standard
350
4D
  0
DICTIONARY
  5
2C
102
{ACAD_REACTORS
330
9
102
}
330
9
100
AcDbDictionary
281
     1
  3
2dWireframe
350
2B
  3
Realistic
350
4E
  3
Wireframe
350
4F
  0
XRECORD
  5
186
102
{ACAD_REACTORS
330
9
102
}
330
9
100
AcDbXrecord
280
     1
 90
        1
330
4D
330
61
330
67
  0
DICTIONARY
  5
178
102
{ACAD_REACTORS
330
9
102
}
330
9
100
AcDbDictionary
281
     1
  3
CANNOSCALE
350
17E
  3
CMLEADERSTYLE
350
17A
  3
CTABLESTYLE
350
179
  3
CVIEWDETAILSTYLE
350
17B
  3
CVIEWSECTIONSTYLE
350
17C
  3
FIELDEVAL
350
17D
  3
XCLIPFRAME
350
17F
  0
DICTIONARY
  5
18C
102
{ACAD_REACTORS
330
9
102
}
330
9
100
AcDbDictionary
281
     1
  3
AcDsRecords
350
18E
  3
AcDsSchemas
350
18D
1001
ACAD
1070
     2
  0
DICTIONARY
  5
20
102
{ACAD_REACTORS
330
1F
102
}
330
1F
100
AcDbDictionary
281
     1
  0
XRECORD
  5
185
102
{ACAD_REACTORS
330
184
102
}
330
184
100
AcDbXrecord
280
     1
 70
     1
340
50
340
64
 70
    -1
  0
SORTENTSTABLE
  5
174
102
{ACAD_REACTORS
330
3
102
}
330
3
100
AcDbSortentsTable
330
2
  0
DICTIONARY
  5
63
102
{ACAD_REACTORS
330
62
102
}
330
62
100
AcDbDictionary
281
     1
  3
ACDB_ANNOTATIONSCALES
350
65
  0
DICTIONARY
  5
69
102
{ACAD_REACTORS
330
68
102
}
330
68
100
AcDbDictionary
281
     1
  3
ACDB_ANNOTATIONSCALES
350
6A
  0
DICTIONARY
  5
A6
102
{ACAD_REACTORS
330
A5
102
}
330
A5
100
AcDbDictionary
281
     1
  3
ACDB_ANNOTATIONSCALES
350
A7
  0
DICTIONARY
  5
B8
102
{ACAD_REACTORS
330
B7
102
}
330
B7
100
AcDbDictionary
281
     1
  3
ACDB_ANNOTATIONSCALES
350
B9
  0
DICTIONARY
  5
BC
102
{ACAD_REACTORS
330
BB
102
}
330
BB
100
AcDbDictionary
281
     1
  3
ACDB_ANNOTATIONSCALES
350
BD
  0
DICTIONARY
  5
C3
102
{ACAD_REACTORS
330
C2
102
}
330
C2
100
AcDbDictionary
281
     1
  3
ACDB_ANNOTATIONSCALES
350
C4
  0
LAYOUT
  5
1D
102
{ACAD_REACTORS
330
17
102
}
330
17
100
AcDbPlotSettings
  1

  2
HP Color LaserJet CP2020 Series PCL 6
  4

  6

 40
0.0
 41
0.0
 42
0.0
 43
0.0
 44
0.0
 45
0.0
 46
0.0
 47
0.0
 48
0.0
 49
0.0
140
0.0
141
0.0
142
1.0
143
1.0
 70
   688
 72
     0
 73
     0
 74
     5
  7
monochrome.ctb
 75
    16
147
1.0
 76
     0
 77
     2
 78
   300
148
0.0
149
0.0
100
AcDbLayout
  1
Layout1
 70
     1
 71
     1
 10
0.0
 20
0.0
 11
12.0
 21
9.0
 12
0.0
 22
0.0
 32
0.0
 14
1.000000000000000E+20
 24
1.000000000000000E+20
 34
1.000000000000000E+20
 15
-1.000000000000000E+20
 25
-1.000000000000000E+20
 35
-1.000000000000000E+20
146
0.0
 13
0.0
 23
0.0
 33
0.0
 16
1.0
 26
0.0
 36
0.0
 17
0.0
 27
1.0
 37
0.0
 76
     0
330
1A
  0
LAYOUT
  5
16
102
{ACAD_XDICTIONARY
360
18
102
}
102
{ACAD_REACTORS
330
17
102
}
330
17
100
AcDbPlotSettings
  1

  2
none_device
  4
Letter_(8.50_x_11.00_Inches)
  6

 40
6.349999904632568
 41
6.349999904632568
 42
6.350006103515625
 43
6.350006103515625
 44
215.8999938964844
 45
279.3999938964844
 46
0.0
 47
0.0
 48
0.0
 49
0.0
140
0.0
141
0.0
142
1.0
143
64.78996994265674
 70
 11952
 72
     0
 73
     1
 74
     0
  7
monochrome.ctb
 75
     0
147
0.0154344877900864
 76
     0
 77
     2
 78
   300
148
-2617.719647371877
149
1317.048691221335
100
AcDbLayout
  1
Model
 70
     1
 71
     0
 10
0.0
 20
0.0
 11
12.0
 21
9.0
 12
0.0
 22
0.0
 32
0.0
 14
0.0
 24
0.0
 34
0.0
 15
0.0
 25
0.0
 35
0.0
146
0.0
 13
0.0
 23
0.0
 33
0.0
 16
1.0
 26
0.0
 36
0.0
 17
0.0
 27
1.0
 37
0.0
 76
     0
330
2
331
2A
1001
ACAD_PSEXT
1000
Kein
1000
Kein
1000
Nicht anwendbar
1000
Das Layout wird erst geplottet, wenn ein neuer Plotter-Konfigurationsname ausgewählt wird.
1070
     0
  0
MATERIAL
  5
3E
102
{ACAD_XDICTIONARY
360
3F
102
}
102
{ACAD_REACTORS
330
B
102
}
330
B
100
AcDbMaterial
  1
ByBlock
 72
     0
 43
0.0208333333333333
 43
0.0
 43
0.0
 43
0.0
 43
0.0
 43
0.0208333333333333
 43
0.0
 43
0.0
 43
0.0
 43
0.0
 43
1.0
 43
0.0
 43
0.0
 43
0.0
 43
0.0
 43
1.0
 77
     0
 47
0.0208333333333333
 47
0.0
 47
0.0
 47
0.0
 47
0.0
 47
0.0208333333333333
 47
0.0
 47
0.0
 47
0.0
 47
0.0
 47
1.0
 47
0.0
 47
0.0
 47
0.0
 47
0.0
 47
1.0
171
     0
 49
0.0208333333333333
 49
0.0
 49
0.0
 49
0.0
 49
0.0
 49
0.0208333333333333
 49
0.0
 49
0.0
 49
0.0
 49
0.0
 49
1.0
 49
0.0
 49
0.0
 49
0.0
 49
0.0
 49
1.0
175
     0
142
0.0208333333333333
142
0.0
142
0.0
142
0.0
142
0.0
142
0.0208333333333333
142
0.0
142
0.0
142
0.0
142
0.0
142
1.0
142
0.0
142
0.0
142
0.0
142
0.0
142
1.0
179
     0
144
0.0208333333333333
144
0.0
144
0.0
144
0.0
144
0.0
144
0.0208333333333333
144
0.0
144
0.0
144
0.0
144
0.0
144
1.0
144
0.0
144
0.0
144
0.0
144
0.0
144
1.0
147
0.0208333333333333
147
0.0
147
0.0
147
0.0
147
0.0
147
0.0208333333333333
147
0.0
147
0.0
147
0.0
147
0.0
147
1.0
147
0.0
147
0.0
147
0.0
147
0.0
147
1.0
  0
MATERIAL
  5
36
102
{ACAD_XDICTIONARY
360
37
102
}
102
{ACAD_REACTORS
330
B
102
}
330
B
100
AcDbMaterial
  1
ByLayer
 72
     0
 43
0.0208333333333333
 43
0.0
 43
0.0
 43
0.0
 43
0.0
 43
0.0208333333333333
 43
0.0
 43
0.0
 43
0.0
 43
0.0
 43
1.0
 43
0.0
 43
0.0
 43
0.0
 43
0.0
 43
1.0
 77
     0
 47
0.0208333333333333
 47
0.0
 47
0.0
 47
0.0
 47
0.0
 47
0.0208333333333333
 47
0.0
 47
0.0
 47
0.0
 47
0.0
 47
1.0
 47
0.0
 47
0.0
 47
0.0
 47
0.0
 47
1.0
171
     0
 49
0.0208333333333333
 49
0.0
 49
0.0
 49
0.0
 49
0.0
 49
0.0208333333333333
 49
0.0
 49
0.0
 49
0.0
 49
0.0
 49
1.0
 49
0.0
 49
0.0
 49
0.0
 49
0.0
 49
1.0
175
     0
142
0.0208333333333333
142
0.0
142
0.0
142
0.0
142
0.0
142
0.0208333333333333
142
0.0
142
0.0
142
0.0
142
0.0
142
1.0
142
0.0
142
0.0
142
0.0
142
0.0
142
1.0
179
     0
144
0.0208333333333333
144
0.0
144
0.0
144
0.0
144
0.0
144
0.0208333333333333
144
0.0
144
0.0
144
0.0
144
0.0
144
1.0
144
0.0
144
0.0
144
0.0
144
0.0
144
1.0
147
0.0208333333333333
147
0.0
147
0.0
147
0.0
147
0.0
147
0.0208333333333333
147
0.0
147
0.0
147
0.0
147
0.0
147
1.0
147
0.0
147
0.0
147
0.0
147
0.0
147
1.0
  0
MATERIAL
  5
A
102
{ACAD_XDICTIONARY
360
C
102
}
102
{ACAD_REACTORS
330
B
102
}
330
B
100
AcDbMaterial
  1
Global
 72
     0
 43
0.0208333333333333
 43
0.0
 43
0.0
 43
0.0
 43
0.0
 43
0.0208333333333333
 43
0.0
 43
0.0
 43
0.0
 43
0.0
 43
1.0
 43
0.0
 43
0.0
 43
0.0
 43
0.0
 43
1.0
 77
     0
 47
0.0208333333333333
 47
0.0
 47
0.0
 47
0.0
 47
0.0
 47
0.0208333333333333
 47
0.0
 47
0.0
 47
0.0
 47
0.0
 47
1.0
 47
0.0
 47
0.0
 47
0.0
 47
0.0
 47
1.0
171
     0
 49
0.0208333333333333
 49
0.0
 49
0.0
 49
0.0
 49
0.0
 49
0.0208333333333333
 49
0.0
 49
0.0
 49
0.0
 49
0.0
 49
1.0
 49
0.0
 49
0.0
 49
0.0
 49
0.0
 49
1.0
175
     0
142
0.0208333333333333
142
0.0
142
0.0
142
0.0
142
0.0
142
0.0208333333333333
142
0.0
142
0.0
142
0.0
142
0.0
142
1.0
142
0.0
142
0.0
142
0.0
142
0.0
142
1.0
179
     0
144
0.0208333333333333
144
0.0
144
0.0
144
0.0
144
0.0
144
0.0208333333333333
144
0.0
144
0.0
144
0.0
144
0.0
144
1.0
144
0.0
144
0.0
144
0.0
144
0.0
144
1.0
147
0.0208333333333333
147
0.0
147
0.0
147
0.0
147
0.0
147
0.0208333333333333
147
0.0
147
0.0
147
0.0
147
0.0
147
1.0
147
0.0
147
0.0
147
0.0
147
0.0
147
1.0
  0
MLINESTYLE
  5
4C
102
{ACAD_REACTORS
330
34
102
}
330
34
100
AcDbMlineStyle
  2
STANDARD
 70
     0
  3

 62
   256
 51
90.0
 52
90.0
 71
     2
 49
0.5
 62
   256
  6
BYLAYER
 49
-0.5
 62
   256
  6
BYLAYER
  0
ACDBPLACEHOLDER
  5
7
102
{ACAD_REACTORS
330
8
102
}
330
8
  0
SCALE
  5
50
102
{ACAD_REACTORS
330
47
102
}
330
47
100
AcDbScale
 70
     0
300
1:1
140
1.0
141
1.0
290
     1
  0
SCALE
  5
51
102
{ACAD_REACTORS
330
47
102
}
330
47
100
AcDbScale
 70
     0
300
1/128" = 1'-0"
140
0.0078125
141
12.0
290
     0
  0
SCALE
  5
52
102
{ACAD_REACTORS
330
47
102
}
330
47
100
AcDbScale
 70
     0
300
1/64" = 1'-0"
140
0.015625
141
12.0
290
     0
  0
SCALE
  5
53
102
{ACAD_REACTORS
330
47
102
}
330
47
100
AcDbScale
 70
     0
300
1/32" = 1'-0"
140
0.03125
141
12.0
290
     0
  0
SCALE
  5
54
102
{ACAD_REACTORS
330
47
102
}
330
47
100
AcDbScale
 70
     0
300
1/16" = 1'-0"
140
0.0625
141
12.0
290
     0
  0
SCALE
  5
55
102
{ACAD_REACTORS
330
47
102
}
330
47
100
AcDbScale
 70
     0
300
3/32" = 1'-0"
140
0.09375
141
12.0
290
     0
  0
SCALE
  5
56
102
{ACAD_REACTORS
330
47
102
}
330
47
100
AcDbScale
 70
     0
300
1/8" = 1'-0"
140
0.125
141
12.0
290
     0
  0
SCALE
  5
57
102
{ACAD_REACTORS
330
47
102
}
330
47
100
AcDbScale
 70
     0
300
3/16" = 1'-0"
140
0.1875
141
12.0
290
     0
  0
SCALE
  5
58
102
{ACAD_REACTORS
330
47
102
}
330
47
100
AcDbScale
 70
     0
300
1/4" = 1'-0"
140
0.25
141
12.0
290
     0
  0
SCALE
  5
59
102
{ACAD_REACTORS
330
47
102
}
330
47
100
AcDbScale
 70
     0
300
3/8" = 1'-0"
140
0.375
141
12.0
290
     0
  0
SCALE
  5
5A
102
{ACAD_REACTORS
330
47
102
}
330
47
100
AcDbScale
 70
     0
300
1/2" = 1'-0"
140
0.5
141
12.0
290
     0
  0
SCALE
  5
5B
102
{ACAD_REACTORS
330
47
102
}
330
47
100
AcDbScale
 70
     0
300
3/4" = 1'-0"
140
0.75
141
12.0
290
     0
  0
SCALE
  5
5C
102
{ACAD_REACTORS
330
47
102
}
330
47
100
AcDbScale
 70
     0
300
1" = 1'-0"
140
1.0
141
12.0
290
     0
  0
SCALE
  5
5D
102
{ACAD_REACTORS
330
47
102
}
330
47
100
AcDbScale
 70
     0
300
1-1/2" = 1'-0"
140
1.5
141
12.0
290
     0
  0
SCALE
  5
5E
102
{ACAD_REACTORS
330
47
102
}
330
47
100
AcDbScale
 70
     0
300
3" = 1'-0"
140
3.0
141
12.0
290
     0
  0
SCALE
  5
5F
102
{ACAD_REACTORS
330
47
102
}
330
47
100
AcDbScale
 70
     0
300
6" = 1'-0"
140
6.0
141
12.0
290
     0
  0
SCALE
  5
60
102
{ACAD_REACTORS
330
47
102
}
330
47
100
AcDbScale
 70
     0
300
1'-0" = 1'-0"
140
12.0
141
12.0
290
     0
  0
TABLESTYLE
  5
4D
102
{ACAD_XDICTIONARY
360
180
102
}
102
{ACAD_REACTORS
330
48
102
}
330
48
100
AcDbTableStyle
  3
Standard
 70
     0
 71
     0
 40
0.06
 41
0.06
280
     0
281
     0
  7
STANDARD
140
0.18
170
     2
 62
     0
 63
     7
283
     0
 90
      512
 91
        0
  1

274
    -2
284
     1
 64
     0
275
    -2
285
     1
 65
     0
276
    -2
286
     1
 66
     0
277
    -2
287
     1
 67
     0
278
    -2
288
     1
 68
     0
279
    -2
289
     1
 69
     0
  7
STANDARD
140
0.25
170
     5
 62
     0
 63
     7
283
     0
 90
      512
 91
        0
  1

274
    -2
284
     1
 64
     0
275
    -2
285
     1
 65
     0
276
    -2
286
     1
 66
     0
277
    -2
287
     1
 67
     0
278
    -2
288
     1
 68
     0
279
    -2
289
     1
 69
     0
  7
STANDARD
140
0.18
170
     5
 62
     0
 63
     7
283
     0
 90
      512
 91
        0
  1

274
    -2
284
     1
 64
     0
275
    -2
285
     1
 65
     0
276
    -2
286
     1
 66
     0
277
    -2
287
     1
 67
     0
278
    -2
288
     1
 68
     0
279
    -2
289
     1
 69
     0
  0
VISUALSTYLE
  5
2B
102
{ACAD_XDICTIONARY
360
18F
102
}
102
{ACAD_REACTORS
330
2C
102
}
330
2C
100
AcDbVisualStyle
  2
2dWireframe
 70
     4
 71
     0
 72
     2
 73
     0
 90
        0
 40
-0.6
 41
-30.0
 62
     5
 63
     7
421
 16777215
 74
     1
 91
        4
 64
     7
 65
   257
 75
     1
175
     1
 42
1.0
 92
        0
 66
   257
 43
1.0
 76
     1
 77
     6
 78
     2
 67
     7
 79
     5
170
     0
171
     0
290
     0
174
     0
 93
        1
 44
0.0
173
     0
291
     0
 45
0.0
1001
ACAD
1000
AcDbSavedByObjectVersion
1070
     0
  0
VISUALSTYLE
  5
4E
102
{ACAD_XDICTIONARY
360
191
102
}
102
{ACAD_REACTORS
330
2C
102
}
330
2C
100
AcDbVisualStyle
  2
Realistic
 70
     8
 71
     2
 72
     3
 73
     0
 90
        2
 40
-0.6
 41
30.0
 62
     5
 63
     7
421
 16777215
 74
     0
 91
        0
 64
     7
 65
   257
 75
     1
175
     1
 42
1.0
 92
        8
 66
   257
 43
1.0
 76
     1
 77
     6
 78
     2
 67
     7
 79
     3
170
     0
171
     0
290
     0
174
     0
 93
       13
 44
0.0
173
     0
291
     0
 45
0.0
1001
ACAD
1000
AcDbSavedByObjectVersion
1070
     0
  0
VISUALSTYLE
  5
4F
102
{ACAD_XDICTIONARY
360
193
102
}
102
{ACAD_REACTORS
330
2C
102
}
330
2C
100
AcDbVisualStyle
  2
Wireframe
 70
     5
 71
     0
 72
     2
 73
     0
 90
        0
 40
-0.6
 41
-30.0
 62
     5
 63
     7
421
 16777215
 74
     1
 91
        4
 64
     7
 65
   257
 75
     1
175
     1
 42
1.0
 92
        0
 66
   257
 43
1.0
 76
     1
 77
     6
 78
     2
 67
     7
 79
     3
170
     0
171
     0
290
     0
174
     0
 93
        1
 44
0.0
173
     0
291
     0
 45
0.0
1001
ACAD
1000
AcDbSavedByObjectVersion
1070
     0
  0
DICTIONARYVAR
  5
17E
102
{ACAD_REACTORS
330
178
102
}
330
178
100
DictionaryVariables
280
     0
  1
1:1
  0
DICTIONARYVAR
  5
17A
102
{ACAD_REACTORS
330
178
102
}
330
178
100
DictionaryVariables
280
     0
  1
STANDARD
  0
DICTIONARYVAR
  5
179
102
{ACAD_REACTORS
330
178
102
}
330
178
100
DictionaryVariables
280
     0
  1
STANDARD
  0
DICTIONARYVAR
  5
17B
102
{ACAD_REACTORS
330
178
102
}
330
178
100
DictionaryVariables
280
     0
  1

  0
DICTIONARYVAR
  5
17C
102
{ACAD_REACTORS
330
178
102
}
330
178
100
DictionaryVariables
280
     0
  1

  0
DICTIONARYVAR
  5
17D
102
{ACAD_REACTORS
330
178
102
}
330
178
100
DictionaryVariables
280
     0
  1
0
  0
DICTIONARYVAR
  5
17F
102
{ACAD_REACTORS
330
178
102
}
330
178
100
DictionaryVariables
280
     0
  1
2
  0
DICTIONARY
  5
18E
102
{ACAD_REACTORS
330
18C
102
}
330
18C
100
AcDbDictionary
281
     1
  0
DICTIONARY
  5
18D
102
{ACAD_REACTORS
330
18C
102
}
330
18C
100
AcDbDictionary
281
     1
  3
8796074783216
350
187
  3
8796074783232
350
188
  3
8796074783248
350
189
  3
8796074783264
350
18A
  3
8796074783280
350
18B
  0
DICTIONARY
  5
65
102
{ACAD_REACTORS
330
63
102
}
330
63
100
AcDbDictionary
281
     1
  0
DICTIONARY
  5
6A
102
{ACAD_REACTORS
330
69
102
}
330
69
100
AcDbDictionary
281
     1
  0
DICTIONARY
  5
A7
102
{ACAD_REACTORS
330
A6
102
}
330
A6
100
AcDbDictionary
281
     1
  0
DICTIONARY
  5
B9
102
{ACAD_REACTORS
330
B8
102
}
330
B8
100
AcDbDictionary
281
     1
  0
DICTIONARY
  5
BD
102
{ACAD_REACTORS
330
BC
102
}
330
BC
100
AcDbDictionary
281
     1
  0
DICTIONARY
  5
C4
102
{ACAD_REACTORS
330
C3
102
}
330
C3
100
AcDbDictionary
281
     1
  0
DICTIONARY
  5
18
330
16
100
AcDbDictionary
280
     1
281
     1
  0
DICTIONARY
  5
3F
330
3E
100
AcDbDictionary
280
     1
281
     1
  3
BUMPTILE
360
40
  3
DIFFUSETILE
360
41
  3
OPACITYTILE
360
42
  3
REFLECTIONTILE
360
43
  3
REFRACTIONTILE
360
44
  3
SPECULARTILE
360
45
  0
DICTIONARY
  5
37
330
36
100
AcDbDictionary
280
     1
281
     1
  3
BUMPTILE
360
38
  3
DIFFUSETILE
360
39
  3
OPACITYTILE
360
3A
  3
REFLECTIONTILE
360
3B
  3
REFRACTIONTILE
360
3C
  3
SPECULARTILE
360
3D
  0
DICTIONARY
  5
C
330
A
100
AcDbDictionary
280
     1
281
     1
  3
BUMPTILE
360
D
  3
DIFFUSETILE
360
E
  3
FBXASSET
360
F
  3
OPACITYTILE
360
10
  3
REFLECTIONTILE
360
11
  3
REFRACTIONTILE
360
12
  3
SPECULARTILE
360
13
  0
DICTIONARY
  5
180
330
4D
100
AcDbDictionary
280
     1
281
     1
  3
ACAD_ROUNDTRIP_2008_TABLESTYLE_CELLSTYLEMAP
360
181
  0
DICTIONARY
  5
18F
330
2B
100
AcDbDictionary
280
     1
281
     1
  3
ACAD_XREC_ROUNDTRIP
360
190
  0
DICTIONARY
  5
191
330
4E
100
AcDbDictionary
280
     1
281
     1
  3
ACAD_XREC_ROUNDTRIP
360
192
  0
DICTIONARY
  5
193
330
4F
100
AcDbDictionary
280
     1
281
     1
  3
ACAD_XREC_ROUNDTRIP
360
194
  0
XRECORD
  5
187
102
{ACAD_REACTORS
330
18D
102
}
330
18D
100
AcDbXrecord
280
     1
  1
AcDb_Thumbnail_Schema
102
{ATTRRECORD
341
188
  2
AcDbDs::TreatedAsObjectData
280
     1
291
     1
102
ATTRRECORD}
102
{ATTRRECORD
341
189
  2
AcDbDs::Legacy
280
     1
291
     1
102
ATTRRECORD}
  2
AcDbDs::ID
280
    10
 91
        8
102
{ATTRRECORD
341
18A
  2
AcDs:Indexable
280
     1
291
     1
102
ATTRRECORD}
102
{ATTRRECORD
341
18B
  2
AcDbDs::HandleAttribute
280
     7
282
     1
102
ATTRRECORD}
  2
Thumbnail_Data
280
    15
 91
        0
  0
XRECORD
  5
188
102
{ACAD_REACTORS
330
18D
102
}
330
18D
100
AcDbXrecord
280
     1
  1
AcDbDs::TreatedAsObjectDataSchema
  2
AcDbDs::TreatedAsObjectData
280
     1
 91
        0
  0
XRECORD
  5
189
102
{ACAD_REACTORS
330
18D
102
}
330
18D
100
AcDbXrecord
280
     1
  1
AcDbDs::LegacySchema
  2
AcDbDs::Legacy
280
     1
 91
        0
  0
XRECORD
  5
18A
102
{ACAD_REACTORS
330
18D
102
}
330
18D
100
AcDbXrecord
280
     1
  1
AcDbDs::IndexedPropertySchema
  2
AcDs:Indexable
280
     1
 91
        0
  0
XRECORD
  5
18B
102
{ACAD_REACTORS
330
18D
102
}
330
18D
100
AcDbXrecord
280
     1
  1
AcDbDs::HandleAttributeSchema
  2
AcDbDs::HandleAttribute
280
     7
 91
        1
284
     1
  0
XRECORD
  5
40
102
{ACAD_REACTORS
330
3F
102
}
330
3F
100
AcDbXrecord
280
     1
270
     1
271
     1
  0
XRECORD
  5
41
102
{ACAD_REACTORS
330
3F
102
}
330
3F
100
AcDbXrecord
280
     1
270
     1
271
     1
  0
XRECORD
  5
42
102
{ACAD_REACTORS
330
3F
102
}
330
3F
100
AcDbXrecord
280
     1
270
     1
271
     1
  0
XRECORD
  5
43
102
{ACAD_REACTORS
330
3F
102
}
330
3F
100
AcDbXrecord
280
     1
270
     1
271
     1
  0
XRECORD
  5
44
102
{ACAD_REACTORS
330
3F
102
}
330
3F
100
AcDbXrecord
280
     1
270
     1
271
     1
  0
XRECORD
  5
45
102
{ACAD_REACTORS
330
3F
102
}
330
3F
100
AcDbXrecord
280
     1
270
     1
271
     1
  0
XRECORD
  5
38
102
{ACAD_REACTORS
330
37
102
}
330
37
100
AcDbXrecord
280
     1
270
     1
271
     1
  0
XRECORD
  5
39
102
{ACAD_REACTORS
330
37
102
}
330
37
100
AcDbXrecord
280
     1
270
     1
271
     1
  0
XRECORD
  5
3A
102
{ACAD_REACTORS
330
37
102
}
330
37
100
AcDbXrecord
280
     1
270
     1
271
     1
  0
XRECORD
  5
3B
102
{ACAD_REACTORS
330
37
102
}
330
37
100
AcDbXrecord
280
     1
270
     1
271
     1
  0
XRECORD
  5
3C
102
{ACAD_REACTORS
330
37
102
}
330
37
100
AcDbXrecord
280
     1
270
     1
271
     1
  0
XRECORD
  5
3D
102
{ACAD_REACTORS
330
37
102
}
330
37
100
AcDbXrecord
280
     1
270
     1
271
     1
  0
XRECORD
  5
D
102
{ACAD_REACTORS
330
C
102
}
330
C
100
AcDbXrecord
280
     1
270
     1
271
     1
  0
XRECORD
  5
E
102
{ACAD_REACTORS
330
C
102
}
330
C
100
AcDbXrecord
280
     1
270
     1
271
     1
  0
XRECORD
  5
F
102
{ACAD_REACTORS
330
C
102
}
330
C
100
AcDbXrecord
280
     1
 70
     1
 90
1959938040
 71
     1
  1
D63D738E-46ED-4811-8527-AE834FAE6F97
311
504B0304140006080800796E9D44FC381F10D8000000200100004F00000039353335423546312D463845412D343036312D393546382D4232444238373146373743362F4173736574446174612F446566696E6974696F6E4974657261746F7250726F706572746965732E62696E454E3D4FC33010350C200606FE41D5DD3876
311
4D85ABB6A8C485892E6562A9AECEB54472922A4E244646FE35DCA9453DDDBBEF7B773F4288DF9350282E08DF646FC9BF628D6D19D6E1132B10575C89CD16E2F5B9774921A71E77D0C78EB7DECA143046A8B1E9D3DD79745041477410EF79E986F05F48CCB03F1EE3FB2B02BFC41E8AC3E40952C26EA676DB2FE5F4C21BB774
311
D2D87C246DEEBD5CE8CCC87CECC7CEDB17FDB87C562DA6A66F03266554B639316F0EF5BE2CE6D3AEAC70504385B36168917E2A867393692B332B8D7BD7A3C98326FD982A9EFC03504B0304140006080800796E9D4406C0397012010000300200004500000039353335423546312D463845412D343036312D393546382D4232
311
444238373146373743362F4173736574446174612F496E7374616E636550726F706572746965732E62696EEB606060F80F0540260323103700495E20ED9E9A975A94991C9C9C919A9BA80214703133763137B670D535317375D135B13034D4B5303532D77574B530367173743573B334674768046931363471713532B5D435
311
35313106EA3332D475727372D13534373670367376B67474B5042A03DBCBA019D37FE8ABC6157B20CD04146B0062181F4C03F940F0C11EA29A8141C08141002C0426541C106CAC2CA046088033B02A030AC2157C6006F21A8018AAF50194E6010A610250382264E08660284CD9E98021862280A91564B406929A0FF62C401E
311
28B6F88038B83CB1243943D7A928312F25350524D3C302926360F06206F98081610633843F0B4ACF61068530501D94DF07A52740C53BA0FABAA0E239501A00504B0304140006080800796E9D4428BB58AF800100009E0500003D00000039353335423546312D463845412D343036312D393546382D42324442383731463737
311
43362F536368656D61732F436F6D6D6F6E536368656D612E786D6CBD544D4FC23018BEFB2B96DE15493C78601010A34B880709DEDFB52FD0D8B54BD70DF6EFED3AC0B12E6442E2716BFB3CEFF3D18E26FB440405EA8C2B1992E1C323095052C5B8DC842437EBFB673219DF8DA659866649B798C078B48AE6410122242F2A49
311
94AC7F93815DF85C049C8564CA0A901499DD886B2EB9B1E02448F358701A9235880C49A0119892A20C89D1B9FD768815CAD268CB5E0355B40B1E47F3E37A2020464BED06AA57CE8FCC20C3C3446D46761A2632A8C1283D07031EFF2AE7CCB1BFEEE916E406DFAC8E36FFD99A9D60A6944090EEDC3B670C7DC13DE86B6B2C5C
311
240D6E503BB85ACD579D513F1B9F9A69DC9CC22AFA80C426D40AF0B21EA168559156B6276F0F726A6BFF04DCD513A87A62CAD41FB24FCB2858B3952E3D852084DA25B9303C15687973CC8E8AAE11DF2836C38C6A9E765E8C1BA1BFB1DC29CDFE518C8B5A7655A4ED7E77291ABEB80DBD82EC866ADE1B8D05AF9E35CF09D7A0
311
61F38A986D9EC412B8F0F65E5D81534D9B231D1E5A8FE577A241F3A5FD01504B0304140006080800796E9D442CCEBD668A040000E01200003E00000039353335423546312D463845412D343036312D393546382D4232444238373146373743362F536368656D61732F47656E65726963536368656D612E786D6CD5586D6FDB
311
380CFE7EBF42F0F7A649B70E1B90744856B4970F450FCD7A5F05459613EDE4174872DADCAF3F522F8ED3B88D2F1D06AC4050DBA2493EE4438AF2F8EB73AEC8466823CB62928C06C384888297A92C5693A4B6D9D9E7E4EBD51FE3A931C22EF85AE4EC6AFC38BF261BA626C9AD288496DC3F4FCEAFC63366845F7A10452AF41D
311
B320C0D44EC26EAB20918735565582695670811A6A49643A49A6E9069FA4604A64B29016DC4B48552F95E4932463CA888468C1D2B250DB4962750DF7CE273069CE8363F1FF4EDB00E0A21999574AE4A2B00C353B93F3BD4777B8A61ED8F604ABFEDD79CE56A2B7BDFBDBC50996E0ADDE16FED26223C5D30956C29BDF4A55EA
311
686E5E58B112DA45CE67F76F4FA27EFA3FB672FD7372FC388FAECDCA5209E693CAD167BADCD272F943701B3812F8A3D852008B1D2E32DB927B2F833C6EA95879925356D254582695095A3CE982924720BE5774A3CB9CDCDB350427D2DF20DA1B5532EBE2D5D6288D75D4F7E4FD9890A0EF8E3D93EBB8F8BA4758158EF6FB90
311
A6F9520281C93DE7AAC6D24607DA296BB96018123F821A7D6A5C5884050C475DA4865442732C8B95684A50165CBB3A32F25F783A4A480ED59AD7F924B968AEA50131F46303223E6A397B0E52976030DC1DCA81D7E7C1EDEEA42C19FF27635C505E2BD5198A599020DF50A2330FCB3AAF28CB0124108429553EF1B228802E22
311
65D8F7CC2401042B155BCC7070F1E5C55F13B4A9577362CCCE46C32174E010C3C378C44841A4BDA00FE3A12006CE11EE6AEC59894D3526DDE1CD59D503ECC324017F8061B7F162162FA62EDD81AE3308617770796DCBDAD2B2625C5AE8A63DE20B2C8AA5E95E76E5730823955956E33E705425A2187C185D36489A1B44D3DC
311
EC2172F6BA2105C3546287A7194B2331768EBBE64F6E70A9930ABE0ADEA89E9E2C38523B810287AD67A54A039C1606EAFE68F8304610BB9093DBDDABC0B2AE4E290DCDA15376D7E39F72B556F0B32EAB5D3D498B4C41ABADEC3A1434C422D87E8025A84BDCB2B1417ED750FAE4DA8976863974C577C7F902D3F156AD354DEA
311
3540DE6BEAE2BEA52F7A2EB4CA43802ECE5BF2CE2EDC9347179FFB023CE412E60BE16DA0BE29B374988A553F561DC04615DD35F7D2C8979F60E5955CE93DF29DED8AFA1EE6642D53418086C03C47C377910F75F7E8F5EF665F70B60FFB22AEDF897D119E8423C773E819A3C1E55E550599EE6EDCA34D0C86FD72057DF2CD46
311
F16A470682471C164E4346D5306BF12D7D12D82CFF673D41636C347443FEB51B50D72EA171A8E4A58623A4A16E0FA2B8B10A0D23268D87C33896EE8FB73305A74BF224EDBADFA0BD674AB354D63DB7BD5D83426761C077DE767728235446A552754EB93B755891C3C4CC6CADE37CF0E912A7BB38DBA010F9DE1282EDF470CA
311
69A9CDA482E334C4A6EA4107987980B17E72F31730EBF88BBD39E7C629F56797A3C0009C2C5AE7951D9A05A02773440F02EEB4DE396A3B6A570C72CCFBCD823B0B8ED3F1D5CEDDFED772FA70236C83FB7D86C385D570B87107535572A60A96035F8F7C6A7192F13007246BBE0521855E6AC46F3E27689CEE7D186A6FD679D9
311
8CDCAD13333E04EBE7ED6F55FF01504B0304140006080800796E9D446180134D5F0100006B0300004500000039353335423546312D463845412D343036312D393546382D4232444238373146373743362F536368656D61732F52656E6465724D6174657269616C536368656D612E786D6CA5934D6FC2300C86EFFB1551EEE3
311
43DBA41D1A103009551ADAD40EAE28A4A68D9426284961FCFBE5A340113B2071746D3F765EBF4DC6BFB5407BD0862B49F0B037C0082453059725C18DDD3EBFE3F1E829991803366715D474942CD30FB4A782E00C64017A412D684E454CE3FE28995203B162A6EA5AC94B66997D225E109CD63B0135484BAD1B3C07E9080CA3
311
5DB3119C11BCA5C200461A68A1A438126C75E3E230D40FF81FB3F03C91D1E3A3A0AF79FE28E25BC39EC3E17E4C2A2D94A0833A51AF55BCCA7D88572FCBAC529C4140B020FC3AAFA886621DCED7EAD7664CC86024E806DC297DA1BB393E4156543457A4537DB8817349A70F8ACBF09B3EEE2CB2F33E91B65D60786E4E3B39B7
311
7E3FEEEF5650424525DA657FB8B46BE6BF064646F0A0F7327C0BC1BC1B4CBBC1C419FA3CCB23500007872A2580CAAE5461865565294E4EDB4617B62FF579DF9A5B2F54E834076A597573A020912FED777F9B3F504B0304140006080800796E9D44C4987B2E51000000570000004700000039353335423546312D463845412D
311
343036312D393546382D4232444238373146373743362F4173736574446174612F41737365745461626C654F66436F6E74656E74732E62696E53616060703133763137B670D535317375D135B13034D4B5303532D77574B530367173743573B3341702AACB4D2C492DCA4CCC492C28484D2C4ACC4B4E050A82012F90744FCD
311
03CA26072767A4E6260200504B0304140006080800796E9D44F865834058000000680000004500000039353335423546312D463845412D343036312D393546382D4232444238373146373743362F4173736574446174612F53747265616D56657273696F6E5461626C652E696E66558CBD0A80300C06F73E4B117FB66E4517
311
41D041DC5BF98480A492E4FDD18EAEC7DD4555D89EF28DF51A0B1BD8340C4DE7DD848B988C0ACF0649566493F2408C508DDEBB99D5129FF8F1AF8CF5B9503E20FAE5A16B5AF702504B0304140006080800796E9D44D142B9EA340100009A0400003600000039353335423546312D463845412D343036312D393546382D4232
311
444238373146373743362F4173736574446174612F636E782E786D6CCD54B14EC33010FD95C87BECA4140990E30AC1D209242A06B68B7329561D3BB22F08FE1EBBCD002A62CA50C9D3F3BBBBE727BF939BCFC1161F18A2F1AE6135AF58814EFBCEB87DC326EACB1B566C940CDED30F1A2B1C0CD8B00C3325F7C14FE30C75D8
311
C364336A8D3BCCE07D8C483B682D3EF50FDE113A8AACD016626C58D4EF380087897C87F1C03B20E0350F18FD1434A64E64069C3BE98040D831B5AAEA7559ADCBD5EDAEBEBABBAED379932233956CBDB733DFA461C18F853E4D65AA92225F2B39053373F25B98FA4B236F8D932231958C14922773057D8DA902C6D11A0D94AC
311
135E1352994808831427B292227BF0CB8947EC8D33B9649B8401F9F09CE461208317E7C87F5A977766EB2281D378B97E9C2B5CDE8597E30F7A3D05F298984BCBC9B9426E5CBF404AC4718DA4D0E4ADA2BE01504B0304140006080800796E9D4451115DD0080100004F0300003400000039353335423546312D463845412D34
311
3036312D393546382D4232444238373146373743362F536368656D61732F636E782E786D6CCD933F4F042110C5BF0AA15FD83DCF440DCB151656366A65873077920366C31FA3DF5E5829EE123B2D2EA180C72F93798F41EC3EBD231F1093C530D3898D9440D0686C38CCB4E4FD7043C94E8A88984F304A82F230D32653290E
311
11CBD225037B555C539D0DC72EDEA3F7189EF53B784589762AA599A6F5C854C968201D995159B189454858A2865A215B0FBD828EA032182A37E3B41DC6EDB0B97D99AEEEAEA7BA5E056FA4146F88AEF3366488B8108D75136A3BA3E0ED5A8A126D679A072A4F7B63350DC12B2145CAB166D0C9FCB554522D8BB35AE51A155F
311
C11F460ADEAC9E197E8000D1EACB747CD6DCBF597E8260203ED6578A56B9CB74FE5B8F7F0B80AFB35F47A07D05F90D504B0304140006080800796E9D44410A3D5871000000A40000002C00000039353335423546312D463845412D343036312D393546382D4232444238373146373743362F636E782E786D6C55CC4D0E8230
311
1086E1AB34B31774E7A22D31F1069E60020334B633A63FC6E34B0909B07DDE2F9FEE7EC1AB2FC5E4840DDC9A2B28E25E06C7938192C7CB1D54677514C9871928C640062A83D55394F2D968A0118BAFEA1DBF377CA444F98919176EAB9FEAAB9F2960DA5BBB1E2ED3FA6FFF504B0304140006080800796E9D448866B4CB7E00
311
0000A300000007000000636E782E786D6C4D8CD10AC22018465F45FE7B6B564E07EAC8CAF718CD0DC969D88C1E3F8D5D74F5C1E13B47F49FC5A3B74D2F178304B26B00D9708FA30BB384BC4E9803EA954831AE7F37406158AC848A418939C5FCDCD068A721FB4ABD0B8F0D76F4483535041B7E3BE353D312DC51C3B13E5C35
311
67C43076698BB1AF4A995FAF6CCDAB2F504B0304140006080800796E9D4416E99B5DA600000035010000130000005B436F6E74656E745F54797065735D2E786D6C9590410E82301045AFD2740F4517C6180A0BF5065E60AC53688469D30E066F6F91AD9AB89CF9FFFD3F99BA9DC7413C3026E749CB4D59498164FCCD51A7E5
311
C4B6D84BD136F5E5193089ECA5A465CF1C0E4A25D3E308A9F401292BD6C711388FB15301CC1D3A54DBAADA29E38991B8E0254336F5092D4C038BF39CD76B6FC6A538AEBEA54A4B08617006389FA516557DE4AE8E7E70DE30729138228C5F021CD93F02D4FB0DCD0B504B0304140006080800796E9D443DEE336E6400000079
311
0000001B0000006175746F6465736B2D64657369676E2D7061636B6167652E786D6C35CBC10E83200C00D05F21DCA56CA76D41FC96062B120735B69A7DBE268BB7777961F8D5AF396893C2ADB70FE7ADA196782C2DF776D7A97B5933C430F15651E5469C55D70F80A4992A3ADC954792C525AE70A1E4D6AD9816CC044FEFDF
311
01FE3FDE907802504B0304140006080800796E9D4475BFEC65F7000000960100003700000039353335423546312D463845412D343036312D393546382D4232444238373146373743362F4173736574446174612F636F72652E786D6C8550CB6EC32010FC156BEFD8C6EF5498C895932FE8A93704C44589C1E251F5F30BB12B
311
B5A74A48CBCECECC3EC8F96B7D649FD23A65F408382F21939A1BA1F43242F037344076A6C41AE37FD120D36C952324182859AC09DB0171A3BDD409D546C80364CE490F197FC4CF088E7FC895E52CF8C870F77C63FCCE1699E37CE751128212875489E8A66E4A5AA055DF0EA74BDDA2F975BAA2A6BBF4E8344F434CCBAE9DF0
311
B5EFBB9614494C8957EB4F776E25F352447D891B5436A83ABDE1FAA5C5F1BD9322312971DEC69D8FA6693BA0539A7A669E9162AFFE710D9BF8DF3528EDEBEA70DD150E288E433E0B9414E94A313C4F1863BA28FD06504B0304140006080800796E9D442B61662FF6000000940100003500000039353335423546312D463845
311
412D343036312D393546382D4232444238373146373743362F536368656D61732F636F72652E786D6C8550CB6EC32010FC156BEFD8C66F4798C855921F684FBD214C5C94182C1E553FBF60BB527BAA84B4ECECCCEC839CBF9667F2298C955A0D80D31C12A1B89EA49A07F0EE8E3A48CE9418ADDD2F1A248A2D6280080325B3
311
D17E3D20AE95132AA24A4FE20099B5C241C29FE13380E51F626129F32E30EC235D197FB059A438DD7994782FA7432AA7E026EF5218A0455B77FDB5ACD1E565BCA1AAB9B6A8BF8C5D48F3A61EF1AD6D9B9A64514C8993CB4F776E0473620AFA1C5728AF50D1BFE1F254E3F0DE491699945867C2CE47D3B81DD0D76D4E4BB2BD
311
F6C7D3AFD3FF9E5E2A571687E7AEB0407118712B5092C51B85B01D30C4784FFA0D504B0304140006080800796E9D44EB2873FA02010000D70100002D00000039353335423546312D463845412D343036312D393546382D4232444238373146373743362F636F72652E786D6C9591D16E842010457FC5CC3B2A2AABBB4136B5
311
AD5FD0A7BE5199B5645730804D3FBF586DDABEB50909E472EEC09DE1E7F7E996BCA1F3DA9A16689A438266B04A9BB185255C4803C95970676DF8814162E4842DAC32083E3ABBCCBB345813D0ACAAB10A77517A8F0192E1160F2DF8E1152799CA2544C25FD3590E5739624AD38D133CE8E9CB3A389401158822A715C92B521C
311
9F68796234AE679EADA4E08B36A12CF6C7707A4195D839C4482018CFB6DB482D5AED8C56F18FFAA2D18138B29275ACA7A46F1EEF48951F2839B2BE215DF1D03535EDEBFAFE108B44B3E03EB8D899BDC8DA83BFDA37E3AF64CBACFE996C737810F43B54B6B659F0EC7306715F47223E00504B0304140006080800796E9D44E9
311
343C1A06010000B201000008000000636F72652E786D6C8D50CB6EC32010FC15C4DD0FFC4E84895C25F9829E7AA386B82836583CA2F6EFBBC4AED4DE2A212DCCCEEC0C4B4F9FCB8C1ED23A65748F499A6324F56884D2538F83BF251D462746AD31FE170D23CD17D9E3086346276BC2BA43A3D15EEA886A23E40E72E7A4C768
311
9CE1D263377EC885A73C7860B87BBAF2F1CE27999274E331EAD5F2231DADE45E0ACC8A9C54495E25C5E19594C79AC079A35964321A8212BB9512E0AE6E4A5A90B47577B89475727E19AE49D55CDAE4701E3A78E64D3D906BDB3635CDA29851E72DFC791F02393D72FC117D69B6B5187D3766DE09104A20A3E72FCC729AC5C6
311
9FD06115FF08ADB42F8B7DE0A670981108F46C8071DC2094E77AA1C66DB36F504B01021400140006080800796E9D44FC381F10D8000000200100004F000000000000000000000000000000000039353335423546312D463845412D343036312D393546382D4232444238373146373743362F4173736574446174612F446566
311
696E6974696F6E4974657261746F7250726F706572746965732E62696E504B01021400140006080800796E9D4406C03970120100003002000045000000000000000000000000004501000039353335423546312D463845412D343036312D393546382D4232444238373146373743362F4173736574446174612F496E737461
311
6E636550726F706572746965732E62696E504B01021400140006080800796E9D4428BB58AF800100009E0500003D00000000000000000000000000BA02000039353335423546312D463845412D343036312D393546382D4232444238373146373743362F536368656D61732F436F6D6D6F6E536368656D612E786D6C504B01
311
021400140006080800796E9D442CCEBD668A040000E01200003E000000000000000000000000009504000039353335423546312D463845412D343036312D393546382D4232444238373146373743362F536368656D61732F47656E65726963536368656D612E786D6C504B01021400140006080800796E9D446180134D5F01
311
00006B03000045000000000000000000000000007B09000039353335423546312D463845412D343036312D393546382D4232444238373146373743362F536368656D61732F52656E6465724D6174657269616C536368656D612E786D6C504B01021400140006080800796E9D44C4987B2E5100000057000000470000000000
311
00000000000000003D0B000039353335423546312D463845412D343036312D393546382D4232444238373146373743362F4173736574446174612F41737365745461626C654F66436F6E74656E74732E62696E504B01021400140006080800796E9D44F865834058000000680000004500000000000000000000000000F30B
311
000039353335423546312D463845412D343036312D393546382D4232444238373146373743362F4173736574446174612F53747265616D56657273696F6E5461626C652E696E66504B01021400140006080800796E9D44D142B9EA340100009A0400003600000000000000000000000000AE0C000039353335423546312D46
311
3845412D343036312D393546382D4232444238373146373743362F4173736574446174612F636E782E786D6C504B01021400140006080800796E9D4451115DD0080100004F0300003400000000000000000000000000360E000039353335423546312D463845412D343036312D393546382D4232444238373146373743362F
311
536368656D61732F636E782E786D6C504B01021400140006080800796E9D44410A3D5871000000A40000002C00000000000000000000000000900F000039353335423546312D463845412D343036312D393546382D4232444238373146373743362F636E782E786D6C504B01021400140006080800796E9D448866B4CB7E00
311
0000A300000007000000000000000000000000004B100000636E782E786D6C504B01021400140006080800796E9D4416E99B5DA6000000350100001300000000000000000000000000EE1000005B436F6E74656E745F54797065735D2E786D6C504B01021400140006080800796E9D443DEE336E64000000790000001B0000
311
0000000000000000000000C51100006175746F6465736B2D64657369676E2D7061636B6167652E786D6C504B01021400140006080800796E9D4475BFEC65F70000009601000037000000000000000000000000006212000039353335423546312D463845412D343036312D393546382D4232444238373146373743362F4173
311
736574446174612F636F72652E786D6C504B01021400140006080800796E9D442B61662FF6000000940100003500000000000000000000000000AE13000039353335423546312D463845412D343036312D393546382D4232444238373146373743362F536368656D61732F636F72652E786D6C504B01021400140006080800
311
796E9D44EB2873FA02010000D70100002D00000000000000000000000000F714000039353335423546312D463845412D343036312D393546382D4232444238373146373743362F636F72652E786D6C504B01021400140006080800796E9D44E9343C1A06010000B2010000080000000000000000000000000044160000636F
311
72652E786D6C504B050600000000110011005A060000701700000000
310
504B0304140006080800796E9D44000000000000000000000000370000006662782F42324130304339462D384643442D343137322D423730322D3741333835433238314534412F617474726962757465732E62696E504B0304140006080800796E9D44000000000000000000000000350000006662782F4232413030433946
310
2D384643442D343137322D423730322D3741333835433238314534412F76657274696365732E62696E504B0304140006080800796E9D44F270F1330600000004000000360000006662782F42324130304339462D384643442D343137322D423730322D3741333835433238314534412F747269616E676C65732E62696E6366
310
60600000504B0304140006080800796E9D4451464CB48900000043010000360000006662782F42324130304339462D384643442D343137322D423730322D3741333835433238314534412F6469726563746F72792E786D6C9D8F310EC2300C45AF127987122606C71DD918B841D4B851A43646695A717C52A85029031293A5
310
A76FBF6FACEF7DA7264E43906840EF0FA03836E242F406C6DCEE4EA06AC22492573150D1F66C60C640E8938CB705396EEDD86DE9B5042FE27813D640EA63BB001C722AF6E55CB61E4863F58284D5D3F53DD715CE1C3985E63FD7F1B7EBDD617E9F1E504B0304140006080800796E9D44507DFCB43F070000201C0000340000
310
006662782F42324130304339462D384643442D343137322D423730322D3741333835433238314534412F6F626A656374732E786D6CDD595B6FE23814FE2B56F665F7815CB815469411055AA15167468366B56F9109867AEB5CE4242D9D5FBFC78E1DE234403A1769B4AD54A8631F9FF39DFBC9E4FD2164E889F094C6D1B5E5
310
D9AE854814C45B1AEDAFAD3CDB7546167A3F45131EC759659F85221C926B4B2C5BD3C99EC779A296B6648773565FBDBDF907A5018988850286D3F4DA4A830712621BE759BC25E9A3BDC519B6F7BB83EDD9C54693EC9EE3E4A17655823989326015D623A0A238F0CC7F4124673A71C406635BAFDDB6EE996D8E14DC64944669
310
86A3E01557B5EBBA27B8AA5DD7F3FA8B657730EE0CFAFD5EA73FEC7A9D9BDB9B45C7BBEAB9F3E17C3E9E2DC7169A4E3671CC4A052424DA82165FACA93771C493527C854213DF411C45245068366DD812459792B48E8901AC2745AB28A490B5B2D06B29FC896DAD40315832D0D6C2E9CFAAF5C69B7F0184B48D95F294082B4F
310
330EBA56D817FEE04E9C62D5D00B4D518833C2296688D10DC71C14045B0B05196484B70852486026B5A8E9557905C3BEEC4B4D5CEE72C684FF5A53E9693EF823C952C919FD46F891FBEA6DC013489BD3281B2961B39704488C278E5C2C9EF5BAEA610124DA31BC076B0131C5A65EB786D75CC482D5C29A7EB8DD1CD6223E34
310
5F9EF038213C1396279D59F99DD660C5B4C0F85A8052E06AEAEE88CA1780FE23205FF28226A0394E0FFD435FCBCE7194EE621E8276908B3A2EFC7191F8FAEADBC4290F4F113262E5294CC16D7F12A68618C6DD1548A7932730FA98F79470EB0033B0E97B1A093F0743412C862588F7BBCDC19AAE2098C2229CC20CA487DF89
310
23BE22F828E840BCA969A829FCB650947698BA9F1D75750736C36950AACA90F114BE839F82EF6CB1FEB0CEF90E07E45E39F682EC68443348A6CD0C19A01B2EFF75F5517AE41D8B37981D4F1B9B02B8661F8BB8D1A096B5520B927A014E441A2E342357EE29783B633822719EAAF5A63815C42CE6FEE6C52F5CB8F1AEBFB50D
310
14972903688C6590DC034E1381893555DA2A03A15D11142C0C736581FB42ABFE260F131F87711E8950FBDA14EB7C409C1196085425356DD8DA6B35D92DDDEDF214825723C9B901A4F2674DB8B0F03EC4B1267E39D9710C49348E7C0A39189CA5F106E38212BCF33CA784ED7CCA581EFA3BCA208FF8214E4ED06F294135733D
310
9297E7986F1B099A96A57D52DB90005C01AB41D2D9AA88F94AA79C3C515166CA7CA6B381B143D5A1D6B47F225D884CD100A836C6C2F087BDC5556FB4846269B9E8F4479ED7190DBA579DD972D4EBDFCE96C3DBF1559D4F1DADAAF90E5429CA1CC3FFB2873CDC4498327820C4C6DBE4DD7B993DAF1D088DCED89B2DBAE3E5B8
310
D3EDCFA15A9B2F169D99E7763BF3E162385EF46FBDD1F2C6E1248D731E90D4E93AAEAF4D3289F6A7B8D2DCBD8EA150D65C4E765A5F7561FEC731B49E130C25FEAE41B48C5D0D0561DB202A8ED643280E1E458AF203A8FA1ADDA71644EB7C34C5B937C665D7EEB9F2C7F3C65D77DC1D8D87A5B19F0DD4F29E1F8E734D1204D0
310
77E6991F2738A0597342ADE1D2324EBF29B7D83D6F80009DF26F79C9F93CA32EF16988F7C4DF61D1253404C64B1234E6B03D8BD3944624955DDEABEAAF46D3B5A19832736E8311D2D40F4986BFC7FE64DB50B36988CDCC877E341313818B554169D0AA0339455174BF90B8A5FC2F7E8AC384159DEE250CBCAE8640F7384D16
310
279816573C81BDF938F3DD2D91838B4BD44BF6757DD0A8B53AF5F177933F018FAE6B7E213CFA8AF6A5933DF0C6E26704416538F07AC7CCAEC2CA29ACF45599E8E3580E9D67F0E23F13BA7F685568B6D349A5642B8AEA8C84D0C6E22CE7ADFC7538705F5DA4E242CD212A37BDB13894FD9BEEE0C08C650377AABCAD5C037528
310
8D60CED54A90575234AA45EA42CEF4C4E8EA0D7E7DD631AA547F385EFEF28AB9EA7CA11CFE5CC601AAE52200ABE863D4D48D55B7510FA5CF380B2090AEE567E7063C624BB6C7C6CC20D754A2EBFAF452F5BC12013584892D1671F65E7C615F30A81ABAE7D4B92B8A36A7585F89C466C370FAC887C1B449EBD3DDBA4605565A
310
9FFE2C3022CF350A6A752EBAE133A4BEAE8E3D7F8D8292E8EBEACCF1DFA2A3D00AAC8CD1601A9CC68CC2509E6CD19EC490BD61ECD0A2DBE02149655606E355414ABF116871FAA998A96678C3F4E9E001C3609AA95E2C0F60280A19F3DA52EBE80F18838A49A41C4ED98FD086A91866A19CD36B0B2C36A3D06DD91B1867C9E1
310
A1A45E1B578263E3682FF27D71AAFCFF784CA00351E92857B9A70D2E4A32C399A0B04DE47B02A8FA8A07D3C9F78BAED9413883AF9B3C2B85392E1CA55120E81702857030F57B54F01EA0A0382F9767CB3D0624AD26F367EDA0A0DAC930DFCBF17A05EFD9E2B32326E3AB4F2861F95EA8F35CF76B50EA88AE9BE5C5146A0286
310
A1C44CB0A821E7EF9CCF3C86574C21BAA56004E8CFC368F897338FC3308E8A2567A65E54A1F503BC76DA3A7AE4076DBCEB0D1C390550637D7F835362E36DFA080BA05A4EC56CB480D83080329A560C406B44E8028E19FB570BA46AA3CA84A41A76053C72A68FC091C4BB1CE136D50D950124F80270251F1EBFE88589C36108
310
3EFD0F504B0304140006080800796E9D44C5697CDD3E01000046050000300000006662782F42324130304339462D384643442D343137322D423730322D3741333835433238314534412F636E782E786D6CCD94C14E032110865F8570DF65B7D6440D4B130F3E8107E38D65A72B96850D0CC6BEBD5069D5981A0F4DDA840319
310
7E92FF9BF9337CF53E19F2063E68673BDAD60D2560951BB41D3B1A715DDD50B212DC3B87DF64945839414773990A3E7A17E7521A602DA3C955A3EDA61425A2D77D440894282343E868502F30C95A467403844D3D4894755B7B082E7A05E93FEA09CA7FE541220C542C9A765935CB6A71FBD85EDD5DB7E93C73969582F7CE99
310
A2D716C1BB9928972E36996938CBCF8247AF8B261350F1E5ACEEB5E52CBD0B1E925B3B161D6EE7AC9B67A395C4D426E6140256490472E2EC532C38CBBC3FA81FEE9FF60EC8A03D28747E7BA606B4C71A703056A724FC8F7F27FC1BDBF5AF09F75CD33E0A5B6C9D0C759FD690E2FA7BFE2945D28EE6F2427F3076FACCA75582
310
5A5D1EF2DED78988D96EE5A5A1E70D283E00504B0304140006080800796E9D4468CC0C797E000000A30000000B0000006662782F636E782E786D6C4D8CD10AC22018465F45FE7B4B6DA18173386BEF319A1B92D3B0193D7E1ABBE8EA83C3778EEC3EAB476F9B5E2E8616E88100B2E11E27179616F2366301A85332C5B8FDDD
310
008571B52D540C4A2E29E6E78E263B8FD957EA5D78ECB0679A107319B018CC15379433DC73C230D72771364CD05BA38B71AC4A995FAF6CCDAB2F504B0304140006080800796E9D44A6D797065F0000008200000007000000636E782E786D6C4DCB3B0E80201045D1AD90E9FD7516806B51190811670C8A61F982B1B0BAC9C9
310
7B72CA7B1037C6D3332918DA1E04D2CAC69353902EDB8C20262D23F3F59B81A079470595414B17391D1F19B4730A5583A7ED43BBE4025D9592775E5ADFFA01504B0304140006080800796E9D444FEB6A7CA0000000F4000000130000005B436F6E74656E745F54797065735D2E786D6C7D8F4B0EC2300C44AF1279DFA6B040
310
0835ED02B8011730C16D239A8F121795DB93D02D6269CFBC19BBED573B8B17C564BC53B0AB1B10E4B47F18372A5878A88E20FAAEBDBD032591BD2E299898C349CAA427B2986A1FC86565F0D122E7318E32A07EE24872DF3407A9BD63725C71C980AEBDD080CBCCE2BAE6F5D69B7110E7CD57AA146008B3D1C8F92C5954F993
310
BB1BF787F39A89ABC491D09600F9FDA2FB00504B0304140006080800796E9D443DEE336E64000000790000001B0000006175746F6465736B2D64657369676E2D7061636B6167652E786D6C35CBC10E83200C00D05F21DCA56CA76D41FC96062B120735B69A7DBE268BB7777961F8D5AF396893C2ADB70FE7ADA196782C2DF7
310
76D7A97B5933C430F15651E5469C55D70F80A4992A3ADC954792C525AE70A1E4D6AD9816CC044FEFDF01FE3FDE907802504B0304140006080800796E9D442DE90E8EF9000000960100003B0000006662782F42324130304339462D384643442D343137322D423730322D3741333835433238314534412F7265736F75726365
310
732F636F72652E786D6C8550CB6E833010FC15B47703064268651C254DF3053DF566D91B6A25D8C88FAA9F5F3B50A93D55B2B4D6ECCCECEEB0C3D77C2F3ED1796DCD08B4ACA14023ADD2661A21862B19A03870E6AC0DBF68501831E3081906CE2667E3B241D29A8026A3C62ADC40E13D0628E43D7D46F0F20367518A1812C3
310
DFCA45C89B98B0A4E5CAE32C46AD36A956C94D5F353AE0DD69A0FBCBB12675D39C49477B4A86FEF84ABAF6A5DF9DF72D3D5D065665316741CF3FD3A5431150016F6ADA91BA23CDD31B6D9F7734BD77566526673EB874F336345F07DCA1B7D149F4AC5ABB7F5CE3A2FE778DDA84B6D95C5785074ED3928F0667554E29954784
310
A9E644F937504B0304140006080800796E9D44110E790BF2000000B1010000310000006662782F42324130304339462D384643442D343137322D423730322D3741333835433238314534412F636F72652E786D6C8D504B6EC32014BC8AF5F6D8801DD9A93091E33627E8AA3B84898B1283C5A7EAF10BB12BB5BB48480F0D33
310
CCBC61A7EFE55E7C29E7B5353D901243A18CB49336730F315C5107C58933676DF84383C28845F59061E06C7636AE3B24AD09CA64D4D849EDA0F05E0528E43D5D7AF0F2532DA214312486BF95AB903731AB92941B8FB3A0975FA9744A043501A798340837881EDF49FD7220E97CB02A33398B514FBB959E92BBBE6AE5809FE9
310
80F178BCA0EE32BEA286B4149D5B4C513BD4DD61A41D796B06566531673EB8B4F3FE49DEEE59F926FC9739AED31399B50935DD0D3785074E529EC70367552E308D47BB69E6B2F90F504B0304140006080800796E9D4449FB834753010000DD0200000C0000006662782F636F72652E786D6C8D52CB6E833010FC15E43B0F03
310
79B4328E92A6F9829E7A738C43AD808D8C8DF2F95DF310E5D0B402616B7667766704393C9A3AE885E9A45605C2518202A1B82EA5AA0AE4EC2DDCA3E04089D1DAFE684381628D289087112595D1AE9D20AE9515CAA34A97620259D7098B025EC3A5401DFF120D8B98B3D0D1DDA396F13BAB4484A3B18F12E764395165096AF2
310
268541343FEDF1EE724CC2244DCF618EB738DC6F8FEF619EBD6D37E75D864F973D893D99122B9B793A37825951229A26380F933C4C5F3E70F6BAC1F07E92D87752D259039EA7A1DE1DA2B7EB83C423BED2736DF9B79E93CA66E9A437323A4431AC371428897D3E700CE1AD3384C1909F65D77AB67007A817DC6A9343A5D46E
310
29F5AC7602A4936078483C56417910F84D277DA2F35C038262AA82D59885EBD5593F7DBD532B4CD8DB47A0B46958BD2C37AEB87C97412B4B339DEB5A9BFFB067AB7398B1FF31E937504B0304140006080800796E9D444111229208010000B201000008000000636F72652E786D6C8D50CB6EC32010FC15B4776CB01DC78D30
310
51D2345FD0536FD41017C5068B47D4FE7D2171A5F6560969D1CCECCEECB2FDE73CA19B725E5BD3032D082065062BB5197B88E1823B407BCE9CB5E1970C9011B3EA21C3C0D9E86C5C5668B02628935163A55A41E1BD0A8086297D7AF0C3879A452162480A7F2D16315CC5A80A5A3C749C053DFFB40E4E89A024F08AD0069306
310
574FAFB4DE6D687A6FACCC4ACE62D472B5D232B9EB8B560E7873ECE8F67C209854D50937B4A5B86B0F2FB8A99FDBCD695BD3E3B963656EE6CC0797765E87A49C017971CBBEAC7C509CBD5B3BAD82144A226BA62FE0849599F8133A2EF21FA1B50975B50E7C7478E03405BA13C9385F3095FB7953CDD7E6DF504B0102140014
310
0006080800796E9D440000000000000000000000003700000000000000000000000000000000006662782F42324130304339462D384643442D343137322D423730322D3741333835433238314534412F617474726962757465732E62696E504B01021400140006080800796E9D440000000000000000000000003500000000
310
000000000000000000550000006662782F42324130304339462D384643442D343137322D423730322D3741333835433238314534412F76657274696365732E62696E504B01021400140006080800796E9D44F270F13306000000040000003600000000000000000000000000A80000006662782F42324130304339462D3846
310
43442D343137322D423730322D3741333835433238314534412F747269616E676C65732E62696E504B01021400140006080800796E9D4451464CB489000000430100003600000000000000000000000000020100006662782F42324130304339462D384643442D343137322D423730322D3741333835433238314534412F64
310
69726563746F72792E786D6C504B01021400140006080800796E9D44507DFCB43F070000201C00003400000000000000000000000000DF0100006662782F42324130304339462D384643442D343137322D423730322D3741333835433238314534412F6F626A656374732E786D6C504B01021400140006080800796E9D44C5
310
697CDD3E010000460500003000000000000000000000000000700900006662782F42324130304339462D384643442D343137322D423730322D3741333835433238314534412F636E782E786D6C504B01021400140006080800796E9D4468CC0C797E000000A30000000B00000000000000000000000000FC0A00006662782F
310
636E782E786D6C504B01021400140006080800796E9D44A6D797065F000000820000000700000000000000000000000000A30B0000636E782E786D6C504B01021400140006080800796E9D444FEB6A7CA0000000F40000001300000000000000000000000000270C00005B436F6E74656E745F54797065735D2E786D6C504B
310
01021400140006080800796E9D443DEE336E64000000790000001B00000000000000000000000000F80C00006175746F6465736B2D64657369676E2D7061636B6167652E786D6C504B01021400140006080800796E9D442DE90E8EF9000000960100003B00000000000000000000000000950D00006662782F423241303043
310
39462D384643442D343137322D423730322D3741333835433238314534412F7265736F75726365732F636F72652E786D6C504B01021400140006080800796E9D44110E790BF2000000B10100003100000000000000000000000000E70E00006662782F42324130304339462D384643442D343137322D423730322D37413338
310
35433238314534412F636F72652E786D6C504B01021400140006080800796E9D4449FB834753010000DD0200000C00000000000000000000000000281000006662782F636F72652E786D6C504B01021400140006080800796E9D444111229208010000B20100000800000000000000000000000000A5110000636F72652E78
310
6D6C504B0506000000000E000E0080040000D31200000000
  0
XRECORD
  5
10
102
{ACAD_REACTORS
330
C
102
}
330
C
100
AcDbXrecord
280
     1
270
     1
271
     1
  0
XRECORD
  5
11
102
{ACAD_REACTORS
330
C
102
}
330
C
100
AcDbXrecord
280
     1
270
     1
271
     1
  0
XRECORD
  5
12
102
{ACAD_REACTORS
330
C
102
}
330
C
100
AcDbXrecord
280
     1
270
     1
271
     1
  0
XRECORD
  5
13
102
{ACAD_REACTORS
330
C
102
}
330
C
100
AcDbXrecord
280
     1
270
     1
271
     1
  0
CELLSTYLEMAP
  5
181
102
{ACAD_REACTORS
330
180
102
}
330
180
100
AcDbCellStyleMap
 90
        3
300
CELLSTYLE
  1
TABLEFORMAT_BEGIN
 90
        5
170
     1
 91
        0
 92
    32768
 62
   257
 93
        1
300
CONTENTFORMAT
  1
CONTENTFORMAT_BEGIN
 90
        0
 91
        0
 92
      512
 93
        0
300

 40
0.0
140
1.0
 94
        5
 62
     0
340
22
144
0.25
309
CONTENTFORMAT_END
171
     0
 94
        0
309
TABLEFORMAT_END
  1
CELLSTYLE_BEGIN
 90
        1
 91
        1
300
_TITLE
309
CELLSTYLE_END
300
CELLSTYLE
  1
TABLEFORMAT_BEGIN
 90
        5
170
     1
 91
        0
 92
        0
 62
   257
 93
        1
300
CONTENTFORMAT
  1
CONTENTFORMAT_BEGIN
 90
        0
 91
        0
 92
      512
 93
        0
300

 40
0.0
140
1.0
 94
        5
 62
     0
340
22
144
0.18
309
CONTENTFORMAT_END
171
     0
 94
        0
309
TABLEFORMAT_END
  1
CELLSTYLE_BEGIN
 90
        2
 91
        1
300
_HEADER
309
CELLSTYLE_END
300
CELLSTYLE
  1
TABLEFORMAT_BEGIN
 90
        5
170
     1
 91
        0
 92
        0
 62
   257
 93
        1
300
CONTENTFORMAT
  1
CONTENTFORMAT_BEGIN
 90
        0
 91
        0
 92
      512
 93
        0
300

 40
0.0
140
1.0
 94
        2
 62
     0
340
22
144
0.18
309
CONTENTFORMAT_END
171
     0
 94
        0
309
TABLEFORMAT_END
  1
CELLSTYLE_BEGIN
 90
        3
 91
        2
300
_DATA
309
CELLSTYLE_END
  0
XRECORD
  5
190
102
{ACAD_REACTORS
330
18F
102
}
330
18F
100
AcDbXrecord
280
     1
102
RTVSPost2010Prop28
280
     1
102
RTVSPost2010PropOp28
 70
     1
102
RTVSPost2010Prop29
280
     1
102
RTVSPost2010PropOp29
 70
     1
102
RTVSPost2010Prop30
280
     0
102
RTVSPost2010PropOp30
 70
     1
102
RTVSPost2010Prop31
280
     0
102
RTVSPost2010PropOp31
 70
     1
102
RTVSPost2010Prop32
280
     0
102
RTVSPost2010PropOp32
 70
     1
102
RTVSPost2010Prop33
280
     0
102
RTVSPost2010PropOp33
 70
     1
102
RTVSPost2010Prop34
280
     0
102
RTVSPost2010PropOp34
 70
     1
102
RTVSPost2010Prop35
280
     0
102
RTVSPost2010PropOp35
 70
     1
102
RTVSPost2010Prop36
280
     0
102
RTVSPost2010PropOp36
 70
     1
102
RTVSPost2010Prop37
 90
       50
102
RTVSPost2010PropOp37
 70
     1
102
RTVSPost2010Prop38
140
0.0
102
RTVSPost2010PropOp38
 70
     1
102
RTVSPost2010Prop39
140
1.0
102
RTVSPost2010PropOp39
 70
     1
102
RTVSPost2010Prop40
 90
        0
102
RTVSPost2010PropOp40
 70
     1
102
RTVSPost2010Prop41ColorIndex
 90
       18
102
RTVSPost2010Prop41ColorRGB
 90
        0
102
RTVSPost2010PropOp41
 70
     1
102
RTVSPost2010Prop42
 90
       50
102
RTVSPost2010PropOp42
 70
     1
102
RTVSPost2010Prop43
 90
        3
102
RTVSPost2010PropOp43
 70
     1
102
RTVSPost2010Prop44ColorIndex
 90
        5
102
RTVSPost2010Prop44ColorRGB
 90
      255
102
RTVSPost2010PropOp44
 70
     1
102
RTVSPost2010Prop45
280
     0
102
RTVSPost2010PropOp45
 70
     1
102
RTVSPost2010Prop46
 90
       50
102
RTVSPost2010PropOp46
 70
     1
102
RTVSPost2010Prop47
 90
       50
102
RTVSPost2010PropOp47
 70
     1
102
RTVSPost2010Prop48
 90
       50
102
RTVSPost2010PropOp48
 70
     1
102
RTVSPost2010Prop49
280
     0
102
RTVSPost2010PropOp49
 70
     1
102
RTVSPost2010Prop50
 90
       50
102
RTVSPost2010PropOp50
 70
     1
102
RTVSPost2010Prop51ColorIndex
 90
      256
102
RTVSPost2010Prop51ColorRGB
 90
-16777216
102
RTVSPost2010PropOp51
 70
     0
102
RTVSPost2010Prop52
140
1.0
102
RTVSPost2010PropOp52
 70
     0
102
RTVSPost2010Prop53
 90
        2
102
RTVSPost2010PropOp53
 70
     1
102
RTVSPost2010Prop54
  1
strokes_ogs.tif
102
RTVSPost2010PropOp54
 70
     1
102
RTVSPost2010Prop55
280
     0
102
RTVSPost2010PropOp55
 70
     1
102
RTVSPost2010Prop56
140
1.0
102
RTVSPost2010PropOp56
 70
     1
102
RTVSPost2010Prop57
140
1.0
102
RTVSPost2010PropOp57
 70
     1
102
RTVSPropertyOp0
 70
     1
102
RTVSPropertyOp1
 70
     1
102
RTVSPropertyOp2
 70
     1
102
RTVSPropertyOp3
 70
     1
102
RTVSPropertyOp4
 70
     1
102
RTVSPropertyOp5
 70
     1
102
RTVSPropertyOp6
 70
     1
102
RTVSPropertyOp7
 70
     1
102
RTVSPropertyOp8
 70
     1
102
RTVSPropertyOp9
 70
     1
102
RTVSPropertyOp10
 70
     1
102
RTVSPropertyOp11
 70
     1
102
RTVSPropertyOp12
 70
     1
102
RTVSPropertyOp13
 70
     1
102
RTVSPropertyOp14
 70
     1
102
RTVSPropertyOp15
 70
     1
102
RTVSPropertyOp16
 70
     1
102
RTVSPropertyOp17
 70
     1
102
RTVSPropertyOp18
 70
     1
102
RTVSPropertyOp19
 70
     1
102
RTVSPropertyOp20
 70
     1
102
RTVSPropertyOp21
 70
     1
102
RTVSPropertyOp22
 70
     1
102
RTVSPropertyOp23
 70
     1
102
RTVSPropertyOp24
 70
     1
102
RTVSPropertyOp25
 70
     1
102
RTVSPropertyOp26
 70
     1
102
RTVSPropertyOp27
 70
     1
102
RTVSPropertyOp28
 70
     1
102
RTVSPropertyOp29
 70
     1
102
RTVSPropertyOp30
 70
     1
102
RTVSPropertyOp31
 70
     1
102
RTVSPropertyOp32
 70
     1
102
RTVSPropertyOp33
 70
     1
102
RTVSPropertyOp34
 70
     1
102
RTVSPropertyOp35
 70
     1
102
RTVSPropertyOp36
 70
     1
102
RTVSPropertyOp37
 70
     1
102
RTVSPropertyOp38
 70
     1
102
RTVSPropertyOp39
 70
     1
102
RTVSPropertyOp40
 70
     1
102
RTVSPropertyOp41
 70
     1
102
RTVSPropertyOp42
 70
     1
102
RTVSPropertyOp43
 70
     1
102
RTVSPropertyOp44
 70
     1
102
RTVSPropertyOp45
 70
     1
102
RTVSPropertyOp46
 70
     1
102
RTVSPropertyOp47
 70
     1
102
RTVSPropertyOp48
 70
     1
102
RTVSPropertyOp49
 70
     1
102
RTVSPropertyOp50
 70
     1
102
RTVSPropertyOp51
 70
     0
102
RTVSPropertyOp52
 70
     0
102
RTVSPropertyOp53
 70
     1
102
RTVSPropertyOp54
 70
     1
102
RTVSPropertyOp55
 70
     1
102
RTVSPropertyOp56
 70
     1
102
RTVSPropertyOp57
 70
     1
102
RTVSPropertyOp58
 70
     1
102
RTVSPropertyOp59
 70
     1
102
RTVSPropertyOp60
 70
     1
102
RTVSPropertyOp61
 70
     1
102
RTVSPropertyOp62
 70
     1
  0
XRECORD
  5
192
102
{ACAD_REACTORS
330
191
102
}
330
191
100
AcDbXrecord
280
     1
102
RTVSPost2010Prop28
280
     0
102
RTVSPost2010PropOp28
 70
     1
102
RTVSPost2010Prop29
280
     1
102
RTVSPost2010PropOp29
 70
     1
102
RTVSPost2010Prop30
280
     1
102
RTVSPost2010PropOp30
 70
     1
102
RTVSPost2010Prop31
280
     0
102
RTVSPost2010PropOp31
 70
     1
102
RTVSPost2010Prop32
280
     0
102
RTVSPost2010PropOp32
 70
     1
102
RTVSPost2010Prop33
280
     0
102
RTVSPost2010PropOp33
 70
     1
102
RTVSPost2010Prop34
280
     0
102
RTVSPost2010PropOp34
 70
     1
102
RTVSPost2010Prop35
280
     0
102
RTVSPost2010PropOp35
 70
     1
102
RTVSPost2010Prop36
280
     0
102
RTVSPost2010PropOp36
 70
     1
102
RTVSPost2010Prop37
 90
       50
102
RTVSPost2010PropOp37
 70
     1
102
RTVSPost2010Prop38
140
0.0
102
RTVSPost2010PropOp38
 70
     1
102
RTVSPost2010Prop39
140
1.0
102
RTVSPost2010PropOp39
 70
     1
102
RTVSPost2010Prop40
 90
        0
102
RTVSPost2010PropOp40
 70
     1
102
RTVSPost2010Prop41ColorIndex
 90
       18
102
RTVSPost2010Prop41ColorRGB
 90
        0
102
RTVSPost2010PropOp41
 70
     1
102
RTVSPost2010Prop42
 90
       50
102
RTVSPost2010PropOp42
 70
     1
102
RTVSPost2010Prop43
 90
        3
102
RTVSPost2010PropOp43
 70
     1
102
RTVSPost2010Prop44ColorIndex
 90
        5
102
RTVSPost2010Prop44ColorRGB
 90
      255
102
RTVSPost2010PropOp44
 70
     1
102
RTVSPost2010Prop45
280
     0
102
RTVSPost2010PropOp45
 70
     1
102
RTVSPost2010Prop46
 90
       50
102
RTVSPost2010PropOp46
 70
     1
102
RTVSPost2010Prop47
 90
       50
102
RTVSPost2010PropOp47
 70
     1
102
RTVSPost2010Prop48
 90
       50
102
RTVSPost2010PropOp48
 70
     1
102
RTVSPost2010Prop49
280
     0
102
RTVSPost2010PropOp49
 70
     1
102
RTVSPost2010Prop50
 90
       50
102
RTVSPost2010PropOp50
 70
     1
102
RTVSPost2010Prop51ColorIndex
 90
      256
102
RTVSPost2010Prop51ColorRGB
 90
-16777216
102
RTVSPost2010PropOp51
 70
     0
102
RTVSPost2010Prop52
140
1.0
102
RTVSPost2010PropOp52
 70
     0
102
RTVSPost2010Prop53
 90
        2
102
RTVSPost2010PropOp53
 70
     1
102
RTVSPost2010Prop54
  1
strokes_ogs.tif
102
RTVSPost2010PropOp54
 70
     1
102
RTVSPost2010Prop55
280
     0
102
RTVSPost2010PropOp55
 70
     1
102
RTVSPost2010Prop56
140
1.0
102
RTVSPost2010PropOp56
 70
     1
102
RTVSPost2010Prop57
140
1.0
102
RTVSPost2010PropOp57
 70
     1
102
RTVSPropertyOp0
 70
     1
102
RTVSPropertyOp1
 70
     1
102
RTVSPropertyOp2
 70
     1
102
RTVSPropertyOp3
 70
     1
102
RTVSPropertyOp4
 70
     1
102
RTVSPropertyOp5
 70
     1
102
RTVSPropertyOp6
 70
     1
102
RTVSPropertyOp7
 70
     1
102
RTVSPropertyOp8
 70
     1
102
RTVSPropertyOp9
 70
     1
102
RTVSPropertyOp10
 70
     1
102
RTVSPropertyOp11
 70
     1
102
RTVSPropertyOp12
 70
     1
102
RTVSPropertyOp13
 70
     1
102
RTVSPropertyOp14
 70
     1
102
RTVSPropertyOp15
 70
     1
102
RTVSPropertyOp16
 70
     1
102
RTVSPropertyOp17
 70
     1
102
RTVSPropertyOp18
 70
     1
102
RTVSPropertyOp19
 70
     1
102
RTVSPropertyOp20
 70
     1
102
RTVSPropertyOp21
 70
     1
102
RTVSPropertyOp22
 70
     1
102
RTVSPropertyOp23
 70
     1
102
RTVSPropertyOp24
 70
     1
102
RTVSPropertyOp25
 70
     1
102
RTVSPropertyOp26
 70
     1
102
RTVSPropertyOp27
 70
     1
102
RTVSPropertyOp28
 70
     1
102
RTVSPropertyOp29
 70
     1
102
RTVSPropertyOp30
 70
     1
102
RTVSPropertyOp31
 70
     1
102
RTVSPropertyOp32
 70
     1
102
RTVSPropertyOp33
 70
     1
102
RTVSPropertyOp34
 70
     1
102
RTVSPropertyOp35
 70
     1
102
RTVSPropertyOp36
 70
     1
102
RTVSPropertyOp37
 70
     1
102
RTVSPropertyOp38
 70
     1
102
RTVSPropertyOp39
 70
     1
102
RTVSPropertyOp40
 70
     1
102
RTVSPropertyOp41
 70
     1
102
RTVSPropertyOp42
 70
     1
102
RTVSPropertyOp43
 70
     1
102
RTVSPropertyOp44
 70
     1
102
RTVSPropertyOp45
 70
     1
102
RTVSPropertyOp46
 70
     1
102
RTVSPropertyOp47
 70
     1
102
RTVSPropertyOp48
 70
     1
102
RTVSPropertyOp49
 70
     1
102
RTVSPropertyOp50
 70
     1
102
RTVSPropertyOp51
 70
     0
102
RTVSPropertyOp52
 70
     0
102
RTVSPropertyOp53
 70
     1
102
RTVSPropertyOp54
 70
     1
102
RTVSPropertyOp55
 70
     1
102
RTVSPropertyOp56
 70
     1
102
RTVSPropertyOp57
 70
     1
102
RTVSPropertyOp58
 70
     1
102
RTVSPropertyOp59
 70
     1
102
RTVSPropertyOp60
 70
     1
102
RTVSPropertyOp61
 70
     1
102
RTVSPropertyOp62
 70
     1
  0
XRECORD
  5
194
102
{ACAD_REACTORS
330
193
102
}
330
193
100
AcDbXrecord
280
     1
102
RTVSPost2010Prop28
280
     0
102
RTVSPost2010PropOp28
 70
     1
102
RTVSPost2010Prop29
280
     1
102
RTVSPost2010PropOp29
 70
     1
102
RTVSPost2010Prop30
280
     1
102
RTVSPost2010PropOp30
 70
     1
102
RTVSPost2010Prop31
280
     0
102
RTVSPost2010PropOp31
 70
     1
102
RTVSPost2010Prop32
280
     0
102
RTVSPost2010PropOp32
 70
     1
102
RTVSPost2010Prop33
280
     0
102
RTVSPost2010PropOp33
 70
     1
102
RTVSPost2010Prop34
280
     0
102
RTVSPost2010PropOp34
 70
     1
102
RTVSPost2010Prop35
280
     0
102
RTVSPost2010PropOp35
 70
     1
102
RTVSPost2010Prop36
280
     0
102
RTVSPost2010PropOp36
 70
     1
102
RTVSPost2010Prop37
 90
       50
102
RTVSPost2010PropOp37
 70
     1
102
RTVSPost2010Prop38
140
0.0
102
RTVSPost2010PropOp38
 70
     1
102
RTVSPost2010Prop39
140
1.0
102
RTVSPost2010PropOp39
 70
     1
102
RTVSPost2010Prop40
 90
        0
102
RTVSPost2010PropOp40
 70
     1
102
RTVSPost2010Prop41ColorIndex
 90
       18
102
RTVSPost2010Prop41ColorRGB
 90
        0
102
RTVSPost2010PropOp41
 70
     1
102
RTVSPost2010Prop42
 90
       50
102
RTVSPost2010PropOp42
 70
     1
102
RTVSPost2010Prop43
 90
        3
102
RTVSPost2010PropOp43
 70
     1
102
RTVSPost2010Prop44ColorIndex
 90
        5
102
RTVSPost2010Prop44ColorRGB
 90
      255
102
RTVSPost2010PropOp44
 70
     1
102
RTVSPost2010Prop45
280
     0
102
RTVSPost2010PropOp45
 70
     1
102
RTVSPost2010Prop46
 90
       50
102
RTVSPost2010PropOp46
 70
     1
102
RTVSPost2010Prop47
 90
       50
102
RTVSPost2010PropOp47
 70
     1
102
RTVSPost2010Prop48
 90
       50
102
RTVSPost2010PropOp48
 70
     1
102
RTVSPost2010Prop49
280
     0
102
RTVSPost2010PropOp49
 70
     1
102
RTVSPost2010Prop50
 90
       50
102
RTVSPost2010PropOp50
 70
     1
102
RTVSPost2010Prop51ColorIndex
 90
      256
102
RTVSPost2010Prop51ColorRGB
 90
-16777216
102
RTVSPost2010PropOp51
 70
     0
102
RTVSPost2010Prop52
140
1.0
102
RTVSPost2010PropOp52
 70
     0
102
RTVSPost2010Prop53
 90
        2
102
RTVSPost2010PropOp53
 70
     1
102
RTVSPost2010Prop54
  1
strokes_ogs.tif
102
RTVSPost2010PropOp54
 70
     1
102
RTVSPost2010Prop55
280
     0
102
RTVSPost2010PropOp55
 70
     1
102
RTVSPost2010Prop56
140
1.0
102
RTVSPost2010PropOp56
 70
     1
102
RTVSPost2010Prop57
140
1.0
102
RTVSPost2010PropOp57
 70
     1
102
RTVSPropertyOp0
 70
     1
102
RTVSPropertyOp1
 70
     1
102
RTVSPropertyOp2
 70
     1
102
RTVSPropertyOp3
 70
     1
102
RTVSPropertyOp4
 70
     1
102
RTVSPropertyOp5
 70
     1
102
RTVSPropertyOp6
 70
     1
102
RTVSPropertyOp7
 70
     1
102
RTVSPropertyOp8
 70
     1
102
RTVSPropertyOp9
 70
     1
102
RTVSPropertyOp10
 70
     1
102
RTVSPropertyOp11
 70
     1
102
RTVSPropertyOp12
 70
     1
102
RTVSPropertyOp13
 70
     1
102
RTVSPropertyOp14
 70
     1
102
RTVSPropertyOp15
 70
     1
102
RTVSPropertyOp16
 70
     1
102
RTVSPropertyOp17
 70
     1
102
RTVSPropertyOp18
 70
     1
102
RTVSPropertyOp19
 70
     1
102
RTVSPropertyOp20
 70
     1
102
RTVSPropertyOp21
 70
     1
102
RTVSPropertyOp22
 70
     1
102
RTVSPropertyOp23
 70
     1
102
RTVSPropertyOp24
 70
     1
102
RTVSPropertyOp25
 70
     1
102
RTVSPropertyOp26
 70
     1
102
RTVSPropertyOp27
 70
     1
102
RTVSPropertyOp28
 70
     1
102
RTVSPropertyOp29
 70
     1
102
RTVSPropertyOp30
 70
     1
102
RTVSPropertyOp31
 70
     1
102
RTVSPropertyOp32
 70
     1
102
RTVSPropertyOp33
 70
     1
102
RTVSPropertyOp34
 70
     1
102
RTVSPropertyOp35
 70
     1
102
RTVSPropertyOp36
 70
     1
102
RTVSPropertyOp37
 70
     1
102
RTVSPropertyOp38
 70
     1
102
RTVSPropertyOp39
 70
     1
102
RTVSPropertyOp40
 70
     1
102
RTVSPropertyOp41
 70
     1
102
RTVSPropertyOp42
 70
     1
102
RTVSPropertyOp43
 70
     1
102
RTVSPropertyOp44
 70
     1
102
RTVSPropertyOp45
 70
     1
102
RTVSPropertyOp46
 70
     1
102
RTVSPropertyOp47
 70
     1
102
RTVSPropertyOp48
 70
     1
102
RTVSPropertyOp49
 70
     1
102
RTVSPropertyOp50
 70
     1
102
RTVSPropertyOp51
 70
     0
102
RTVSPropertyOp52
 70
     0
102
RTVSPropertyOp53
 70
     1
102
RTVSPropertyOp54
 70
     1
102
RTVSPropertyOp55
 70
     1
102
RTVSPropertyOp56
 70
     1
102
RTVSPropertyOp57
 70
     1
102
RTVSPropertyOp58
 70
     1
102
RTVSPropertyOp59
 70
     1
102
RTVSPropertyOp60
 70
     1
102
RTVSPropertyOp61
 70
     1
102
RTVSPropertyOp62
 70
     1
  0
ENDSEC
  0
EOF
