  0
SECTION
  2
HEADER
  9
$ACADVER
  1
AC1021
  9
$ACADMAINTVER
 70
    50
  9
$DWGCODEPAGE
  3
ANSI_1252
  9
$INSBASE
 10
0.0000000000000675
 20
2082.0
 30
0.0
  9
$EXTMIN
 10
-20.64000804026
 20
-118.8948860770469
 30
-0.0000000000009873
  9
$EXTMAX
 10
8932.653686002288
 20
4775.145773728325
 30
0.0000000000004264
  9
$LIMMIN
 10
0.0
 20
0.0
  9
$LIMMAX
 10
297.0
 20
210.0
  9
$ORTHOMODE
 70
     0
  9
$REGENMODE
 70
     1
  9
$FILLMODE
 70
     1
  9
$QTEXTMODE
 70
     0
  9
$MIRRTEXT
 70
     1
  9
$LTSCALE
 40
10.0
  9
$ATTMODE
 70
     1
  9
$TEXTSIZE
 40
3.5
  9
$TRACEWID
 40
0.05
  9
$TEXTSTYLE
  7
SIMPLEX
  9
$CLAYER
  8
Kasten
  9
$CELTYPE
  6
ByLayer
  9
$CECOLOR
 62
   256
  9
$CELTSCALE
 40
1.0
  9
$DISPSILH
 70
     0
  9
$DIMSCALE
 40
1.0
  9
$DIMASZ
 40
3.5
  9
$DIMEXO
 40
0.1
  9
$DIMDLI
 40
0.4
  9
$DIMRND
 40
0.0
  9
$DIMDLE
 40
0.0
  9
$DIMEXE
 40
1.8
  9
$DIMTP
 40
0.0
  9
$DIMTM
 40
0.0
  9
$DIMTXT
 40
3.5
  9
$DIMCEN
 40
5.0
  9
$DIMTSZ
 40
0.0
  9
$DIMTOL
 70
     0
  9
$DIMLIM
 70
     0
  9
$DIMTIH
 70
     0
  9
$DIMTOH
 70
     0
  9
$DIMSE1
 70
     0
  9
$DIMSE2
 70
     0
  9
$DIMTAD
 70
     1
  9
$DIMZIN
 70
     8
  9
$DIMBLK
  1

  9
$DIMASO
 70
     1
  9
$DIMSHO
 70
     1
  9
$DIMPOST
  1

  9
$DIMAPOST
  1

  9
$DIMALT
 70
     0
  9
$DIMALTD
 70
     2
  9
$DIMALTF
 40
25.4
  9
$DIMLFAC
 40
1.0
  9
$DIMTOFL
 70
     1
  9
$DIMTVP
 40
0.0
  9
$DIMTIX
 70
     0
  9
$DIMSOXD
 70
     0
  9
$DIMSAH
 70
     1
  9
$DIMBLK1
  1

  9
$DIMBLK2
  1

  9
$DIMSTYLE
  2
BEMASSUNG
  9
$DIMCLRD
 70
     1
  9
$DIMCLRE
 70
     1
  9
$DIMCLRT
 70
     1
  9
$DIMTFAC
 40
0.5714285714285714
  9
$DIMGAP
 40
0.1
  9
$DIMJUST
 70
     0
  9
$DIMSD1
 70
     0
  9
$DIMSD2
 70
     0
  9
$DIMTOLJ
 70
     1
  9
$DIMTZIN
 70
     8
  9
$DIMALTZ
 70
     8
  9
$DIMALTTZ
 70
     8
  9
$DIMUPT
 70
     0
  9
$DIMDEC
 70
     1
  9
$DIMTDEC
 70
     1
  9
$DIMALTU
 70
     2
  9
$DIMALTTD
 70
     2
  9
$DIMTXSTY
  7
STANDARD
  9
$DIMAUNIT
 70
     0
  9
$DIMADEC
 70
     0
  9
$DIMALTRND
 40
0.0
  9
$DIMAZIN
 70
     0
  9
$DIMDSEP
 70
    46
  9
$DIMATFIT
 70
     3
  9
$DIMFRAC
 70
     0
  9
$DIMLDRBLK
  1

  9
$DIMLUNIT
 70
     2
  9
$DIMLWD
 70
    -2
  9
$DIMLWE
 70
    -2
  9
$DIMTMOVE
 70
     2
  9
$DIMFXL
 40
1.0
  9
$DIMFXLON
 70
     0
  9
$DIMJOGANG
 40
0.7853981633974483
  9
$DIMTFILL
 70
     0
  9
$DIMTFILLCLR
 70
     0
  9
$DIMARCSYM
 70
     0
  9
$DIMLTYPE
  6

  9
$DIMLTEX1
  6

  9
$DIMLTEX2
  6

  9
$LUNITS
 70
     2
  9
$LUPREC
 70
     1
  9
$SKETCHINC
 40
12.0
  9
$FILLETRAD
 40
0.0
  9
$AUNITS
 70
     0
  9
$AUPREC
 70
     0
  9
$MENU
  1
acad
  9
$ELEVATION
 40
0.0
  9
$PELEVATION
 40
0.0
  9
$THICKNESS
 40
0.0
  9
$LIMCHECK
 70
     0
  9
$CHAMFERA
 40
0.0
  9
$CHAMFERB
 40
0.0
  9
$CHAMFERC
 40
0.0
  9
$CHAMFERD
 40
0.0
  9
$SKPOLY
 70
     0
  9
$TDCREATE
 40
2449974.465972223
  9
$TDUCREATE
 40
2449974.382643287
  9
$TDUPDATE
 40
2457462.642418982
  9
$TDUUPDATE
 40
2457462.600763669
  9
$TDINDWG
 40
2.6440018981
  9
$TDUSRTIMER
 40
2.6440018981
  9
$USRTIMER
 70
     1
  9
$ANGBASE
 50
0.0
  9
$ANGDIR
 70
     0
  9
$PDMODE
 70
     1
  9
$PDSIZE
 40
0.0
  9
$PLINEWID
 40
0.0
  9
$SPLFRAME
 70
     0
  9
$SPLINETYPE
 70
     6
  9
$SPLINESEGS
 70
     8
  9
$HANDSEED
  5
474
  9
$SURFTAB1
 70
     6
  9
$SURFTAB2
 70
     6
  9
$SURFTYPE
 70
     6
  9
$SURFU
 70
     6
  9
$SURFV
 70
     6
  9
$UCSBASE
  2

  9
$UCSNAME
  2

  9
$UCSORG
 10
0.0
 20
0.0
 30
0.0
  9
$UCSXDIR
 10
1.0
 20
0.0
 30
0.0
  9
$UCSYDIR
 10
0.0
 20
1.0
 30
0.0
  9
$UCSORTHOREF
  2

  9
$UCSORTHOVIEW
 70
     0
  9
$UCSORGTOP
 10
0.0
 20
0.0
 30
0.0
  9
$UCSORGBOTTOM
 10
0.0
 20
0.0
 30
0.0
  9
$UCSORGLEFT
 10
0.0
 20
0.0
 30
0.0
  9
$UCSORGRIGHT
 10
0.0
 20
0.0
 30
0.0
  9
$UCSORGFRONT
 10
0.0
 20
0.0
 30
0.0
  9
$UCSORGBACK
 10
0.0
 20
0.0
 30
0.0
  9
$PUCSBASE
  2

  9
$PUCSNAME
  2

  9
$PUCSORG
 10
0.0
 20
0.0
 30
0.0
  9
$PUCSXDIR
 10
1.0
 20
0.0
 30
0.0
  9
$PUCSYDIR
 10
0.0
 20
1.0
 30
0.0
  9
$PUCSORTHOREF
  2

  9
$PUCSORTHOVIEW
 70
     0
  9
$PUCSORGTOP
 10
0.0
 20
0.0
 30
0.0
  9
$PUCSORGBOTTOM
 10
0.0
 20
0.0
 30
0.0
  9
$PUCSORGLEFT
 10
0.0
 20
0.0
 30
0.0
  9
$PUCSORGRIGHT
 10
0.0
 20
0.0
 30
0.0
  9
$PUCSORGFRONT
 10
0.0
 20
0.0
 30
0.0
  9
$PUCSORGBACK
 10
0.0
 20
0.0
 30
0.0
  9
$USERI1
 70
     0
  9
$USERI2
 70
     0
  9
$USERI3
 70
     0
  9
$USERI4
 70
     0
  9
$USERI5
 70
     0
  9
$USERR1
 40
0.0
  9
$USERR2
 40
0.0
  9
$USERR3
 40
0.0
  9
$USERR4
 40
0.0
  9
$USERR5
 40
0.0
  9
$WORLDVIEW
 70
     1
  9
$SHADEDGE
 70
     3
  9
$SHADEDIF
 70
    70
  9
$TILEMODE
 70
     1
  9
$MAXACTVP
 70
    16
  9
$PINSBASE
 10
0.0
 20
0.0
 30
0.0
  9
$PLIMCHECK
 70
     0
  9
$PEXTMIN
 10
1.000000000000000E+20
 20
1.000000000000000E+20
 30
1.000000000000000E+20
  9
$PEXTMAX
 10
-1.000000000000000E+20
 20
-1.000000000000000E+20
 30
-1.000000000000000E+20
  9
$PLIMMIN
 10
0.0
 20
0.0
  9
$PLIMMAX
 10
12.0
 20
9.0
  9
$UNITMODE
 70
     0
  9
$VISRETAIN
 70
     0
  9
$PLINEGEN
 70
     0
  9
$PSLTSCALE
 70
     1
  9
$TREEDEPTH
 70
  3020
  9
$CMLSTYLE
  2
Standard
  9
$CMLJUST
 70
     0
  9
$CMLSCALE
 40
1.0
  9
$PROXYGRAPHICS
 70
     1
  9
$MEASUREMENT
 70
     0
  9
$CELWEIGHT
370
    -1
  9
$ENDCAPS
280
     0
  9
$JOINSTYLE
280
     0
  9
$LWDISPLAY
290
     0
  9
$INSUNITS
 70
     0
  9
$HYPERLINKBASE
  1

  9
$STYLESHEET
  1

  9
$XEDIT
290
     1
  9
$CEPSNTYPE
380
     0
  9
$PSTYLEMODE
290
     1
  9
$FINGERPRINTGUID
  2
{C86A74E7-3359-114C-B458-9FB0FBC05D3B}
  9
$VERSIONGUID
  2
{BB2F92DE-5583-344E-868A-D7D07A11F823}
  9
$EXTNAMES
290
     1
  9
$PSVPSCALE
 40
0.0
  9
$OLESTARTUP
290
     0
  9
$SORTENTS
280
   127
  9
$INDEXCTL
280
     0
  9
$HIDETEXT
280
     1
  9
$XCLIPFRAME
290
     0
  9
$HALOGAP
280
     0
  9
$OBSCOLOR
 70
   257
  9
$OBSLTYPE
280
     0
  9
$INTERSECTIONDISPLAY
280
     0
  9
$INTERSECTIONCOLOR
 70
   257
  9
$DIMASSOC
280
     2
  9
$PROJECTNAME
  1

  9
$CAMERADISPLAY
290
     0
  9
$LENSLENGTH
 40
50.0
  9
$CAMERAHEIGHT
 40
0.0
  9
$STEPSPERSEC
 40
2.0
  9
$STEPSIZE
 40
6.0
  9
$3DDWFPREC
 40
2.0
  9
$PSOLWIDTH
 40
0.25
  9
$PSOLHEIGHT
 40
4.0
  9
$LOFTANG1
 40
1.570796326794896
  9
$LOFTANG2
 40
1.570796326794896
  9
$LOFTMAG1
 40
0.0
  9
$LOFTMAG2
 40
0.0
  9
$LOFTPARAM
 70
     7
  9
$LOFTNORMALS
280
     1
  9
$LATITUDE
 40
37.795
  9
$LONGITUDE
 40
-122.394
  9
$NORTHDIRECTION
 40
0.0
  9
$TIMEZONE
 70
 -8000
  9
$LIGHTGLYPHDISPLAY
280
     1
  9
$TILEMODELIGHTSYNCH
280
     1
  9
$CMATERIAL
347
38
  9
$SOLIDHIST
280
     0
  9
$SHOWHIST
280
     1
  9
$DWFFRAME
280
     2
  9
$DGNFRAME
280
     0
  9
$REALWORLDSCALE
290
     1
  9
$INTERFERECOLOR
 62
     1
  9
$INTERFEREOBJVS
345
53
  9
$INTERFEREVPVS
346
54
  9
$CSHADOW
280
     0
  9
$SHADOWPLANELOCATION
 40
0.0
  0
ENDSEC
  0
SECTION
  2
CLASSES
  0
CLASS
  1
ACDBDICTIONARYWDFLT
  2
AcDbDictionaryWithDefault
  3
ObjectDBX Classes
 90
        0
 91
        1
280
     0
281
     0
  0
CLASS
  1
MATERIAL
  2
AcDbMaterial
  3
ObjectDBX Classes
 90
     1153
 91
        3
280
     0
281
     0
  0
CLASS
  1
VISUALSTYLE
  2
AcDbVisualStyle
  3
ObjectDBX Classes
 90
     4095
 91
        3
280
     0
281
     0
  0
CLASS
  1
SCALE
  2
AcDbScale
  3
ObjectDBX Classes
 90
     1153
 91
       17
280
     0
281
     0
  0
CLASS
  1
TABLESTYLE
  2
AcDbTableStyle
  3
ObjectDBX Classes
 90
     4095
 91
        1
280
     0
281
     0
  0
CLASS
  1
MLEADERSTYLE
  2
AcDbMLeaderStyle
  3
ACDB_MLEADERSTYLE_CLASS
 90
     4095
 91
        0
280
     0
281
     0
  0
CLASS
  1
ACDB_TEXTOBJECTCONTEXTDATA_CLASS
  2
AcDbTextObjectContextData
  3
ObjectDBX Classes
 90
     1153
 91
        0
280
     0
281
     0
  0
CLASS
  1
SORTENTSTABLE
  2
AcDbSortentsTable
  3
ObjectDBX Classes
 90
        0
 91
        2
280
     0
281
     0
  0
CLASS
  1
DICTIONARYVAR
  2
AcDbDictionaryVar
  3
ObjectDBX Classes
 90
        0
 91
        6
280
     0
281
     0
  0
CLASS
  1
ACDBSECTIONVIEWSTYLE
  2
AcDbSectionViewStyle
  3
ObjectDBX Classes
 90
     1025
 91
        0
280
     0
281
     0
  0
CLASS
  1
ACDBDETAILVIEWSTYLE
  2
AcDbDetailViewStyle
  3
ObjectDBX Classes
 90
     1025
 91
        0
280
     0
281
     0
  0
CLASS
  1
DIMASSOC
  2
AcDbDimAssoc
  3
"AcDbDimAssoc|Product Desc:     AcDim ARX App For Dimension|Company:          Autodesk, Inc.|WEB Address:      www.autodesk.com"
 90
        0
 91
        0
280
     0
281
     0
  0
CLASS
  1
MULTILEADER
  2
AcDbMLeader
  3
ACDB_MLEADER_CLASS
 90
     1025
 91
        0
280
     0
281
     1
  0
CLASS
  1
ACDB_MLEADEROBJECTCONTEXTDATA_CLASS
  2
AcDbMLeaderObjectContextData
  3
ObjectDBX Classes
 90
     1153
 91
        0
280
     0
281
     0
  0
CLASS
  1
ACDB_MTEXTOBJECTCONTEXTDATA_CLASS
  2
AcDbMTextObjectContextData
  3
ObjectDBX Classes
 90
     1153
 91
        0
280
     0
281
     0
  0
CLASS
  1
SOLID_BACKGROUND
  2
AcDbSolidBackground
  3
SCENEOE
 90
     4095
 91
        0
280
     0
281
     0
  0
CLASS
  1
NPOCOLLECTION
  2
AcDbImpNonPersistentObjectsCollection
  3
ObjectDBX Classes
 90
     1153
 91
        0
280
     0
281
     0
  0
CLASS
  1
LSDEFINITION
  2
AcDbLSDefinition
  3
AcDgnLS
 90
        0
 91
        0
280
     0
281
     0
  0
CLASS
  1
LSCOMPOUNDCOMPONENT
  2
AcDbLSCompoundComponent
  3
AcDgnLS
 90
        0
 91
        0
280
     0
281
     0
  0
CLASS
  1
LSSTROKEPATTERNCOMPONENT
  2
AcDbLSStrokePatternComponent
  3
AcDgnLS
 90
        0
 91
        0
280
     0
281
     0
  0
CLASS
  1
CELLSTYLEMAP
  2
AcDbCellStyleMap
  3
ObjectDBX Classes
 90
     1152
 91
        1
280
     0
281
     0
  0
ENDSEC
  0
SECTION
  2
TABLES
  0
TABLE
  2
VPORT
  5
2C
330
0
100
AcDbSymbolTable
 70
     1
  0
VPORT
  5
2D
330
2C
100
AcDbSymbolTableRecord
100
AcDbViewportTableRecord
  2
*ACTIVE
 70
     0
 10
0.0
 20
0.0
 11
1.0
 21
1.0
 12
1289.888305347915
 22
2674.512692376939
 13
0.0
 23
0.0
 14
1.0
 24
1.0
 15
10.0
 25
10.0
 16
0.0
 26
0.0
 36
1.0
 17
0.0
 27
0.0
 37
0.0
 40
2063.237229645961
 41
2.300498753117206
 42
50.0
 43
0.0
 44
0.0
 50
0.0
 51
0.0
 71
     0
 72
  2000
 73
     1
 74
     0
 75
     0
 76
     0
 77
     0
 78
     0
281
     0
 65
     1
110
0.0
120
0.0
130
0.0
111
1.0
121
0.0
131
0.0
112
0.0
122
1.0
132
0.0
 79
     0
146
0.0
348
2E
 60
     3
 61
     5
292
     1
282
     0
141
0.0
142
0.0
 63
   250
421
  3355443
1001
ACAD_NAV_VCDISPLAY
1070
     3
  0
ENDTAB
  0
TABLE
  2
LTYPE
  5
27
330
0
100
AcDbSymbolTable
 70
     2
  0
LTYPE
  5
28
330
27
100
AcDbSymbolTableRecord
100
AcDbLinetypeTableRecord
  2
ByBlock
 70
     0
  3

 72
    65
 73
     0
 40
0.0
  0
LTYPE
  5
29
330
27
100
AcDbSymbolTableRecord
100
AcDbLinetypeTableRecord
  2
ByLayer
 70
     0
  3

 72
    65
 73
     0
 40
0.0
  0
LTYPE
  5
14
330
27
100
AcDbSymbolTableRecord
100
AcDbLinetypeTableRecord
  2
CONTINUOUS
 70
     0
  3
Durchgezogene Linie
 72
    65
 73
     0
 40
0.0
  0
LTYPE
  5
146
330
27
100
AcDbSymbolTableRecord
100
AcDbLinetypeTableRecord
  2
STRICHPUNKT
 70
     0
  3
__ . __ . __ . __ . __ . __ . __ . __ . __ . __
 72
    65
 73
     4
 40
1.0
 49
0.5
 74
     0
 49
-0.25
 74
     0
 49
0.0
 74
     0
 49
-0.25
 74
     0
  0
ENDTAB
  0
TABLE
  2
LAYER
  5
1E
102
{ACAD_XDICTIONARY
360
1F
102
}
330
0
100
AcDbSymbolTable
 70
     7
  0
LAYER
  5
6
330
1E
100
AcDbSymbolTableRecord
100
AcDbLayerTableRecord
  2
0
 70
     0
 62
     7
  6
CONTINUOUS
370
    -3
390
7
347
A
  0
LAYER
  5
399
330
1E
100
AcDbSymbolTableRecord
100
AcDbLayerTableRecord
  2
Beschriftung
 70
     0
 62
     1
  6
CONTINUOUS
370
    -3
390
7
347
A
  0
LAYER
  5
6B
102
{ACAD_XDICTIONARY
360
6C
102
}
330
1E
100
AcDbSymbolTableRecord
100
AcDbLayerTableRecord
  2
Plankopf
 70
     0
 62
     7
  6
CONTINUOUS
370
     9
390
7
347
A
1001
AcAecLayerStandard
1000

1000

  0
LAYER
  5
4C
330
1E
100
AcDbSymbolTableRecord
100
AcDbLayerTableRecord
  2
Kasten
 70
     0
 62
     7
  6
CONTINUOUS
370
    30
390
7
347
A
1001
AcAecLayerStandard
1000

1000

1001
AcCmTransparency
1071
        0
  0
LAYER
  5
67
330
1E
100
AcDbSymbolTableRecord
100
AcDbLayerTableRecord
  2
Bauseitig_Beton
 70
     0
 62
     3
  6
CONTINUOUS
370
     5
390
7
347
A
1001
AcAecLayerStandard
1000

1000

1001
AcCmTransparency
1071
        0
  0
LAYER
  5
281
330
1E
100
AcDbSymbolTableRecord
100
AcDbLayerTableRecord
  2
Zeichnung
 70
     0
 62
     7
  6
CONTINUOUS
370
    30
390
7
347
A
1001
AcAecLayerStandard
1000

1000

1001
AcCmTransparency
1071
        0
  0
LAYER
  5
17B
330
1E
100
AcDbSymbolTableRecord
100
AcDbLayerTableRecord
  2
Scherentreppe
 70
     0
 62
     7
  6
CONTINUOUS
370
    20
390
7
347
A
1001
AcAecLayerStandard
1000

1000

1001
AcCmTransparency
1071
        0
  0
ENDTAB
  0
TABLE
  2
STYLE
  5
24
330
0
100
AcDbSymbolTable
 70
     4
  0
STYLE
  5
25
330
24
100
AcDbSymbolTableRecord
100
AcDbTextStyleTableRecord
  2
STANDARD
 70
     0
 40
0.0
 41
1.0
 50
0.0
 71
     0
 42
3.5
  3
txt
  4

  0
STYLE
  5
4F
330
24
100
AcDbSymbolTableRecord
100
AcDbTextStyleTableRecord
  2
SIMPLEX
 70
     0
 40
0.0
 41
1.0
 50
0.0
 71
     0
 42
3.5
  3
C:\ACADWIN\FONTS\ISO.SHX
  4

1001
AcadAnnotative
1000
AnnotativeData
1002
{
1070
     1
1070
     1
1002
}
  0
STYLE
  5
83
330
24
100
AcDbSymbolTableRecord
100
AcDbTextStyleTableRecord
  2
TECHNICBOLD
 70
     0
 40
0.0
 41
1.0
 50
0.0
 71
     0
 42
3.5
  3
teb_____.pfb
  4

  0
STYLE
  5
39B
330
24
100
AcDbSymbolTableRecord
100
AcDbTextStyleTableRecord
  2
Arial
 70
     0
 40
25.0
 41
1.0
 50
0.0
 71
     0
 42
25.0
  3
arial.ttf
  4

1001
ACAD
1000
Arial
1071
       34
  0
ENDTAB
  0
TABLE
  2
VIEW
  5
2A
330
0
100
AcDbSymbolTable
 70
     0
  0
ENDTAB
  0
TABLE
  2
UCS
  5
2B
330
0
100
AcDbSymbolTable
 70
     0
  0
ENDTAB
  0
TABLE
  2
APPID
  5
31
330
0
100
AcDbSymbolTable
 70
     8
  0
APPID
  5
23
330
31
100
AcDbSymbolTableRecord
100
AcDbRegAppTableRecord
  2
ACAD
 70
     0
  0
APPID
  5
50
330
31
100
AcDbSymbolTableRecord
100
AcDbRegAppTableRecord
  2
AcadAnnotative
 70
     0
  0
APPID
  5
30
330
31
100
AcDbSymbolTableRecord
100
AcDbRegAppTableRecord
  2
ACAD_NAV_VCDISPLAY
 70
     0
  0
APPID
  5
68
330
31
100
AcDbSymbolTableRecord
100
AcDbRegAppTableRecord
  2
GradientColor1ACI
 70
     0
  0
APPID
  5
69
330
31
100
AcDbSymbolTableRecord
100
AcDbRegAppTableRecord
  2
GradientColor2ACI
 70
     0
  0
APPID
  5
19
330
31
100
AcDbSymbolTableRecord
100
AcDbRegAppTableRecord
  2
ACAD_PSEXT
 70
     0
  0
APPID
  5
4D
330
31
100
AcDbSymbolTableRecord
100
AcDbRegAppTableRecord
  2
AcAecLayerStandard
 70
     0
  0
APPID
  5
4E
330
31
100
AcDbSymbolTableRecord
100
AcDbRegAppTableRecord
  2
AcCmTransparency
 70
     0
  0
ENDTAB
  0
TABLE
  2
DIMSTYLE
  5
32
330
0
100
AcDbSymbolTable
 70
     1
100
AcDbDimStyleTable
 71
     1
340
33
  0
DIMSTYLE
105
33
330
32
100
AcDbSymbolTableRecord
100
AcDbDimStyleTableRecord
  2
BEMASSUNG
 70
     0
 41
3.5
 42
0.1
 43
0.4
 44
1.8
 73
     0
 74
     0
 77
     1
 78
     8
140
3.5
141
5.0
146
0.5714285714285714
147
0.1
172
     1
176
     1
177
     1
178
     1
271
     1
272
     1
279
     2
284
     8
285
     8
286
     8
340
25
  0
ENDTAB
  0
TABLE
  2
BLOCK_RECORD
  5
1
330
0
100
AcDbSymbolTable
 70
     0
  0
BLOCK_RECORD
  5
2
102
{ACAD_XDICTIONARY
360
3
102
}
330
1
100
AcDbSymbolTableRecord
100
AcDbBlockTableRecord
  2
*Model_Space
340
16
 70
     0
280
     1
281
     0
  0
BLOCK_RECORD
  5
1A
330
1
100
AcDbSymbolTableRecord
100
AcDbBlockTableRecord
  2
*Paper_Space
340
1D
 70
     0
280
     1
281
     0
  0
ENDTAB
  0
ENDSEC
  0
SECTION
  2
BLOCKS
  0
BLOCK
  5
5
330
2
100
AcDbEntity
  8
0
100
AcDbBlockBegin
  2
*Model_Space
 70
     0
 10
0.0
 20
0.0
 30
0.0
  3
*Model_Space
  1

  0
ENDBLK
  5
15
330
2
100
AcDbEntity
  8
0
100
AcDbBlockEnd
  0
BLOCK
  5
1B
330
1A
100
AcDbEntity
 67
     1
  8
0
100
AcDbBlockBegin
  2
*Paper_Space
 70
     0
 10
0.0
 20
0.0
 30
0.0
  3
*Paper_Space
  1

  0
ENDBLK
  5
1C
330
1A
100
AcDbEntity
 67
     1
  8
0
100
AcDbBlockEnd
  0
ENDSEC
  0
SECTION
  2
ENTITIES
  0
HATCH
  5
66
330
2
100
AcDbEntity
  8
Bauseitig_Beton
100
AcDbHatch
 10
0.0
 20
0.0
 30
0.0
210
0.0
220
0.0
230
1.0
  2
ANSI33
 70
     0
 71
     1
 91
        1
 92
        1
 93
        4
 72
     1
 10
193.7999999999999
 20
2485.893391009476
 11
94.60336926743616
 21
2485.893391009476
 72
     1
 10
94.60336926743616
 20
2485.893391009476
 11
94.60336926743616
 21
2717.893391009476
 72
     1
 10
94.60336926743616
 20
2717.893391009476
 11
193.7999999999999
 21
2717.893391009476
 72
     1
 10
193.7999999999999
 20
2717.893391009476
 11
193.7999999999999
 21
2485.893391009476
 97
        1
330
3A4
 75
     1
 76
     1
 52
90.0
 41
40.0
 77
     0
 78
     2
 53
135.0
 43
2.500000000000682
 44
2042.000000000001
 45
-7.071067811865475
 46
-7.071067811865475
 79
     0
 53
135.0
 43
2.500000000000682
 44
2049.071067800001
 45
-7.071067811865475
 46
-7.071067811865475
 79
     2
 49
5.0
 49
-2.5
 98
        1
 10
2.500000000000682
 20
2042.000000000001
1001
GradientColor1ACI
1070
     5
1001
GradientColor2ACI
1070
     2
1001
ACAD
1010
0.0
1020
0.0
1030
0.0
  0
LWPOLYLINE
  5
6A
330
2
100
AcDbEntity
  8
Plankopf
100
AcDbPolyline
 90
        4
 70
     1
 43
0.0
 10
0.0000000000000675
 20
2082.0
 10
1397.6
 20
2082.0
 10
1397.6
 20
3057.0
 10
0.0000000000000675
 20
3057.0
  0
LINE
  5
6D
330
2
100
AcDbEntity
  8
Plankopf
 62
     0
100
AcDbLine
 10
1144.159999999999
 20
2129.684265728
 30
0.0
 11
1310.303999999999
 21
2129.684265728
 31
0.0
  0
LINE
  5
6E
330
2
100
AcDbEntity
  8
Plankopf
 62
     0
100
AcDbLine
 10
1144.159999999999
 20
2141.60531456
 30
0.0
 11
1397.6
 21
2141.60531456
 31
0.0
  0
LINE
  5
6F
330
2
100
AcDbEntity
  8
Plankopf
 62
     0
100
AcDbLine
 10
1003.359999999999
 20
2117.7632
 30
0.0
 11
1397.6
 21
2117.7632
 31
0.0
  0
LINE
  5
70
330
2
100
AcDbEntity
  8
Plankopf
 62
     0
100
AcDbLine
 10
862.5599999999993
 20
2153.5264
 30
0.0
 11
1353.952
 21
2153.5264
 31
0.0
  0
LINE
  5
71
330
2
100
AcDbEntity
  8
Plankopf
 62
     0
100
AcDbLine
 10
862.5599999999991
 20
2177.4624
 30
0.0
 11
1397.6
 21
2177.4624
 31
0.0
  0
LINE
  5
72
330
2
100
AcDbEntity
  8
Plankopf
 62
     0
100
AcDbLine
 10
862.5599999999989
 20
2177.4624
 30
0.0
 11
862.5599999999991
 21
2153.5264
 31
0.0
  0
LINE
  5
73
330
2
100
AcDbEntity
  8
Plankopf
 62
     0
100
AcDbLine
 10
862.5599999999991
 20
2153.5264
 30
0.0
 11
862.5599999999993
 21
2082.0
 31
0.0
  0
LINE
  5
74
330
2
100
AcDbEntity
  8
Plankopf
 62
     0
100
AcDbLine
 10
948.4479999999994
 20
2153.5264
 30
0.0
 11
948.4479999999996
 21
2177.4624
 31
0.0
  0
LINE
  5
75
330
2
100
AcDbEntity
  8
Plankopf
 62
     0
100
AcDbLine
 10
1062.495999999999
 20
2153.5264
 30
0.0
 11
1062.495999999999
 21
2177.4624
 31
0.0
  0
LINE
  5
76
330
2
100
AcDbEntity
  8
Plankopf
 62
     0
100
AcDbLine
 10
890.7199999999992
 20
2153.5264
 30
0.0
 11
890.7199999999994
 21
2177.4624
 31
0.0
  0
LINE
  5
77
330
2
100
AcDbEntity
  8
Plankopf
 62
     0
100
AcDbLine
 10
925.9199999999994
 20
2153.5264
 30
0.0
 11
925.9199999999994
 21
2177.4624
 31
0.0
  0
LINE
  5
78
330
2
100
AcDbEntity
  8
Plankopf
 62
     0
100
AcDbLine
 10
1003.359999999999
 20
2129.684265728
 30
0.0
 11
1144.159999999999
 21
2129.684265728
 31
0.0
  0
LINE
  5
79
330
2
100
AcDbEntity
  8
Plankopf
 62
     0
100
AcDbLine
 10
1025.888
 20
2141.5584
 30
0.0
 11
1144.159999999999
 21
2141.5584
 31
0.0
  0
LINE
  5
7A
330
2
100
AcDbEntity
  8
Plankopf
 62
     0
100
AcDbLine
 10
1003.359999999999
 20
2082.0
 30
0.0
 11
1003.359999999999
 21
2153.5264
 31
0.0
  0
LINE
  5
7B
330
2
100
AcDbEntity
  8
Plankopf
 62
     0
100
AcDbLine
 10
1039.968
 20
2117.7632
 30
0.0
 11
1039.968
 21
2129.684265728
 31
0.0
  0
LINE
  5
7C
330
2
100
AcDbEntity
  8
Plankopf
 62
     0
100
AcDbLine
 10
1197.067143682837
 20
2117.7632
 30
0.0
 11
1197.067143682837
 21
2153.5264
 31
0.0
  0
LINE
  5
7D
330
2
100
AcDbEntity
  8
Plankopf
 62
     0
100
AcDbLine
 10
1144.159999999999
 20
2117.7632
 30
0.0
 11
1144.159999999999
 21
2153.5264
 31
0.0
  0
LINE
  5
7E
330
2
100
AcDbEntity
  8
Plankopf
 62
     0
100
AcDbLine
 10
1353.952
 20
2117.7632
 30
0.0
 11
1353.952
 21
2153.5264
 31
0.0
  0
LINE
  5
7F
330
2
100
AcDbEntity
  8
Plankopf
 62
     0
100
AcDbLine
 10
1353.952
 20
2153.5264
 30
0.0
 11
1353.952
 21
2177.4624
 31
0.0
  0
LINE
  5
80
330
2
100
AcDbEntity
  8
Plankopf
 62
     0
100
AcDbLine
 10
1259.0528
 20
2153.5264
 30
0.0
 11
1259.0528
 21
2141.60531456
 31
0.0
  0
LINE
  5
81
330
2
100
AcDbEntity
  8
Plankopf
 62
     0
100
AcDbLine
 10
1310.303999999999
 20
2117.7632
 30
0.0
 11
1310.303999999999
 21
2141.60531456
 31
0.0
  0
TEXT
  5
82
330
2
100
AcDbEntity
  8
Plankopf
 62
     0
100
AcDbText
 10
915.4192174273019
 20
2125.286359070174
 30
0.0
 40
5.588351999999999
  1
Columbus Treppen AG
  7
TECHNICBOLD
100
AcDbText
  0
TEXT
  5
84
330
2
100
AcDbEntity
  8
Plankopf
 62
     0
100
AcDbText
 10
915.4192174273019
 20
2116.903831070174
 30
0.0
 40
5.588351999999999
  1
Industriestrasse 12
  7
TECHNICBOLD
100
AcDbText
  0
TEXT
  5
85
330
2
100
AcDbEntity
  8
Plankopf
 62
     0
100
AcDbText
 10
915.4192174273019
 20
2108.521303070174
 30
0.0
 40
5.588351999999999
  1
9245 Oberbüren
  7
TECHNICBOLD
100
AcDbText
  0
TEXT
  5
86
330
2
100
AcDbEntity
  8
Plankopf
 62
     0
100
AcDbText
 10
914.8296937720649
 20
2100.138775070174
 30
0.0
 40
5.588351999999999
  1
Tel. 071 - 955 96 00
  7
TECHNICBOLD
100
AcDbText
  0
TEXT
  5
87
330
2
100
AcDbEntity
  8
Plankopf
 62
     0
100
AcDbText
 10
915.4192174273019
 20
2091.756247070174
 30
0.0
 40
5.588351999999999
  1
Fax 071 - 955 96 60
  7
TECHNICBOLD
100
AcDbText
  0
TEXT
  5
88
330
2
100
AcDbEntity
  8
Plankopf
 62
     0
100
AcDbText
 10
873.4612291465452
 20
2139.679837904296
 30
0.0
 40
8.0256
  1
COLUMBUS TREPPEN
  7
TECHNICBOLD
100
AcDbText
  0
ARC
  5
89
330
2
100
AcDbEntity
  8
Plankopf
 62
     0
100
AcDbCircle
 10
888.2564556567038
 20
2109.160313296623
 30
0.0
 40
7.73696
100
AcDbArc
 50
27.00000000000166
 51
332.9999999999983
  0
ARC
  5
8A
330
2
100
AcDbEntity
  8
Plankopf
 62
     0
100
AcDbCircle
 10
888.2564556567038
 20
2109.160313296623
 30
0.0
 40
13.11552
100
AcDbArc
 50
27.00000000000166
 51
332.9999999999983
  0
ARC
  5
8B
330
2
100
AcDbEntity
  8
Plankopf
 62
     0
100
AcDbCircle
 10
888.2564556567038
 20
2109.160313296623
 30
0.0
 40
20.33856
100
AcDbArc
 50
207.0000000000016
 51
152.9999999999983
  0
ARC
  5
8C
330
2
100
AcDbEntity
  8
Plankopf
 62
     0
100
AcDbCircle
 10
888.2564556567038
 20
2109.160313296623
 30
0.0
 40
14.96
100
AcDbArc
 50
207.0000000000016
 51
152.9999999999983
  0
LWPOLYLINE
  5
8D
330
2
100
AcDbEntity
  8
Plankopf
 62
     0
100
AcDbPolyline
 90
        2
 70
     0
 43
5.378559999999999
 10
877.830215656704
 20
2109.160313296623
 42
0.7883364345850938
 10
897.5463035194577
 20
2104.426899388619
 42
1.0
  0
LWPOLYLINE
  5
8E
330
2
100
AcDbEntity
  8
Plankopf
 62
     0
100
AcDbPolyline
 90
        2
 70
     0
 43
5.378559999999999
 10
897.5463035194577
 20
2113.893727204628
 42
0.7883364345850913
 10
877.830215656704
 20
2109.160313296623
 42
1.0
  0
LWPOLYLINE
  5
8F
330
2
100
AcDbEntity
  8
Plankopf
 62
     0
100
AcDbPolyline
 90
        3
 70
     0
 43
5.378560000000001
 10
872.5308320294768
 20
2101.14770784938
 42
0.7883364345850931
 10
905.9057356567043
 20
2109.160313296623
 42
0.7883364345850921
 10
872.5308320294768
 20
2117.172918743866
 42
1.0
  0
LINE
  5
90
330
2
100
AcDbEntity
  8
Plankopf
 62
     0
100
AcDbLine
 10
874.9269980548458
 20
2102.36861542052
 30
0.0
 11
870.1346660041069
 21
2099.92680027824
 31
0.0
  0
LINE
  5
91
330
2
100
AcDbEntity
  8
Plankopf
 62
     0
100
AcDbLine
 10
874.9269980548458
 20
2115.952011172727
 30
0.0
 11
870.1346660041069
 21
2118.393826315006
 31
0.0
  0
CIRCLE
  5
92
330
2
100
AcDbEntity
  8
Plankopf
 62
     0
100
AcDbCircle
 10
888.2564556567038
 20
2109.160313296623
 30
0.0
 40
5.892480000000001
  0
LWPOLYLINE
  5
93
330
2
100
AcDbEntity
  8
Plankopf
 62
     0
100
AcDbPolyline
 90
        2
 70
     1
 43
5.892480000000001
 10
885.3102156567036
 20
2109.160313296623
 42
1.0
 10
891.2026956567039
 20
2109.160313296623
 42
1.0
  0
LINE
  5
94
330
2
100
AcDbEntity
  8
Plankopf
 62
     0
100
AcDbLine
 10
895.1501374940887
 20
2105.647806959758
 30
0.0
 11
899.9424695448267
 21
2103.205991817479
 31
0.0
  0
LINE
  5
95
330
2
100
AcDbEntity
  8
Plankopf
 62
     0
100
AcDbLine
 10
895.1501374940887
 20
2112.672819633488
 30
0.0
 11
899.9424695448267
 21
2115.114634775767
 31
0.0
  0
CIRCLE
  5
96
330
2
100
AcDbEntity
  8
Plankopf
 62
     0
100
AcDbCircle
 10
996.2238317771232
 20
2144.321588139085
 30
0.0
 40
3.223971823094429
  0
TEXT
  5
97
330
2
100
AcDbEntity
  8
Plankopf
 62
     0
100
AcDbText
 10
994.558454369864
 20
2142.699851632732
 30
0.0
 40
4.35950592
  1
c
  7
TECHNICBOLD
100
AcDbText
  0
TEXT
  5
98
330
2
100
AcDbEntity
  8
Plankopf
 62
     0
100
AcDbText
 10
1006.158304045347
 20
2120.90771456
 30
0.0
 40
5.632
  1
Sach-Nr.
  7
TECHNICBOLD
100
AcDbText
  0
TEXT
  5
99
330
2
100
AcDbEntity
  8
Plankopf
 62
     0
100
AcDbText
 10
1007.865599999998
 20
2108.986666666669
 30
0.0
 40
5.632
  1
Benennung
  7
TECHNICBOLD
100
AcDbText
  0
TEXT
  5
9A
330
2
100
AcDbEntity
  8
Plankopf
 62
     0
100
AcDbText
 10
1146.068742732146
 20
2132.828780288
 30
0.0
 40
5.632
  1
Ursprung
  7
TECHNICBOLD
100
AcDbText
  0
TEXT
  5
9B
330
2
100
AcDbEntity
  8
Plankopf
 62
     0
100
AcDbText
 10
1146.068742732146
 20
2120.90771456
 30
0.0
 40
5.632
  1
Ersatz für
  7
TECHNICBOLD
100
AcDbText
  0
TEXT
  5
9C
330
2
100
AcDbEntity
  8
Plankopf
 62
     0
100
AcDbText
 10
1146.068742732146
 20
2144.74982912
 30
0.0
 40
5.632
  1
Gezeichnet
  7
TECHNICBOLD
100
AcDbText
  0
TEXT
  5
9D
330
2
100
AcDbEntity
  8
Plankopf
 62
     0
100
AcDbText
 10
1311.804732345299
 20
2133.485838553405
 30
0.0
 40
4.5056
  1
Anzahl Blatt
  7
TECHNICBOLD
100
AcDbText
  0
TEXT
  5
9E
330
2
100
AcDbEntity
  8
Plankopf
 62
     0
100
AcDbText
 10
1362.532152321873
 20
2133.485838553405
 30
0.0
 40
4.5056
  1
Blatt-Nr.
  7
TECHNICBOLD
100
AcDbText
  0
TEXT
  5
9F
330
2
100
AcDbEntity
  8
Plankopf
 62
     0
100
AcDbText
 10
1358.457599999997
 20
2168.685866666669
 30
0.0
 40
5.632
  1
Massstab
  7
TECHNICBOLD
100
AcDbText
  0
TEXT
  5
A0
330
2
100
AcDbEntity
  8
Plankopf
 62
     0
100
AcDbText
 10
874.4497777777759
 20
2161.789649839667
 30
0.0
 40
5.632
  1
*
  7
TECHNICBOLD
 72
     1
 11
876.6399999999981
 21
2161.789649839667
 31
0.0
100
AcDbText
  0
TEXT
  5
A1
330
2
100
AcDbEntity
  8
Plankopf
 62
     0
100
AcDbText
 10
906.1297777777758
 20
2161.789649839667
 30
0.0
 40
5.632
  1
*
  7
TECHNICBOLD
 72
     1
 11
908.319999999998
 21
2161.789649839667
 31
0.0
100
AcDbText
  0
TEXT
  5
A2
330
2
100
AcDbEntity
  8
Plankopf
 62
     0
100
AcDbText
 10
1366.44607233358
 20
2148.776242037114
 30
0.0
 40
12.672
  1
1:1
  7
TECHNICBOLD
100
AcDbText
  0
TEXT
  5
A3
330
2
100
AcDbEntity
  8
Plankopf
 62
     0
100
AcDbText
 10
1326.794390702388
 20
2124.193875544901
 30
0.0
 40
4.5056
  1
1
  7
TECHNICBOLD
100
AcDbText
  0
TEXT
  5
A4
330
2
100
AcDbEntity
  8
Plankopf
 62
     0
100
AcDbText
 10
1377.521810678961
 20
2124.193875544901
 30
0.0
 40
4.5056
  1
1
  7
TECHNICBOLD
100
AcDbText
  0
LINE
  5
A5
330
2
100
AcDbEntity
  8
Plankopf
 62
     0
100
AcDbLine
 10
1039.968
 20
2129.5904
 30
0.0
 11
1039.968
 21
2153.5264
 31
0.0
  0
LINE
  5
A6
330
2
100
AcDbEntity
  8
Plankopf
 62
     0
100
AcDbLine
 10
1025.888
 20
2129.5904
 30
0.0
 11
1025.888
 21
2153.5264
 31
0.0
  0
TEXT
  5
A7
330
2
100
AcDbEntity
  8
Plankopf
 62
     0
100
AcDbText
 10
1005.905951342074
 20
2139.600120536971
 30
0.0
 40
5.632
  1
änd.
  7
TECHNICBOLD
 72
     1
 11
1013.917553681255
 21
2139.600120536971
 31
0.0
100
AcDbText
  0
TEXT
  5
A8
102
{ACAD_XDICTIONARY
360
A9
102
}
330
2
100
AcDbEntity
  8
Plankopf
 62
     0
100
AcDbText
 10
1125.604206366644
 20
2164.480007550543
 30
0.0
 40
7.601428799999998
  1
Deckenanschluss 8 Schnitt längs
  7
TECHNICBOLD
100
AcDbText
1001
AcadAnnotative
1000
AnnotativeData
1002
{
1070
     1
1070
     0
1002
}
  0
TEXT
  5
AC
330
2
100
AcDbEntity
  8
Plankopf
 62
     0
100
AcDbText
 10
1031.716376303638
 20
2144.70291456
 30
0.0
 40
5.632
  1
1
  7
TECHNICBOLD
100
AcDbText
  0
TEXT
  5
AD
330
2
100
AcDbEntity
  8
Plankopf
 62
     0
100
AcDbText
 10
1043.100412597007
 20
2144.524608079728
 30
0.0
 40
4.5056
  1
20.11.12 Neue Ausführung EI 30 
  7
TECHNICBOLD
100
AcDbText
  0
TEXT
  5
AE
330
2
100
AcDbEntity
  8
Plankopf
 62
     0
100
AcDbText
 10
1200.613235401876
 20
2144.702914560001
 30
0.0
 40
5.632
  1
02.03.12 TE
  7
TECHNICBOLD
100
AcDbText
  0
TEXT
  5
AF
330
2
100
AcDbEntity
  8
Plankopf
 62
     0
100
AcDbText
 10
1262.598891719038
 20
2144.70291456
 30
0.0
 40
5.632
  1
EN 1363-1 ,EN 1634-1
  7
TECHNICBOLD
100
AcDbText
  0
TEXT
  5
B0
330
2
100
AcDbEntity
  8
Plankopf
 62
     0
100
AcDbText
 10
1200.613235401876
 20
2132.78182912
 30
0.0
 40
5.632
  1
E8630
  7
TECHNICBOLD
100
AcDbText
  0
TEXT
  5
B1
330
2
100
AcDbEntity
  8
Plankopf
 62
     0
100
AcDbText
 10
1200.613235401876
 20
2120.860780288
 30
0.0
 40
5.632
  1
E8630A
  7
TECHNICBOLD
100
AcDbText
  0
TEXT
  5
B2
330
2
100
AcDbEntity
  8
Plankopf
 62
     0
100
AcDbText
 10
1031.716376303638
 20
2132.73491456
 30
0.0
 40
5.632
  1
2
  7
TECHNICBOLD
100
AcDbText
  0
TEXT
  5
B3
330
2
100
AcDbEntity
  8
Plankopf
 62
     0
100
AcDbText
 10
1043.100412597007
 20
2132.556608079728
 30
0.0
 40
4.5056
  1
16.05.14 EK aktualisiert
  7
TECHNICBOLD
100
AcDbText
  0
LWPOLYLINE
  5
B4
330
2
100
AcDbEntity
  8
Kasten
100
AcDbPolyline
 90
        4
 70
     1
 43
0.0
 10
201.2999999999999
 20
2547.893391009476
 10
239.3
 20
2547.893391009476
 10
239.3
 20
2717.893391009476
 10
201.2999999999999
 20
2717.893391009476
  0
HATCH
  5
B5
330
2
100
AcDbEntity
  8
Bauseitig_Beton
100
AcDbHatch
 10
0.0
 20
0.0
 30
0.0
210
0.0
220
0.0
230
1.0
  2
ANSI33
 70
     0
 71
     1
 91
        1
 92
        1
 93
        4
 72
     1
 10
1302.996220898765
 20
2485.893391009474
 11
1203.799590166201
 21
2485.893391009474
 72
     1
 10
1203.799590166201
 20
2485.893391009474
 11
1203.799590166201
 21
2717.893391009476
 72
     1
 10
1203.799590166201
 20
2717.893391009476
 11
1302.996220898765
 21
2717.893391009476
 72
     1
 10
1302.996220898765
 20
2717.893391009476
 11
1302.996220898765
 21
2485.893391009474
 97
        1
330
B8
 75
     1
 76
     1
 52
90.0
 41
40.0
 77
     0
 78
     2
 53
135.0
 43
1111.696220898766
 44
2042.000000000001
 45
-7.071067811865475
 46
-7.071067811865475
 79
     0
 53
135.0
 43
1111.696220898766
 44
2049.071067800001
 45
-7.071067811865475
 46
-7.071067811865475
 79
     2
 49
5.0
 49
-2.5
 98
        1
 10
1111.696220898766
 20
2042.000000000001
1001
GradientColor1ACI
1070
     5
1001
GradientColor2ACI
1070
     2
1001
ACAD
1010
0.0
1020
0.0
1030
0.0
  0
HATCH
  5
B6
330
2
100
AcDbEntity
  8
Bauseitig_Beton
100
AcDbHatch
 10
0.0
 20
0.0
 30
0.0
210
0.0
220
0.0
230
1.0
  2
ANSI31
 70
     0
 71
     1
 91
        1
 92
        7
 72
     0
 73
     1
 93
        4
 10
1203.8
 20
2485.893391009475
 10
1203.8
 20
2477.893391009475
 10
1302.996630732563
 20
2477.893391009475
 10
1302.996630732563
 20
2485.893391009475
 97
        1
330
B7
 75
     1
 76
     1
 52
0.0
 41
50.0
 77
     0
 78
     1
 53
45.0
 43
1111.696630732564
 44
2050.0
 45
-4.419417382415921
 46
4.419417382415922
 79
     0
 47
0.2285218501967519
 98
        1
 10
1264.385090153101
 20
2483.606751253734
1001
GradientColor1ACI
1070
     5
1001
GradientColor2ACI
1070
     2
1001
ACAD
1010
0.0
1020
0.0
1030
0.0
  0
LWPOLYLINE
  5
B7
102
{ACAD_REACTORS
330
B6
102
}
330
2
100
AcDbEntity
  8
Bauseitig_Beton
100
AcDbPolyline
 90
        4
 70
     1
 43
0.0
 10
1203.8
 20
2485.893391009475
 10
1302.996630732563
 20
2485.893391009475
 10
1302.996630732563
 20
2477.893391009475
 10
1203.8
 20
2477.893391009475
  0
LWPOLYLINE
  5
B8
102
{ACAD_REACTORS
330
B5
102
}
330
2
100
AcDbEntity
  8
Bauseitig_Beton
100
AcDbPolyline
 90
        4
 70
     1
 43
0.0
 10
1302.996220898765
 20
2485.893391009474
 10
1203.799590166201
 20
2485.893391009474
 10
1203.799590166201
 20
2717.893391009476
 10
1302.996220898765
 20
2717.893391009476
  0
MTEXT
  5
B9
102
{ACAD_XDICTIONARY
360
BA
102
}
330
2
100
AcDbEntity
  8
Bauseitig_Beton
 62
     1
100
AcDbMText
 10
1250.238926180658
 20
2567.657454298599
 30
0.0
 40
10.0
 41
37.77744553950834
 46
0.0
 71
     1
 72
     5
  1
Beton
  7
TECHNICBOLD
 11
0.0000000000000001
 21
1.0
 31
0.0
 73
     1
 44
1.0
 90
        3
 63
   256
 45
1.199999999999999
441
        0
1001
AcadAnnotative
1000
AnnotativeData
1002
{
1070
     1
1070
     0
1002
}
1001
ACAD
1000
ACAD_MTEXT_COLUMN_INFO_BEGIN
1070
    75
1070
     2
1070
    79
1070
     0
1070
    76
1070
     1
1070
    78
1070
     0
1070
    48
1040
37.77744553950834
1070
    49
1040
17.5
1070
    50
1070
     1
1040
0.0
1000
ACAD_MTEXT_COLUMN_INFO_END
  0
LWPOLYLINE
  5
BD
330
2
100
AcDbEntity
  8
Bauseitig_Beton
100
AcDbPolyline
 90
        4
 70
     1
 43
0.0
 10
1196.3
 20
2717.893391009476
 10
1203.8
 20
2717.893391009476
 10
1203.8
 20
2485.893391009474
 10
1196.3
 20
2485.893391009475
  0
ARC
  5
BE
330
2
100
AcDbEntity
  8
Bauseitig_Beton
100
AcDbCircle
 10
1198.3
 20
2717.888272625835
 30
0.0
 40
2.0
100
AcDbArc
 50
179.8533689496797
 51
270.0
  0
LINE
  5
BF
330
2
100
AcDbEntity
  8
Bauseitig_Beton
100
AcDbLine
 10
1201.8
 20
2717.888272625835
 30
0.0
 11
1198.3
 21
2715.888272625835
 31
0.0
  0
ARC
  5
C0
330
2
100
AcDbEntity
  8
Bauseitig_Beton
100
AcDbCircle
 10
1201.8
 20
2715.888272625835
 30
0.0
 40
2.0
100
AcDbArc
 50
270.0
 51
90.0
  0
ARC
  5
C1
330
2
100
AcDbEntity
  8
Bauseitig_Beton
100
AcDbCircle
 10
1198.3
 20
2713.888272625835
 30
0.0
 40
2.0
100
AcDbArc
 50
90.0
 51
270.0
  0
LINE
  5
C2
330
2
100
AcDbEntity
  8
Bauseitig_Beton
100
AcDbLine
 10
1198.3
 20
2715.888272625835
 30
0.0
 11
1201.8
 21
2713.888272625835
 31
0.0
  0
LINE
  5
C3
330
2
100
AcDbEntity
  8
Bauseitig_Beton
100
AcDbLine
 10
1201.8
 20
2713.888272625835
 30
0.0
 11
1198.3
 21
2711.888272625835
 31
0.0
  0
ARC
  5
C4
330
2
100
AcDbEntity
  8
Bauseitig_Beton
100
AcDbCircle
 10
1201.8
 20
2711.888272625835
 30
0.0
 40
2.0
100
AcDbArc
 50
270.0
 51
90.0
  0
ARC
  5
C5
330
2
100
AcDbEntity
  8
Bauseitig_Beton
100
AcDbCircle
 10
1198.3
 20
2709.888272625835
 30
0.0
 40
2.0
100
AcDbArc
 50
90.0
 51
270.0
  0
LINE
  5
C6
330
2
100
AcDbEntity
  8
Bauseitig_Beton
100
AcDbLine
 10
1198.3
 20
2711.888272625835
 30
0.0
 11
1201.8
 21
2709.888272625835
 31
0.0
  0
LINE
  5
C7
330
2
100
AcDbEntity
  8
Bauseitig_Beton
100
AcDbLine
 10
1201.8
 20
2709.888272625835
 30
0.0
 11
1198.3
 21
2707.888272625835
 31
0.0
  0
ARC
  5
C8
330
2
100
AcDbEntity
  8
Bauseitig_Beton
100
AcDbCircle
 10
1201.8
 20
2707.888272625835
 30
0.0
 40
2.0
100
AcDbArc
 50
270.0
 51
90.0
  0
ARC
  5
C9
330
2
100
AcDbEntity
  8
Bauseitig_Beton
100
AcDbCircle
 10
1198.3
 20
2705.888272625835
 30
0.0
 40
2.0
100
AcDbArc
 50
90.0
 51
270.0
  0
LINE
  5
CA
330
2
100
AcDbEntity
  8
Bauseitig_Beton
100
AcDbLine
 10
1198.3
 20
2707.888272625835
 30
0.0
 11
1201.8
 21
2705.888272625835
 31
0.0
  0
LINE
  5
CB
330
2
100
AcDbEntity
  8
Bauseitig_Beton
100
AcDbLine
 10
1201.8
 20
2705.888272625835
 30
0.0
 11
1198.3
 21
2703.888272625835
 31
0.0
  0
ARC
  5
CC
330
2
100
AcDbEntity
  8
Bauseitig_Beton
100
AcDbCircle
 10
1201.8
 20
2703.888272625835
 30
0.0
 40
2.0
100
AcDbArc
 50
270.0
 51
90.0
  0
ARC
  5
CD
330
2
100
AcDbEntity
  8
Bauseitig_Beton
100
AcDbCircle
 10
1198.3
 20
2701.888272625835
 30
0.0
 40
2.0
100
AcDbArc
 50
90.0
 51
270.0
  0
LINE
  5
CE
330
2
100
AcDbEntity
  8
Bauseitig_Beton
100
AcDbLine
 10
1198.3
 20
2703.888272625835
 30
0.0
 11
1201.8
 21
2701.888272625835
 31
0.0
  0
LINE
  5
CF
330
2
100
AcDbEntity
  8
Bauseitig_Beton
100
AcDbLine
 10
1201.8
 20
2701.888272625835
 30
0.0
 11
1198.3
 21
2699.888272625835
 31
0.0
  0
ARC
  5
D0
330
2
100
AcDbEntity
  8
Bauseitig_Beton
100
AcDbCircle
 10
1201.8
 20
2699.888272625835
 30
0.0
 40
2.0
100
AcDbArc
 50
270.0
 51
90.0
  0
ARC
  5
D1
330
2
100
AcDbEntity
  8
Bauseitig_Beton
100
AcDbCircle
 10
1198.3
 20
2697.888272625835
 30
0.0
 40
2.0
100
AcDbArc
 50
90.0
 51
270.0
  0
LINE
  5
D2
330
2
100
AcDbEntity
  8
Bauseitig_Beton
100
AcDbLine
 10
1198.3
 20
2699.888272625835
 30
0.0
 11
1201.8
 21
2697.888272625835
 31
0.0
  0
LINE
  5
D3
330
2
100
AcDbEntity
  8
Bauseitig_Beton
100
AcDbLine
 10
1201.8
 20
2697.888272625835
 30
0.0
 11
1198.3
 21
2695.888272625835
 31
0.0
  0
ARC
  5
D4
330
2
100
AcDbEntity
  8
Bauseitig_Beton
100
AcDbCircle
 10
1201.8
 20
2695.888272625835
 30
0.0
 40
2.0
100
AcDbArc
 50
270.0
 51
90.0
  0
ARC
  5
D5
330
2
100
AcDbEntity
  8
Bauseitig_Beton
100
AcDbCircle
 10
1198.3
 20
2693.888272625835
 30
0.0
 40
2.0
100
AcDbArc
 50
90.0
 51
270.0
  0
LINE
  5
D6
330
2
100
AcDbEntity
  8
Bauseitig_Beton
100
AcDbLine
 10
1198.3
 20
2695.888272625835
 30
0.0
 11
1201.8
 21
2693.888272625835
 31
0.0
  0
LINE
  5
D7
330
2
100
AcDbEntity
  8
Bauseitig_Beton
100
AcDbLine
 10
1201.8
 20
2693.888272625835
 30
0.0
 11
1198.3
 21
2691.888272625835
 31
0.0
  0
ARC
  5
D8
330
2
100
AcDbEntity
  8
Bauseitig_Beton
100
AcDbCircle
 10
1201.8
 20
2691.888272625835
 30
0.0
 40
2.0
100
AcDbArc
 50
270.0
 51
90.0
  0
ARC
  5
D9
330
2
100
AcDbEntity
  8
Bauseitig_Beton
100
AcDbCircle
 10
1198.3
 20
2689.888272625835
 30
0.0
 40
2.0
100
AcDbArc
 50
90.0
 51
270.0
  0
LINE
  5
DA
330
2
100
AcDbEntity
  8
Bauseitig_Beton
100
AcDbLine
 10
1198.3
 20
2691.888272625835
 30
0.0
 11
1201.8
 21
2689.888272625835
 31
0.0
  0
LINE
  5
DB
330
2
100
AcDbEntity
  8
Bauseitig_Beton
100
AcDbLine
 10
1201.8
 20
2689.888272625835
 30
0.0
 11
1198.3
 21
2687.888272625835
 31
0.0
  0
ARC
  5
DC
330
2
100
AcDbEntity
  8
Bauseitig_Beton
100
AcDbCircle
 10
1201.8
 20
2687.888272625835
 30
0.0
 40
2.0
100
AcDbArc
 50
270.0
 51
90.0
  0
ARC
  5
DD
330
2
100
AcDbEntity
  8
Bauseitig_Beton
100
AcDbCircle
 10
1198.3
 20
2685.888272625835
 30
0.0
 40
2.0
100
AcDbArc
 50
90.0
 51
270.0
  0
LINE
  5
DE
330
2
100
AcDbEntity
  8
Bauseitig_Beton
100
AcDbLine
 10
1198.3
 20
2687.888272625835
 30
0.0
 11
1201.8
 21
2685.888272625835
 31
0.0
  0
LINE
  5
DF
330
2
100
AcDbEntity
  8
Bauseitig_Beton
100
AcDbLine
 10
1201.8
 20
2685.888272625835
 30
0.0
 11
1198.3
 21
2683.888272625835
 31
0.0
  0
ARC
  5
E0
330
2
100
AcDbEntity
  8
Bauseitig_Beton
100
AcDbCircle
 10
1201.8
 20
2683.888272625835
 30
0.0
 40
2.0
100
AcDbArc
 50
270.0
 51
90.0
  0
ARC
  5
E1
330
2
100
AcDbEntity
  8
Bauseitig_Beton
100
AcDbCircle
 10
1198.3
 20
2681.888272625835
 30
0.0
 40
2.0
100
AcDbArc
 50
90.0
 51
270.0
  0
LINE
  5
E2
330
2
100
AcDbEntity
  8
Bauseitig_Beton
100
AcDbLine
 10
1198.3
 20
2683.888272625835
 30
0.0
 11
1201.8
 21
2681.888272625835
 31
0.0
  0
LINE
  5
E3
330
2
100
AcDbEntity
  8
Bauseitig_Beton
100
AcDbLine
 10
1201.8
 20
2681.888272625835
 30
0.0
 11
1198.3
 21
2679.888272625835
 31
0.0
  0
ARC
  5
E4
330
2
100
AcDbEntity
  8
Bauseitig_Beton
100
AcDbCircle
 10
1201.8
 20
2679.888272625835
 30
0.0
 40
2.0
100
AcDbArc
 50
270.0
 51
90.0
  0
ARC
  5
E5
330
2
100
AcDbEntity
  8
Bauseitig_Beton
100
AcDbCircle
 10
1198.3
 20
2677.888272625835
 30
0.0
 40
2.0
100
AcDbArc
 50
90.0
 51
270.0
  0
LINE
  5
E6
330
2
100
AcDbEntity
  8
Bauseitig_Beton
100
AcDbLine
 10
1198.3
 20
2679.888272625835
 30
0.0
 11
1201.8
 21
2677.888272625835
 31
0.0
  0
LINE
  5
E7
330
2
100
AcDbEntity
  8
Bauseitig_Beton
100
AcDbLine
 10
1201.8
 20
2677.888272625835
 30
0.0
 11
1198.3
 21
2675.888272625835
 31
0.0
  0
ARC
  5
E8
330
2
100
AcDbEntity
  8
Bauseitig_Beton
100
AcDbCircle
 10
1201.8
 20
2675.888272625835
 30
0.0
 40
2.0
100
AcDbArc
 50
270.0
 51
90.0
  0
ARC
  5
E9
330
2
100
AcDbEntity
  8
Bauseitig_Beton
100
AcDbCircle
 10
1198.3
 20
2673.888272625835
 30
0.0
 40
2.0
100
AcDbArc
 50
90.0
 51
270.0
  0
LINE
  5
EA
330
2
100
AcDbEntity
  8
Bauseitig_Beton
100
AcDbLine
 10
1198.3
 20
2675.888272625835
 30
0.0
 11
1201.8
 21
2673.888272625835
 31
0.0
  0
LINE
  5
EB
330
2
100
AcDbEntity
  8
Bauseitig_Beton
100
AcDbLine
 10
1201.8
 20
2673.888272625835
 30
0.0
 11
1198.3
 21
2671.888272625835
 31
0.0
  0
ARC
  5
EC
330
2
100
AcDbEntity
  8
Bauseitig_Beton
100
AcDbCircle
 10
1201.8
 20
2671.888272625835
 30
0.0
 40
2.0
100
AcDbArc
 50
270.0
 51
90.0
  0
ARC
  5
ED
330
2
100
AcDbEntity
  8
Bauseitig_Beton
100
AcDbCircle
 10
1198.3
 20
2669.888272625835
 30
0.0
 40
2.0
100
AcDbArc
 50
90.0
 51
270.0
  0
LINE
  5
EE
330
2
100
AcDbEntity
  8
Bauseitig_Beton
100
AcDbLine
 10
1198.3
 20
2671.888272625835
 30
0.0
 11
1201.8
 21
2669.888272625835
 31
0.0
  0
LINE
  5
EF
330
2
100
AcDbEntity
  8
Bauseitig_Beton
100
AcDbLine
 10
1201.8
 20
2669.888272625835
 30
0.0
 11
1198.3
 21
2667.888272625835
 31
0.0
  0
ARC
  5
F0
330
2
100
AcDbEntity
  8
Bauseitig_Beton
100
AcDbCircle
 10
1201.8
 20
2667.888272625835
 30
0.0
 40
2.0
100
AcDbArc
 50
270.0
 51
90.0
  0
ARC
  5
F1
330
2
100
AcDbEntity
  8
Bauseitig_Beton
100
AcDbCircle
 10
1198.3
 20
2665.888272625835
 30
0.0
 40
2.0
100
AcDbArc
 50
90.0
 51
270.0
  0
LINE
  5
F2
330
2
100
AcDbEntity
  8
Bauseitig_Beton
100
AcDbLine
 10
1198.3
 20
2667.888272625835
 30
0.0
 11
1201.8
 21
2665.888272625835
 31
0.0
  0
LINE
  5
F3
330
2
100
AcDbEntity
  8
Bauseitig_Beton
100
AcDbLine
 10
1201.8
 20
2665.888272625835
 30
0.0
 11
1198.3
 21
2663.888272625835
 31
0.0
  0
ARC
  5
F4
330
2
100
AcDbEntity
  8
Bauseitig_Beton
100
AcDbCircle
 10
1201.8
 20
2663.888272625835
 30
0.0
 40
2.0
100
AcDbArc
 50
339.0568897684515
 51
90.0
  0
ARC
  5
F5
330
2
100
AcDbEntity
  8
Bauseitig_Beton
100
AcDbCircle
 10
1198.3
 20
2661.888272625835
 30
0.0
 40
2.0
100
AcDbArc
 50
90.0
 51
140.0170822246424
  0
LINE
  5
F6
330
2
100
AcDbEntity
  8
Bauseitig_Beton
100
AcDbLine
 10
1198.3
 20
2663.888272625835
 30
0.0
 11
1199.551042828641
 21
2663.173391009469
 31
0.0
  0
ARC
  5
F7
330
2
100
AcDbEntity
  8
Bauseitig_Beton
100
AcDbCircle
 10
1201.8
 20
2587.888272625835
 30
0.0
 40
2.0
100
AcDbArc
 50
270.0
 51
339.0568897684515
  0
LINE
  5
F8
330
2
100
AcDbEntity
  8
Bauseitig_Beton
100
AcDbLine
 10
1201.3
 20
2586.173986911549
 30
0.0
 11
1201.8
 21
2585.888272625835
 31
0.0
  0
LINE
  5
F9
330
2
100
AcDbEntity
  8
Bauseitig_Beton
100
AcDbLine
 10
1201.8
 20
2585.888272625835
 30
0.0
 11
1201.3
 21
2585.60255834012
 31
0.0
  0
ARC
  5
FA
330
2
100
AcDbEntity
  8
Bauseitig_Beton
100
AcDbCircle
 10
1201.8
 20
2583.888272625835
 30
0.0
 40
2.0
100
AcDbArc
 50
270.0
 51
90.0
  0
LINE
  5
FB
330
2
100
AcDbEntity
  8
Bauseitig_Beton
100
AcDbLine
 10
1201.3
 20
2582.173986911549
 30
0.0
 11
1201.8
 21
2581.888272625835
 31
0.0
  0
LINE
  5
FC
330
2
100
AcDbEntity
  8
Bauseitig_Beton
100
AcDbLine
 10
1201.8
 20
2581.888272625835
 30
0.0
 11
1201.3
 21
2581.60255834012
 31
0.0
  0
ARC
  5
FD
330
2
100
AcDbEntity
  8
Bauseitig_Beton
100
AcDbCircle
 10
1201.8
 20
2579.888272625835
 30
0.0
 40
2.0
100
AcDbArc
 50
270.0
 51
90.0
  0
LINE
  5
FE
330
2
100
AcDbEntity
  8
Bauseitig_Beton
100
AcDbLine
 10
1201.3
 20
2578.173986911549
 30
0.0
 11
1201.8
 21
2577.888272625835
 31
0.0
  0
LINE
  5
FF
330
2
100
AcDbEntity
  8
Bauseitig_Beton
100
AcDbLine
 10
1201.8
 20
2577.888272625835
 30
0.0
 11
1201.3
 21
2577.60255834012
 31
0.0
  0
ARC
  5
100
330
2
100
AcDbEntity
  8
Bauseitig_Beton
100
AcDbCircle
 10
1201.8
 20
2575.888272625835
 30
0.0
 40
2.0
100
AcDbArc
 50
270.0
 51
90.0
  0
LINE
  5
101
330
2
100
AcDbEntity
  8
Bauseitig_Beton
100
AcDbLine
 10
1201.3
 20
2574.173986911549
 30
0.0
 11
1201.8
 21
2573.888272625835
 31
0.0
  0
LINE
  5
102
330
2
100
AcDbEntity
  8
Bauseitig_Beton
100
AcDbLine
 10
1201.8
 20
2573.888272625835
 30
0.0
 11
1201.3
 21
2573.60255834012
 31
0.0
  0
ARC
  5
103
330
2
100
AcDbEntity
  8
Bauseitig_Beton
100
AcDbCircle
 10
1201.8
 20
2571.888272625835
 30
0.0
 40
2.0
100
AcDbArc
 50
270.0
 51
90.0
  0
LINE
  5
104
330
2
100
AcDbEntity
  8
Bauseitig_Beton
100
AcDbLine
 10
1201.3
 20
2570.173986911549
 30
0.0
 11
1201.8
 21
2569.888272625835
 31
0.0
  0
LINE
  5
105
330
2
100
AcDbEntity
  8
Bauseitig_Beton
100
AcDbLine
 10
1201.8
 20
2569.888272625835
 30
0.0
 11
1201.3
 21
2569.60255834012
 31
0.0
  0
ARC
  5
106
330
2
100
AcDbEntity
  8
Bauseitig_Beton
100
AcDbCircle
 10
1201.8
 20
2567.888272625835
 30
0.0
 40
2.0
100
AcDbArc
 50
270.0
 51
90.0
  0
LINE
  5
107
330
2
100
AcDbEntity
  8
Bauseitig_Beton
100
AcDbLine
 10
1201.3
 20
2566.173986911549
 30
0.0
 11
1201.8
 21
2565.888272625835
 31
0.0
  0
LINE
  5
108
330
2
100
AcDbEntity
  8
Bauseitig_Beton
100
AcDbLine
 10
1201.8
 20
2565.888272625835
 30
0.0
 11
1201.3
 21
2565.60255834012
 31
0.0
  0
ARC
  5
109
330
2
100
AcDbEntity
  8
Bauseitig_Beton
100
AcDbCircle
 10
1201.8
 20
2563.888272625835
 30
0.0
 40
2.0
100
AcDbArc
 50
270.0
 51
90.0
  0
LINE
  5
10A
330
2
100
AcDbEntity
  8
Bauseitig_Beton
100
AcDbLine
 10
1201.3
 20
2562.173986911549
 30
0.0
 11
1201.8
 21
2561.888272625835
 31
0.0
  0
LINE
  5
10B
330
2
100
AcDbEntity
  8
Bauseitig_Beton
100
AcDbLine
 10
1201.8
 20
2561.888272625835
 30
0.0
 11
1201.3
 21
2561.60255834012
 31
0.0
  0
ARC
  5
10C
330
2
100
AcDbEntity
  8
Bauseitig_Beton
100
AcDbCircle
 10
1201.8
 20
2559.888272625835
 30
0.0
 40
2.0
100
AcDbArc
 50
270.0
 51
90.0
  0
LINE
  5
10D
330
2
100
AcDbEntity
  8
Bauseitig_Beton
100
AcDbLine
 10
1201.3
 20
2558.173986911549
 30
0.0
 11
1201.8
 21
2557.888272625835
 31
0.0
  0
LINE
  5
10E
330
2
100
AcDbEntity
  8
Bauseitig_Beton
100
AcDbLine
 10
1201.8
 20
2557.888272625835
 30
0.0
 11
1201.3
 21
2557.60255834012
 31
0.0
  0
ARC
  5
10F
330
2
100
AcDbEntity
  8
Bauseitig_Beton
100
AcDbCircle
 10
1201.8
 20
2555.888272625835
 30
0.0
 40
2.0
100
AcDbArc
 50
270.0
 51
90.0
  0
LINE
  5
110
330
2
100
AcDbEntity
  8
Bauseitig_Beton
100
AcDbLine
 10
1201.3
 20
2554.173986911548
 30
0.0
 11
1201.8
 21
2553.888272625834
 31
0.0
  0
LINE
  5
111
330
2
100
AcDbEntity
  8
Bauseitig_Beton
100
AcDbLine
 10
1201.8
 20
2553.888272625834
 30
0.0
 11
1201.3
 21
2553.60255834012
 31
0.0
  0
ARC
  5
112
330
2
100
AcDbEntity
  8
Bauseitig_Beton
100
AcDbCircle
 10
1201.8
 20
2551.888272625835
 30
0.0
 40
2.0
100
AcDbArc
 50
270.0
 51
90.0
  0
LINE
  5
113
330
2
100
AcDbEntity
  8
Bauseitig_Beton
100
AcDbLine
 10
1201.3
 20
2550.173986911549
 30
0.0
 11
1201.8
 21
2549.888272625834
 31
0.0
  0
LINE
  5
114
330
2
100
AcDbEntity
  8
Bauseitig_Beton
100
AcDbLine
 10
1201.8
 20
2549.888272625834
 30
0.0
 11
1201.3
 21
2549.60255834012
 31
0.0
  0
ARC
  5
115
330
2
100
AcDbEntity
  8
Bauseitig_Beton
100
AcDbCircle
 10
1201.8
 20
2547.888272625835
 30
0.0
 40
2.0
100
AcDbArc
 50
270.0
 51
90.0
  0
LINE
  5
116
330
2
100
AcDbEntity
  8
Bauseitig_Beton
100
AcDbLine
 10
1201.3
 20
2546.173986911549
 30
0.0
 11
1201.8
 21
2545.888272625834
 31
0.0
  0
LINE
  5
117
330
2
100
AcDbEntity
  8
Bauseitig_Beton
100
AcDbLine
 10
1201.8
 20
2545.888272625834
 30
0.0
 11
1201.3
 21
2545.60255834012
 31
0.0
  0
ARC
  5
118
330
2
100
AcDbEntity
  8
Bauseitig_Beton
100
AcDbCircle
 10
1201.8
 20
2543.888272625835
 30
0.0
 40
2.0
100
AcDbArc
 50
270.0
 51
90.0
  0
LINE
  5
119
330
2
100
AcDbEntity
  8
Bauseitig_Beton
100
AcDbLine
 10
1201.3
 20
2542.173986911549
 30
0.0
 11
1201.8
 21
2541.888272625835
 31
0.0
  0
LINE
  5
11A
330
2
100
AcDbEntity
  8
Bauseitig_Beton
100
AcDbLine
 10
1201.8
 20
2541.888272625835
 30
0.0
 11
1201.3
 21
2541.60255834012
 31
0.0
  0
ARC
  5
11B
330
2
100
AcDbEntity
  8
Bauseitig_Beton
100
AcDbCircle
 10
1201.8
 20
2539.888272625834
 30
0.0
 40
2.0
100
AcDbArc
 50
270.0
 51
90.0
  0
LINE
  5
11C
330
2
100
AcDbEntity
  8
Bauseitig_Beton
100
AcDbLine
 10
1201.3
 20
2538.173986911548
 30
0.0
 11
1201.8
 21
2537.888272625834
 31
0.0
  0
LINE
  5
11D
330
2
100
AcDbEntity
  8
Bauseitig_Beton
100
AcDbLine
 10
1201.8
 20
2537.888272625834
 30
0.0
 11
1201.3
 21
2537.60255834012
 31
0.0
  0
ARC
  5
11E
330
2
100
AcDbEntity
  8
Bauseitig_Beton
100
AcDbCircle
 10
1201.8
 20
2535.888272625835
 30
0.0
 40
2.0
100
AcDbArc
 50
270.0
 51
90.0
  0
LINE
  5
11F
330
2
100
AcDbEntity
  8
Bauseitig_Beton
100
AcDbLine
 10
1201.3
 20
2534.173986911549
 30
0.0
 11
1201.8
 21
2533.888272625834
 31
0.0
  0
LINE
  5
120
330
2
100
AcDbEntity
  8
Bauseitig_Beton
100
AcDbLine
 10
1201.8
 20
2533.888272625834
 30
0.0
 11
1201.3
 21
2533.60255834012
 31
0.0
  0
ARC
  5
121
330
2
100
AcDbEntity
  8
Bauseitig_Beton
100
AcDbCircle
 10
1201.8
 20
2531.888272625835
 30
0.0
 40
2.0
100
AcDbArc
 50
270.0
 51
90.0
  0
LINE
  5
122
330
2
100
AcDbEntity
  8
Bauseitig_Beton
100
AcDbLine
 10
1201.3
 20
2530.173986911549
 30
0.0
 11
1201.8
 21
2529.888272625834
 31
0.0
  0
LINE
  5
123
330
2
100
AcDbEntity
  8
Bauseitig_Beton
100
AcDbLine
 10
1201.8
 20
2529.888272625834
 30
0.0
 11
1201.3
 21
2529.60255834012
 31
0.0
  0
ARC
  5
124
330
2
100
AcDbEntity
  8
Bauseitig_Beton
100
AcDbCircle
 10
1201.8
 20
2527.888272625835
 30
0.0
 40
2.0
100
AcDbArc
 50
270.0
 51
90.0
  0
LINE
  5
125
330
2
100
AcDbEntity
  8
Bauseitig_Beton
100
AcDbLine
 10
1201.3
 20
2526.173986911549
 30
0.0
 11
1201.8
 21
2525.888272625835
 31
0.0
  0
LINE
  5
126
330
2
100
AcDbEntity
  8
Bauseitig_Beton
100
AcDbLine
 10
1201.8
 20
2525.888272625835
 30
0.0
 11
1201.3
 21
2525.60255834012
 31
0.0
  0
ARC
  5
127
330
2
100
AcDbEntity
  8
Bauseitig_Beton
100
AcDbCircle
 10
1201.8
 20
2523.888272625834
 30
0.0
 40
2.0
100
AcDbArc
 50
270.0
 51
90.0
  0
LINE
  5
128
330
2
100
AcDbEntity
  8
Bauseitig_Beton
100
AcDbLine
 10
1201.3
 20
2522.173986911548
 30
0.0
 11
1201.8
 21
2521.888272625834
 31
0.0
  0
LINE
  5
129
330
2
100
AcDbEntity
  8
Bauseitig_Beton
100
AcDbLine
 10
1201.8
 20
2521.888272625834
 30
0.0
 11
1201.3
 21
2521.60255834012
 31
0.0
  0
ARC
  5
12A
330
2
100
AcDbEntity
  8
Bauseitig_Beton
100
AcDbCircle
 10
1201.8
 20
2519.888272625835
 30
0.0
 40
2.0
100
AcDbArc
 50
270.0
 51
90.0
  0
LINE
  5
12B
330
2
100
AcDbEntity
  8
Bauseitig_Beton
100
AcDbLine
 10
1201.3
 20
2518.173986911549
 30
0.0
 11
1201.8
 21
2517.888272625834
 31
0.0
  0
LINE
  5
12C
330
2
100
AcDbEntity
  8
Bauseitig_Beton
100
AcDbLine
 10
1201.8
 20
2517.888272625834
 30
0.0
 11
1201.3
 21
2517.60255834012
 31
0.0
  0
ARC
  5
12D
330
2
100
AcDbEntity
  8
Bauseitig_Beton
100
AcDbCircle
 10
1201.8
 20
2515.888272625835
 30
0.0
 40
2.0
100
AcDbArc
 50
270.0
 51
90.0
  0
LINE
  5
12E
330
2
100
AcDbEntity
  8
Bauseitig_Beton
100
AcDbLine
 10
1201.3
 20
2514.173986911549
 30
0.0
 11
1201.8
 21
2513.888272625834
 31
0.0
  0
LINE
  5
12F
330
2
100
AcDbEntity
  8
Bauseitig_Beton
100
AcDbLine
 10
1201.8
 20
2513.888272625834
 30
0.0
 11
1201.3
 21
2513.60255834012
 31
0.0
  0
ARC
  5
130
330
2
100
AcDbEntity
  8
Bauseitig_Beton
100
AcDbCircle
 10
1201.8
 20
2511.888272625835
 30
0.0
 40
2.0
100
AcDbArc
 50
270.0
 51
90.0
  0
LINE
  5
131
330
2
100
AcDbEntity
  8
Bauseitig_Beton
100
AcDbLine
 10
1201.3
 20
2510.173986911549
 30
0.0
 11
1201.8
 21
2509.888272625835
 31
0.0
  0
LINE
  5
132
330
2
100
AcDbEntity
  8
Bauseitig_Beton
100
AcDbLine
 10
1201.8
 20
2509.888272625835
 30
0.0
 11
1201.3
 21
2509.60255834012
 31
0.0
  0
ARC
  5
133
330
2
100
AcDbEntity
  8
Bauseitig_Beton
100
AcDbCircle
 10
1201.8
 20
2507.888272625834
 30
0.0
 40
2.0
100
AcDbArc
 50
270.0
 51
90.0
  0
LINE
  5
134
330
2
100
AcDbEntity
  8
Bauseitig_Beton
100
AcDbLine
 10
1201.3
 20
2506.173986911548
 30
0.0
 11
1201.8
 21
2505.888272625834
 31
0.0
  0
LINE
  5
135
330
2
100
AcDbEntity
  8
Bauseitig_Beton
100
AcDbLine
 10
1201.8
 20
2505.888272625834
 30
0.0
 11
1201.3
 21
2505.60255834012
 31
0.0
  0
ARC
  5
136
330
2
100
AcDbEntity
  8
Bauseitig_Beton
100
AcDbCircle
 10
1201.8
 20
2503.888272625835
 30
0.0
 40
2.0
100
AcDbArc
 50
270.0
 51
90.0
  0
LINE
  5
137
330
2
100
AcDbEntity
  8
Bauseitig_Beton
100
AcDbLine
 10
1201.3
 20
2502.173986911549
 30
0.0
 11
1201.8
 21
2501.888272625834
 31
0.0
  0
LINE
  5
138
330
2
100
AcDbEntity
  8
Bauseitig_Beton
100
AcDbLine
 10
1201.8
 20
2501.888272625834
 30
0.0
 11
1201.3
 21
2501.60255834012
 31
0.0
  0
ARC
  5
139
330
2
100
AcDbEntity
  8
Bauseitig_Beton
100
AcDbCircle
 10
1201.8
 20
2499.888272625835
 30
0.0
 40
2.0
100
AcDbArc
 50
270.0
 51
90.0
  0
LINE
  5
13A
330
2
100
AcDbEntity
  8
Bauseitig_Beton
100
AcDbLine
 10
1201.3
 20
2498.173986911549
 30
0.0
 11
1201.8
 21
2497.888272625834
 31
0.0
  0
LINE
  5
13B
330
2
100
AcDbEntity
  8
Bauseitig_Beton
100
AcDbLine
 10
1201.8
 20
2497.888272625834
 30
0.0
 11
1201.3
 21
2497.60255834012
 31
0.0
  0
ARC
  5
13C
330
2
100
AcDbEntity
  8
Bauseitig_Beton
100
AcDbCircle
 10
1201.8
 20
2495.888272625835
 30
0.0
 40
2.0
100
AcDbArc
 50
270.0
 51
90.0
  0
LINE
  5
13D
330
2
100
AcDbEntity
  8
Bauseitig_Beton
100
AcDbLine
 10
1201.3
 20
2494.173986911549
 30
0.0
 11
1201.8
 21
2493.888272625835
 31
0.0
  0
LINE
  5
13E
330
2
100
AcDbEntity
  8
Bauseitig_Beton
100
AcDbLine
 10
1201.8
 20
2493.888272625835
 30
0.0
 11
1201.3
 21
2493.60255834012
 31
0.0
  0
ARC
  5
13F
330
2
100
AcDbEntity
  8
Bauseitig_Beton
100
AcDbCircle
 10
1201.8
 20
2491.888272625835
 30
0.0
 40
2.0
100
AcDbArc
 50
270.0
 51
90.0
  0
LINE
  5
140
330
2
100
AcDbEntity
  8
Bauseitig_Beton
100
AcDbLine
 10
1201.3
 20
2490.173986911549
 30
0.0
 11
1201.8
 21
2489.888272625834
 31
0.0
  0
LINE
  5
141
330
2
100
AcDbEntity
  8
Bauseitig_Beton
100
AcDbLine
 10
1201.8
 20
2489.888272625834
 30
0.0
 11
1201.3
 21
2489.60255834012
 31
0.0
  0
ARC
  5
142
330
2
100
AcDbEntity
  8
Bauseitig_Beton
100
AcDbCircle
 10
1201.8
 20
2487.888272625835
 30
0.0
 40
2.0
100
AcDbArc
 50
270.0
 51
90.0
  0
ARC
  5
143
330
2
100
AcDbEntity
  8
Bauseitig_Beton
100
AcDbCircle
 10
1198.3
 20
2485.888272625834
 30
0.0
 40
2.0
100
AcDbArc
 50
90.0
 51
179.8533689496797
  0
LINE
  5
144
330
2
100
AcDbEntity
  8
Bauseitig_Beton
100
AcDbLine
 10
1198.3
 20
2487.888272625835
 30
0.0
 11
1201.8
 21
2485.888272625834
 31
0.0
  0
LINE
  5
145
330
2
100
AcDbEntity
  8
Bauseitig_Beton
  6
STRICHPUNKT
100
AcDbLine
 10
1212.054776301684
 20
2617.88618379947
 30
0.0
 11
1151.441610780896
 21
2617.88618379947
 31
0.0
  0
LINE
  5
147
330
2
100
AcDbEntity
  8
Bauseitig_Beton
 62
     5
100
AcDbLine
 10
1201.41
 20
2663.173391009469
 30
0.0
 11
1201.41
 21
2587.173391009469
 31
0.0
  0
LINE
  5
148
330
2
100
AcDbEntity
  8
Bauseitig_Beton
 62
     5
100
AcDbLine
 10
1198.77
 20
2663.173391009469
 30
0.0
 11
1198.77
 21
2587.173391009469
 31
0.0
  0
LINE
  5
149
330
2
100
AcDbEntity
  8
Bauseitig_Beton
 62
     5
100
AcDbLine
 10
1196.3
 20
2647.905656409006
 30
0.0
 11
1203.8
 21
2640.405656409007
 31
0.0
  0
LINE
  5
14A
330
2
100
AcDbEntity
  8
Bauseitig_Beton
 62
     5
100
AcDbLine
 10
1196.3
 20
2641.541695389006
 30
0.0
 11
1203.8
 21
2634.041695389007
 31
0.0
  0
LINE
  5
14B
330
2
100
AcDbEntity
  8
Bauseitig_Beton
 62
     5
100
AcDbLine
 10
1196.3
 20
2635.177734333006
 30
0.0
 11
1203.8
 21
2627.677734333007
 31
0.0
  0
LINE
  5
14C
330
2
100
AcDbEntity
  8
Bauseitig_Beton
 62
     5
100
AcDbLine
 10
1196.3
 20
2628.813773313006
 30
0.0
 11
1203.8
 21
2621.313773313006
 31
0.0
  0
LINE
  5
14D
330
2
100
AcDbEntity
  8
Bauseitig_Beton
 62
     5
100
AcDbLine
 10
1196.3
 20
2609.721890224933
 30
0.0
 11
1203.8
 21
2602.221890224933
 31
0.0
  0
LINE
  5
14E
330
2
100
AcDbEntity
  8
Bauseitig_Beton
 62
     5
100
AcDbLine
 10
1196.3
 20
2603.357929204932
 30
0.0
 11
1203.8
 21
2595.857929204933
 31
0.0
  0
LINE
  5
14F
330
2
100
AcDbEntity
  8
Bauseitig_Beton
 62
     5
100
AcDbLine
 10
1196.3
 20
2596.993968148933
 30
0.0
 11
1203.8
 21
2589.493968148933
 31
0.0
  0
LINE
  5
150
330
2
100
AcDbEntity
  8
Bauseitig_Beton
 62
     5
100
AcDbLine
 10
1196.3
 20
2590.630007128933
 30
0.0
 11
1199.756616119464
 21
2587.173391009469
 31
0.0
  0
LINE
  5
151
330
2
100
AcDbEntity
  8
Bauseitig_Beton
 62
     5
100
AcDbLine
 10
1200.124148487611
 20
2663.173391009469
 30
0.0
 11
1203.8
 21
2659.497539497079
 31
0.0
  0
LWPOLYLINE
  5
152
330
2
100
AcDbEntity
  8
Bauseitig_Beton
 62
     5
100
AcDbPolyline
 90
        4
 70
     1
 43
0.0
 10
1203.8
 20
2663.173391009469
 10
1196.3
 20
2663.173391009469
 10
1196.3
 20
2587.173391009469
 10
1203.8
 20
2587.173391009469
  0
LWPOLYLINE
  5
153
330
2
100
AcDbEntity
  8
Kasten
100
AcDbPolyline
 90
        4
 70
     1
 43
0.0
 10
1196.3
 20
2547.893391009476
 10
1158.3
 20
2547.893391009476
 10
1158.3
 20
2717.893391009476
 10
1196.3
 20
2717.893391009476
  0
LINE
  5
154
330
2
100
AcDbEntity
  8
Kasten
100
AcDbLine
 10
239.3
 20
2717.893391009476
 30
0.0
 11
1158.3
 21
2717.893391009476
 31
0.0
  0
LWPOLYLINE
  5
155
330
2
100
AcDbEntity
  8
Kasten
100
AcDbPolyline
 90
        4
 70
     1
 43
0.0
 10
157.2999999999999
 20
2469.893391009476
 10
215.3
 20
2469.893391009476
 10
215.3
 20
2477.893391009476
 10
157.2999999999999
 20
2477.893391009476
  0
LWPOLYLINE
  5
156
330
2
100
AcDbEntity
  8
Kasten
100
AcDbPolyline
 90
        4
 70
     1
 43
0.0
 10
1180.3
 20
2469.893391009476
 10
1240.3
 20
2469.893391009476
 10
1240.3
 20
2477.893391009476
 10
1180.3
 20
2477.893391009476
  0
LWPOLYLINE
  5
157
330
2
100
AcDbEntity
  8
Kasten
100
AcDbPolyline
 90
       14
 70
     0
 43
0.0
 10
215.2999999999998
 20
2492.710617128088
 10
215.3
 20
2510.893391009476
 10
224.2999999999999
 20
2510.893391009476
 10
224.2999999999999
 20
2526.893391009476
 10
231.4000000000021
 20
2526.893391009476
 10
231.4000000000021
 20
2531.893391009476
 10
234.4000000000022
 20
2531.893391009476
 10
234.4000000000022
 20
2526.893391009476
 10
239.3
 20
2526.893391009476
 10
239.3
 20
2547.893391009476
 10
201.2999999999999
 20
2547.893391009476
 10
201.2999999999999
 20
2477.893391009476
 10
215.3
 20
2477.893391009476
 10
215.3
 20
2486.893391009477
  0
LWPOLYLINE
  5
158
330
2
100
AcDbEntity
  8
Kasten
100
AcDbPolyline
 90
       13
 70
     0
 43
0.0
 10
1180.3
 20
2477.893391009476
 10
1180.3
 20
2510.893391009476
 10
1173.3
 20
2510.893391009476
 10
1173.3
 20
2526.893391009476
 10
1166.199999999998
 20
2526.893391009476
 10
1166.199999999998
 20
2531.893391009476
 10
1163.199999999998
 20
2531.893391009476
 10
1163.199999999998
 20
2526.893391009476
 10
1158.3
 20
2526.893391009476
 10
1158.3
 20
2547.893391009476
 10
1196.3
 20
2547.893391009476
 10
1196.3
 20
2477.893391009476
 10
1180.3
 20
2477.893391009476
  0
HATCH
  5
159
330
2
100
AcDbEntity
  8
Kasten
100
AcDbHatch
 10
0.0
 20
0.0
 30
0.0
210
0.0
220
0.0
230
1.0
  2
SOLID
 70
     1
 71
     1
 91
        1
 92
        5
 93
        1
 72
     3
 10
232.9000000000021
 20
2525.393391009476
 11
6.0
 21
0.0000000000000029
 40
0.25
 50
0.0
 51
360.0
 73
     1
 97
        1
330
15A
 75
     1
 76
     1
 47
0.0359378219476232
 98
        1
 10
233.2420877253464
 20
2525.910570046971
450
        0
451
        0
460
0.0
461
0.0
452
        0
462
1.0
453
        2
463
0.0
 63
     5
421
      255
463
1.0
 63
     2
421
 16776960
470
LINEAR
1001
GradientColor1ACI
1070
     5
1001
GradientColor2ACI
1070
     2
1001
ACAD
1010
0.0
1020
0.0
1030
0.0
  0
ELLIPSE
  5
15A
102
{ACAD_REACTORS
330
159
102
}
330
2
100
AcDbEntity
  8
Kasten
100
AcDbEllipse
 10
232.9000000000021
 20
2525.393391009476
 30
0.0
 11
6.0
 21
0.0000000000000029
 31
0.0
210
0.0
220
0.0
230
1.0
 40
0.25
 41
0.0
 42
6.283185307179586
  0
HATCH
  5
15B
330
2
100
AcDbEntity
  8
Kasten
100
AcDbHatch
 10
0.0
 20
0.0
 30
0.0
210
0.0
220
0.0
230
1.0
  2
SOLID
 70
     1
 71
     1
 91
        1
 92
        7
 72
     0
 73
     1
 93
        4
 10
224.2999999999999
 20
2510.893391009476
 10
226.0999999999999
 20
2510.893391009476
 10
226.0999999999999
 20
2526.893391009476
 10
224.2999999999999
 20
2526.893391009476
 97
        1
330
15C
 75
     1
 76
     1
 47
0.0574849674306893
 98
        1
 10
225.1361693765214
 20
2519.902611790761
450
        0
451
        0
460
0.0
461
0.0
452
        0
462
1.0
453
        2
463
0.0
 63
     5
421
      255
463
1.0
 63
     2
421
 16776960
470
LINEAR
1001
GradientColor1ACI
1070
     5
1001
GradientColor2ACI
1070
     2
1001
ACAD
1010
0.0
1020
0.0
1030
0.0
  0
LWPOLYLINE
  5
15C
102
{ACAD_REACTORS
330
15B
102
}
330
2
100
AcDbEntity
  8
Kasten
100
AcDbPolyline
 90
        4
 70
     1
 43
0.0
 10
224.2999999999999
 20
2510.893391009476
 10
226.0999999999999
 20
2510.893391009476
 10
226.0999999999999
 20
2526.893391009476
 10
224.2999999999999
 20
2526.893391009476
  0
HATCH
  5
15D
330
2
100
AcDbEntity
  8
Kasten
100
AcDbHatch
 10
0.0
 20
0.0
 30
0.0
210
0.0
220
0.0
230
1.0
  2
SOLID
 70
     1
 71
     1
 91
        1
 92
        7
 72
     1
 73
     1
 93
        4
 10
219.0999999999999
 20
2510.893391009476
 42
0.0
 10
217.3
 20
2510.893391009476
 42
0.0
 10
217.3
 20
2494.961927176515
 42
-0.0308334079195739
 10
219.0999999999999
 20
2496.490889863822
 42
0.0
 97
        2
330
15E
330
175
 75
     1
 76
     1
 47
0.0922004065021923
 98
        1
 10
218.2023349540325
 20
2505.966029037602
450
        0
451
        0
460
0.0
461
0.0
452
        0
462
1.0
453
        2
463
0.0
 63
     5
421
      255
463
1.0
 63
     2
421
 16776960
470
LINEAR
1001
GradientColor1ACI
1070
     5
1001
GradientColor2ACI
1070
     2
1001
ACAD
1010
0.0
1020
0.0
1030
0.0
  0
LWPOLYLINE
  5
15E
102
{ACAD_REACTORS
330
15D
102
}
330
2
100
AcDbEntity
  8
Kasten
100
AcDbPolyline
 90
        4
 70
     1
 43
0.0
 10
217.3
 20
2494.893391009476
 10
219.0999999999999
 20
2496.490889863823
 10
219.0999999999999
 20
2510.893391009476
 10
217.3
 20
2510.893391009476
  0
LWPOLYLINE
  5
15F
330
2
100
AcDbEntity
  8
Kasten
100
AcDbPolyline
 90
        4
 70
     0
 43
0.0
 10
215.3
 20
2486.893391009477
 10
215.3
 20
2469.893391009476
 10
217.3
 20
2469.893391009476
 10
217.3
 20
2486.893391009477
  0
LWPOLYLINE
  5
160
330
2
100
AcDbEntity
  8
Kasten
100
AcDbPolyline
 90
        4
 70
     0
 43
0.0
 10
217.3
 20
2494.961927176515
 10
217.3
 20
2510.893391009476
 10
215.3
 20
2510.893391009476
 10
215.2999999999998
 20
2492.710617128089
  0
HATCH
  5
161
330
2
100
AcDbEntity
  8
Kasten
100
AcDbHatch
 10
0.0
 20
0.0
 30
0.0
210
0.0
220
0.0
230
1.0
  2
SOLID
 70
     1
 71
     1
 91
        1
 92
        5
 93
        1
 72
     3
 10
1164.699999999998
 20
2525.393391009476
 11
6.0
 21
0.0000000000000029
 40
0.25
 50
0.0
 51
360.0
 73
     1
 97
        1
330
162
 75
     1
 76
     1
 47
0.0366751639579389
 98
        1
 10
1164.100062965554
 20
2525.272283501393
450
        0
451
        0
460
0.0
461
0.0
452
        0
462
1.0
453
        2
463
0.0
 63
     5
421
      255
463
1.0
 63
     2
421
 16776960
470
LINEAR
1001
GradientColor1ACI
1070
     5
1001
GradientColor2ACI
1070
     2
1001
ACAD
1010
0.0
1020
0.0
1030
0.0
  0
ELLIPSE
  5
162
102
{ACAD_REACTORS
330
161
102
}
330
2
100
AcDbEntity
  8
Kasten
100
AcDbEllipse
 10
1164.699999999998
 20
2525.393391009476
 30
0.0
 11
6.0
 21
0.0000000000000029
 31
0.0
210
0.0
220
0.0
230
1.0
 40
0.25
 41
0.0
 42
6.283185307179586
  0
HATCH
  5
163
330
2
100
AcDbEntity
  8
Kasten
100
AcDbHatch
 10
0.0
 20
0.0
 30
0.0
210
0.0
220
0.0
230
1.0
  2
SOLID
 70
     1
 71
     1
 91
        1
 92
        7
 72
     0
 73
     1
 93
        4
 10
1171.5
 20
2510.893391009476
 10
1173.3
 20
2510.893391009476
 10
1173.3
 20
2526.893391009476
 10
1171.5
 20
2526.893391009476
 97
        1
330
164
 75
     1
 76
     1
 47
0.0966336791426784
 98
        1
 10
1172.210789504065
 20
2520.481459372414
450
        0
451
        0
460
0.0
461
0.0
452
        0
462
1.0
453
        2
463
0.0
 63
     5
421
      255
463
1.0
 63
     2
421
 16776960
470
LINEAR
1001
GradientColor1ACI
1070
     5
1001
GradientColor2ACI
1070
     2
1001
ACAD
1010
0.0
1020
0.0
1030
0.0
  0
LWPOLYLINE
  5
164
102
{ACAD_REACTORS
330
163
102
}
330
2
100
AcDbEntity
  8
Kasten
100
AcDbPolyline
 90
        4
 70
     1
 43
0.0
 10
1171.5
 20
2510.893391009476
 10
1173.3
 20
2510.893391009476
 10
1173.3
 20
2526.893391009476
 10
1171.5
 20
2526.893391009476
  0
HATCH
  5
165
330
2
100
AcDbEntity
  8
Kasten
100
AcDbHatch
 10
0.0
 20
0.0
 30
0.0
210
0.0
220
0.0
230
1.0
  2
SOLID
 70
     1
 71
     1
 91
        1
 92
        7
 72
     0
 73
     1
 93
        4
 10
1177.0
 20
2489.893391009475
 10
1178.8
 20
2489.893391009475
 10
1178.8
 20
2505.893391009475
 10
1177.0
 20
2505.893391009475
 97
        1
330
166
 75
     1
 76
     1
 47
0.0966336791426784
 98
        1
 10
1177.710789504065
 20
2499.481459372414
450
        0
451
        0
460
0.0
461
0.0
452
        0
462
1.0
453
        2
463
0.0
 63
     5
421
      255
463
1.0
 63
     2
421
 16776960
470
LINEAR
1001
GradientColor1ACI
1070
     5
1001
GradientColor2ACI
1070
     2
1001
ACAD
1010
0.0
1020
0.0
1030
0.0
  0
LWPOLYLINE
  5
166
102
{ACAD_REACTORS
330
165
102
}
330
2
100
AcDbEntity
  8
Kasten
100
AcDbPolyline
 90
        4
 70
     1
 43
0.0
 10
1177.0
 20
2489.893391009475
 10
1178.8
 20
2489.893391009475
 10
1178.8
 20
2505.893391009475
 10
1177.0
 20
2505.893391009475
  0
LWPOLYLINE
  5
167
330
2
100
AcDbEntity
  8
Kasten
100
AcDbPolyline
 90
        8
 70
     0
 43
0.0
 10
1178.8
 20
2505.893391009475
 10
1180.3
 20
2505.893391009475
 10
1180.3
 20
2475.893391009476
 42
-3.732050807568986
 10
1178.55
 20
2478.924479922721
 10
1178.8
 20
2478.765672332744
 10
1177.942857142859
 20
2477.534694622772
 42
4.075101114960545
 10
1178.8
 20
2475.893391009476
 10
1178.8
 20
2505.893391009475
  0
LWPOLYLINE
  5
168
330
2
100
AcDbEntity
  8
Kasten
100
AcDbPolyline
 90
        5
 70
     0
 43
0.0
 10
1174.799999999999
 20
2505.893391009475
 10
1173.299999999999
 20
2505.893391009475
 10
1173.299999999999
 20
2475.893391009476
 42
3.732050807568986
 10
1175.049999999999
 20
2478.924479922721
 10
1174.800000000004
 20
2478.765672332736
  0
LWPOLYLINE
  5
169
330
2
100
AcDbEntity
  8
Kasten
100
AcDbPolyline
 90
        2
 70
     0
 43
0.0
 10
1174.799999999999
 20
2478.765672332744
 10
1174.799999999999
 20
2505.893391009475
  0
LINE
  5
16A
330
2
100
AcDbEntity
  8
Kasten
100
AcDbLine
 10
1180.3
 20
2469.893391009476
 30
0.0
 11
217.3
 21
2469.893391009476
 31
0.0
  0
LWPOLYLINE
  5
16B
330
2
100
AcDbEntity
  8
Kasten
100
AcDbPolyline
 90
        4
 70
     1
 43
0.0
 10
1168.299999999999
 20
2523.893391009476
 10
229.3
 20
2523.893391009476
 10
229.3
 20
2519.893391009476
 10
1168.299999999999
 20
2519.893391009476
  0
LWPOLYLINE
  5
16C
330
2
100
AcDbEntity
  8
Kasten
100
AcDbPolyline
 90
        6
 70
     1
 43
0.0
 10
280.2999999999999
 20
2503.293391009477
 10
280.2999999999999
 20
2481.893391009476
 10
1150.299999999999
 20
2481.893391009476
 10
1150.299999999999
 20
2519.893391009476
 10
247.2999999999999
 20
2519.893391009476
 10
247.2999999999999
 20
2503.293391009477
  0
LWPOLYLINE
  5
16D
330
2
100
AcDbEntity
  8
Kasten
100
AcDbPolyline
 90
        6
 70
     0
 43
0.0
 10
262.1911992780576
 20
2477.893391009476
 10
1173.299999999999
 20
2477.893391009476
 10
1173.299999999999
 20
2481.893391009476
 10
222.3000000000001
 20
2481.893391009476
 10
222.3000000000001
 20
2477.893391009476
 10
246.1938741060375
 20
2477.893391009476
  0
LWPOLYLINE
  5
16E
330
2
100
AcDbEntity
  8
Kasten
100
AcDbPolyline
 90
        9
 70
     0
 43
0.0
 10
247.2999999999999
 20
2519.893391009476
 10
229.3
 20
2519.893391009476
 10
229.3
 20
2508.893391009477
 10
222.2999999999999
 20
2508.893391009476
 10
222.2999999999999
 20
2506.893391009477
 10
224.2999999999999
 20
2506.893391009477
 10
224.2999999999999
 20
2503.293391009477
 10
247.2999999999999
 20
2503.293391009477
 10
247.2999999999999
 20
2519.893391009476
  0
LWPOLYLINE
  5
16F
330
2
100
AcDbEntity
  8
Kasten
100
AcDbPolyline
 90
        4
 70
     0
 43
0.0
 10
222.2999999999999
 20
2498.429799386103
 10
222.2999999999999
 20
2506.893391009477
 10
224.2999999999999
 20
2506.893391009477
 10
224.2999999999999
 20
2499.253180429617
  0
LWPOLYLINE
  5
170
330
2
100
AcDbEntity
  8
Kasten
100
AcDbPolyline
 90
        4
 70
     0
 43
0.0
 10
224.2999999999999
 20
2486.893391009477
 10
224.2999999999999
 20
2481.893391009478
 10
222.2999999999999
 20
2481.893391009478
 10
222.2999999999999
 20
2486.893391009477
  0
LINE
  5
171
330
2
100
AcDbEntity
  8
Kasten
100
AcDbLine
 10
259.1700696539017
 20
2481.893391009479
 30
0.0
 11
272.8838094378523
 21
2463.73628887879
 31
0.0
  0
LINE
  5
172
330
2
100
AcDbEntity
  8
Kasten
100
AcDbLine
 10
243.2999999999999
 20
2481.893391009479
 30
0.0
 11
274.4022264922758
 21
2438.902956246039
 31
0.0
  0
ARC
  5
173
330
2
100
AcDbEntity
  8
Kasten
100
AcDbCircle
 10
287.0990831787537
 20
2447.793391009479
 30
0.0
 40
15.5
100
AcDbArc
 50
215.0000000000139
 51
115.6310844215347
  0
ARC
  5
174
330
2
100
AcDbEntity
  8
Kasten
100
AcDbCircle
 10
277.798721703585
 20
2467.177747496896
 30
0.0
 40
6.0
100
AcDbArc
 50
215.0000000000139
 51
295.6310844215346
  0
ARC
  5
175
102
{ACAD_REACTORS
330
15D
102
}
330
2
100
AcDbEntity
  8
Kasten
100
AcDbCircle
 10
230.5851789909691
 20
2481.14572426357
 30
0.0
 40
19.16724924849058
100
AcDbArc
 50
109.1421164656779
 51
162.5502558397748
  0
LINE
  5
176
330
2
100
AcDbEntity
  8
Kasten
100
AcDbLine
 10
212.3
 20
2486.893391009477
 30
0.0
 11
224.2999999999999
 21
2486.893391009477
 31
0.0
  0
LWPOLYLINE
  5
177
330
2
100
AcDbEntity
  8
Kasten
100
AcDbPolyline
 90
        4
 70
     1
 43
0.0
 10
224.2999999999999
 20
2503.293391009477
 10
280.2999999999999
 20
2503.293391009477
 10
280.2999999999999
 20
2481.893391009478
 10
224.2999999999999
 20
2481.893391009478
  0
LWPOLYLINE
  5
178
330
2
100
AcDbEntity
  8
Kasten
100
AcDbPolyline
 90
        7
 70
     0
 43
0.0
 10
1150.299999999999
 20
2519.893391009476
 10
1168.299999999999
 20
2519.893391009476
 10
1168.299999999999
 20
2508.893391009477
 10
1173.299999999999
 20
2508.893391009476
 10
1173.299999999999
 20
2481.893391009476
 10
1150.299999999999
 20
2481.893391009476
 10
1150.299999999999
 20
2519.893391009476
  0
LWPOLYLINE
  5
179
330
2
100
AcDbEntity
  8
Kasten
100
AcDbPolyline
 90
        4
 70
     1
 43
0.0
 10
1196.3
 20
2487.893391009476
 10
1201.3
 20
2487.893391009476
 10
1201.3
 20
2632.893391009476
 10
1196.3
 20
2632.893391009476
  0
LWPOLYLINE
  5
17A
330
2
100
AcDbEntity
  8
Scherentreppe
100
AcDbPolyline
 90
        4
 70
     1
 43
0.0
 10
191.5223978340486
 20
2361.269595061511
 10
191.8598978340489
 20
2361.269595061511
 10
191.8598978340486
 20
2368.019595061511
 10
191.5223978340477
 20
2368.019595061511
  0
ARC
  5
17C
330
2
100
AcDbEntity
  8
Scherentreppe
100
AcDbCircle
 10
189.2723978340486
 20
2364.644595061511
 30
0.0
 40
1.2375
100
AcDbArc
 50
128.5466481994313
 51
231.4533518005687
  0
LINE
  5
17D
330
2
100
AcDbEntity
  8
Scherentreppe
100
AcDbLine
 10
191.5223978340477
 20
2368.019595061511
 30
0.0
 11
188.5012477263796
 21
2365.61244513329
 31
0.0
  0
LINE
  5
17E
330
2
100
AcDbEntity
  8
Scherentreppe
100
AcDbLine
 10
191.5223978340486
 20
2361.269595061511
 30
0.0
 11
188.5012477263801
 21
2363.676744989732
 31
0.0
  0
CIRCLE
  5
17F
330
2
100
AcDbEntity
  8
Scherentreppe
370
    25
100
AcDbCircle
 10
155.3613198047119
 20
2346.944841752218
 30
0.0
 40
0.5676328124999996
  0
LINE
  5
180
330
2
100
AcDbEntity
  8
Scherentreppe
100
AcDbLine
 10
147.3407701326028
 20
2326.153207224706
 30
0.0
 11
165.3407701326028
 21
2326.153207224706
 31
0.0
  0
LINE
  5
181
330
2
100
AcDbEntity
  8
Scherentreppe
100
AcDbLine
 10
147.3407701326028
 20
2329.528207224706
 30
0.0
 11
165.3407701326024
 21
2329.528207224706
 31
0.0
  0
LWPOLYLINE
  5
182
330
2
100
AcDbEntity
  8
Scherentreppe
100
AcDbPolyline
 90
        4
 70
     1
 43
0.0
 10
147.3407701326028
 20
2326.153207224706
 10
165.3407701326028
 20
2326.153207224706
 10
165.3407701326024
 20
2329.528207224706
 10
147.3407701326028
 20
2329.528207224706
  0
LINE
  5
183
330
2
100
AcDbEntity
  8
Scherentreppe
100
AcDbLine
 10
163.3157701326052
 20
2354.098207224706
 30
0.0
 11
181.3157701326052
 21
2354.098207224706
 31
0.0
  0
LINE
  5
184
330
2
100
AcDbEntity
  8
Scherentreppe
100
AcDbLine
 10
163.3157701326052
 20
2357.473207224705
 30
0.0
 11
181.3157701326049
 21
2357.473207224706
 31
0.0
  0
LWPOLYLINE
  5
185
330
2
100
AcDbEntity
  8
Scherentreppe
100
AcDbPolyline
 90
        4
 70
     1
 43
0.0
 10
163.3157701326052
 20
2354.098207224706
 10
181.3157701326052
 20
2354.098207224706
 10
181.3157701326049
 20
2357.473207224706
 10
163.3157701326052
 20
2357.473207224706
  0
CIRCLE
  5
186
330
2
100
AcDbEntity
  8
Scherentreppe
100
AcDbCircle
 10
189.2700218938996
 20
2364.630024748557
 30
0.0
 40
0.5676328125000018
  0
LINE
  5
187
330
2
100
AcDbEntity
  8
Scherentreppe
100
AcDbLine
 10
131.3657701326003
 20
2298.208207224706
 30
0.0
 11
149.3657701326003
 21
2298.208207224706
 31
0.0
  0
LINE
  5
188
330
2
100
AcDbEntity
  8
Scherentreppe
100
AcDbLine
 10
131.3657701326003
 20
2301.583207224706
 30
0.0
 11
149.3657701325999
 21
2301.583207224706
 31
0.0
  0
LWPOLYLINE
  5
189
330
2
100
AcDbEntity
  8
Scherentreppe
100
AcDbPolyline
 90
        4
 70
     1
 43
0.0
 10
131.3657701326003
 20
2298.208207224706
 10
149.3657701326003
 20
2298.208207224706
 10
149.3657701325999
 20
2301.583207224706
 10
131.3657701326003
 20
2301.583207224706
  0
LINE
  5
18A
330
2
100
AcDbEntity
  8
Scherentreppe
100
AcDbLine
 10
115.3907701325991
 20
2270.263207224706
 30
0.0
 11
133.3907701325991
 21
2270.263207224706
 31
0.0
  0
LINE
  5
18B
330
2
100
AcDbEntity
  8
Scherentreppe
100
AcDbLine
 10
115.3907701325991
 20
2273.638207224706
 30
0.0
 11
133.3907701325987
 21
2273.638207224706
 31
0.0
  0
LWPOLYLINE
  5
18C
330
2
100
AcDbEntity
  8
Scherentreppe
100
AcDbPolyline
 90
        4
 70
     1
 43
0.0
 10
115.3907701325991
 20
2270.263207224706
 10
133.3907701325991
 20
2270.263207224706
 10
133.3907701325987
 20
2273.638207224706
 10
115.3907701325991
 20
2273.638207224706
  0
LINE
  5
18D
330
2
100
AcDbEntity
  8
Scherentreppe
100
AcDbLine
 10
99.4157701325979
 20
2242.318207224706
 30
0.0
 11
117.4157701325979
 21
2242.318207224706
 31
0.0
  0
LINE
  5
18E
330
2
100
AcDbEntity
  8
Scherentreppe
100
AcDbLine
 10
99.4157701325979
 20
2245.693207224706
 30
0.0
 11
117.4157701325975
 21
2245.693207224706
 31
0.0
  0
LWPOLYLINE
  5
18F
330
2
100
AcDbEntity
  8
Scherentreppe
100
AcDbPolyline
 90
        4
 70
     1
 43
0.0
 10
99.4157701325979
 20
2242.318207224706
 10
117.4157701325979
 20
2242.318207224706
 10
117.4157701325975
 20
2245.693207224706
 10
99.4157701325979
 20
2245.693207224706
  0
LINE
  5
190
330
2
100
AcDbEntity
  8
Scherentreppe
100
AcDbLine
 10
83.44077013259674
 20
2214.373207224706
 30
0.0
 11
101.4407701325967
 21
2214.373207224706
 31
0.0
  0
LINE
  5
191
330
2
100
AcDbEntity
  8
Scherentreppe
100
AcDbLine
 10
83.44077013259674
 20
2217.748207224706
 30
0.0
 11
101.4407701325963
 21
2217.748207224706
 31
0.0
  0
LWPOLYLINE
  5
192
330
2
100
AcDbEntity
  8
Scherentreppe
100
AcDbPolyline
 90
        4
 70
     1
 43
0.0
 10
83.44077013259674
 20
2214.373207224706
 10
101.4407701325967
 20
2214.373207224706
 10
101.4407701325963
 20
2217.748207224706
 10
83.44077013259674
 20
2217.748207224706
  0
LINE
  5
193
330
2
100
AcDbEntity
  8
Scherentreppe
100
AcDbLine
 10
67.46577013259546
 20
2186.428207224706
 30
0.0
 11
85.46577013259547
 21
2186.428207224706
 31
0.0
  0
LINE
  5
194
330
2
100
AcDbEntity
  8
Scherentreppe
100
AcDbLine
 10
67.46577013259546
 20
2189.803207224706
 30
0.0
 11
85.46577013259501
 21
2189.803207224706
 31
0.0
  0
LWPOLYLINE
  5
195
330
2
100
AcDbEntity
  8
Scherentreppe
100
AcDbPolyline
 90
        4
 70
     1
 43
0.0
 10
67.46577013259546
 20
2186.428207224706
 10
85.46577013259547
 20
2186.428207224706
 10
85.46577013259501
 20
2189.803207224706
 10
67.46577013259546
 20
2189.803207224706
  0
LINE
  5
196
330
2
100
AcDbEntity
  8
Scherentreppe
100
AcDbLine
 10
51.49077013259419
 20
2158.483207224705
 30
0.0
 11
69.49077013259419
 21
2158.483207224706
 31
0.0
  0
LINE
  5
197
330
2
100
AcDbEntity
  8
Scherentreppe
100
AcDbLine
 10
51.49077013259419
 20
2161.858207224705
 30
0.0
 11
69.49077013259385
 21
2161.858207224706
 31
0.0
  0
LWPOLYLINE
  5
198
330
2
100
AcDbEntity
  8
Scherentreppe
100
AcDbPolyline
 90
        4
 70
     1
 43
0.0
 10
51.49077013259419
 20
2158.483207224705
 10
69.49077013259419
 20
2158.483207224705
 10
69.49077013259385
 20
2161.858207224706
 10
51.49077013259419
 20
2161.858207224706
  0
LINE
  5
199
330
2
100
AcDbEntity
  8
Scherentreppe
100
AcDbLine
 10
35.51577013259303
 20
2130.538207224705
 30
0.0
 11
53.51577013259303
 21
2130.538207224705
 31
0.0
  0
LINE
  5
19A
330
2
100
AcDbEntity
  8
Scherentreppe
100
AcDbLine
 10
35.51577013259303
 20
2133.913207224706
 30
0.0
 11
53.51577013259258
 21
2133.913207224706
 31
0.0
  0
LWPOLYLINE
  5
19B
330
2
100
AcDbEntity
  8
Scherentreppe
100
AcDbPolyline
 90
        4
 70
     1
 43
0.0
 10
35.51577013259303
 20
2130.538207224705
 10
53.51577013259303
 20
2130.538207224705
 10
53.51577013259258
 20
2133.913207224706
 10
35.51577013259303
 20
2133.913207224706
  0
LINE
  5
19C
330
2
100
AcDbEntity
  8
Scherentreppe
370
    25
100
AcDbLine
 10
47.06676732502931
 20
2132.35649435393
 30
0.0
 11
46.68701768943229
 21
2113.098072092797
 31
0.0
  0
LINE
  5
19D
330
2
100
AcDbEntity
  8
Scherentreppe
370
    25
100
AcDbLine
 10
41.96477294082829
 20
2132.094920082385
 30
0.0
 11
42.34452257575331
 21
2151.353342356614
 31
0.0
  0
LINE
  5
19E
330
2
100
AcDbEntity
  8
Scherentreppe
370
    25
100
AcDbLine
 10
47.06676732502931
 20
2132.35649435393
 30
0.0
 11
44.71946476161905
 21
2151.475103324078
 31
0.0
  0
ARC
  5
19F
330
2
100
AcDbEntity
  8
Scherentreppe
370
    25
100
AcDbCircle
 10
43.53631980470207
 20
2151.329841752217
 30
0.0
 40
1.192028906249999
100
AcDbArc
 50
6.999505647543855
 51
178.8703523226267
  0
ARC
  5
1A0
330
2
100
AcDbEntity
  8
Scherentreppe
370
    25
100
AcDbCircle
 10
45.49522046048387
 20
2113.121572697194
 30
0.0
 40
1.192028906249999
100
AcDbArc
 50
186.9995056475438
 51
358.8703523213758
  0
LINE
  5
1A1
330
2
100
AcDbEntity
  8
Scherentreppe
370
    25
100
AcDbLine
 10
41.96477294082829
 20
2132.094920082385
 30
0.0
 11
44.31207550356781
 21
2112.976311125333
 31
0.0
  0
LINE
  5
1A2
330
2
100
AcDbEntity
  8
Scherentreppe
370
    25
100
AcDbLine
 10
45.6975799511806
 20
2129.961194583611
 30
0.0
 11
28.03230584511446
 21
2122.282058660125
 31
0.0
  0
LINE
  5
1A3
330
2
100
AcDbEntity
  8
Scherentreppe
370
    25
100
AcDbLine
 10
43.33396030238053
 20
2134.490219859734
 30
0.0
 11
60.9992344200716
 21
2142.169355789286
 31
0.0
  0
LINE
  5
1A4
330
2
100
AcDbEntity
  8
Scherentreppe
370
    25
100
AcDbLine
 10
45.6975799511806
 20
2129.961194583611
 30
0.0
 11
62.09948259608903
 21
2140.061126657865
 31
0.0
  0
ARC
  5
1A5
330
2
100
AcDbEntity
  8
Scherentreppe
370
    25
100
AcDbCircle
 10
61.47445366652583
 20
2141.07614968743
 30
0.0
 40
1.192028906249999
100
AcDbArc
 50
301.6238508190121
 51
113.494697494037
  0
ARC
  5
1A6
330
2
100
AcDbEntity
  8
Scherentreppe
370
    25
100
AcDbCircle
 10
27.55708659866023
 20
2123.375264761982
 30
0.0
 40
1.192028906249999
100
AcDbArc
 50
121.6238508190121
 51
293.4946974926719
  0
LINE
  5
1A7
330
2
100
AcDbEntity
  8
Scherentreppe
370
    25
100
AcDbLine
 10
43.33396030238053
 20
2134.490219859734
 30
0.0
 11
26.93205766909692
 21
2124.390287791546
 31
0.0
  0
LINE
  5
1A8
330
2
100
AcDbEntity
  8
Scherentreppe
370
    25
100
AcDbLine
 10
63.04176732503093
 20
2160.301494353931
 30
0.0
 11
62.66201768943391
 21
2141.043072092798
 31
0.0
  0
LINE
  5
1A9
330
2
100
AcDbEntity
  8
Scherentreppe
370
    25
100
AcDbLine
 10
57.93977294082991
 20
2160.039920082386
 30
0.0
 11
58.31952257575493
 21
2179.298342356613
 31
0.0
  0
LINE
  5
1AA
330
2
100
AcDbEntity
  8
Scherentreppe
370
    25
100
AcDbLine
 10
63.04176732503093
 20
2160.301494353931
 30
0.0
 11
60.69446476162067
 21
2179.420103324078
 31
0.0
  0
ARC
  5
1AB
330
2
100
AcDbEntity
  8
Scherentreppe
370
    25
100
AcDbCircle
 10
59.5113198047038
 20
2179.274841752218
 30
0.0
 40
1.192028906249999
100
AcDbArc
 50
6.999505647543855
 51
178.8703523226267
  0
ARC
  5
1AC
330
2
100
AcDbEntity
  8
Scherentreppe
370
    25
100
AcDbCircle
 10
61.47022046048549
 20
2141.066572697194
 30
0.0
 40
1.192028906249999
100
AcDbArc
 50
186.9995056475438
 51
358.8703523213758
  0
LINE
  5
1AD
330
2
100
AcDbEntity
  8
Scherentreppe
370
    25
100
AcDbLine
 10
57.93977294082991
 20
2160.039920082386
 30
0.0
 11
60.28707550356942
 21
2140.921311125333
 31
0.0
  0
LINE
  5
1AE
330
2
100
AcDbEntity
  8
Scherentreppe
370
    25
100
AcDbLine
 10
61.67257995118221
 20
2157.906194583611
 30
0.0
 11
44.00730584511608
 21
2150.227058660125
 31
0.0
  0
LINE
  5
1AF
330
2
100
AcDbEntity
  8
Scherentreppe
370
    25
100
AcDbLine
 10
59.30896030238215
 20
2162.435219859734
 30
0.0
 11
76.97423442007321
 21
2170.114355789286
 31
0.0
  0
LINE
  5
1B0
330
2
100
AcDbEntity
  8
Scherentreppe
370
    25
100
AcDbLine
 10
61.67257995118221
 20
2157.906194583611
 30
0.0
 11
78.07448259609076
 21
2168.006126657866
 31
0.0
  0
ARC
  5
1B1
330
2
100
AcDbEntity
  8
Scherentreppe
370
    25
100
AcDbCircle
 10
77.44945366652745
 20
2169.02114968743
 30
0.0
 40
1.192028906249999
100
AcDbArc
 50
301.6238508190121
 51
113.494697494037
  0
ARC
  5
1B2
330
2
100
AcDbEntity
  8
Scherentreppe
370
    25
100
AcDbCircle
 10
43.53208659866185
 20
2151.320264761982
 30
0.0
 40
1.192028906249999
100
AcDbArc
 50
121.6238508190121
 51
293.4946974926719
  0
LINE
  5
1B3
330
2
100
AcDbEntity
  8
Scherentreppe
370
    25
100
AcDbLine
 10
59.30896030238215
 20
2162.435219859734
 30
0.0
 11
42.90705766909853
 21
2152.335287791546
 31
0.0
  0
LINE
  5
1B4
330
2
100
AcDbEntity
  8
Scherentreppe
370
    25
100
AcDbLine
 10
79.01676732503175
 20
2188.246494353931
 30
0.0
 11
78.63701768943473
 21
2168.988072092798
 31
0.0
  0
LINE
  5
1B5
330
2
100
AcDbEntity
  8
Scherentreppe
370
    25
100
AcDbLine
 10
73.91477294083073
 20
2187.984920082385
 30
0.0
 11
74.29452257575575
 21
2207.243342356613
 31
0.0
  0
LINE
  5
1B6
330
2
100
AcDbEntity
  8
Scherentreppe
370
    25
100
AcDbLine
 10
79.01676732503175
 20
2188.246494353931
 30
0.0
 11
76.66946476162149
 21
2207.365103324079
 31
0.0
  0
ARC
  5
1B7
330
2
100
AcDbEntity
  8
Scherentreppe
370
    25
100
AcDbCircle
 10
75.48631980470462
 20
2207.219841752217
 30
0.0
 40
1.192028906249999
100
AcDbArc
 50
6.999505647543855
 51
178.8703523226267
  0
ARC
  5
1B8
330
2
100
AcDbEntity
  8
Scherentreppe
370
    25
100
AcDbCircle
 10
77.44522046048631
 20
2169.011572697194
 30
0.0
 40
1.192028906249999
100
AcDbArc
 50
186.9995056475438
 51
358.8703523213758
  0
LINE
  5
1B9
330
2
100
AcDbEntity
  8
Scherentreppe
370
    25
100
AcDbLine
 10
73.91477294083073
 20
2187.984920082385
 30
0.0
 11
76.26207550357024
 21
2168.866311125333
 31
0.0
  0
LINE
  5
1BA
330
2
100
AcDbEntity
  8
Scherentreppe
370
    25
100
AcDbLine
 10
77.64757995118303
 20
2185.85119458361
 30
0.0
 11
59.9823058451169
 21
2178.172058660126
 31
0.0
  0
LINE
  5
1BB
330
2
100
AcDbEntity
  8
Scherentreppe
370
    25
100
AcDbLine
 10
75.28396030238297
 20
2190.380219859735
 30
0.0
 11
92.94923442007403
 21
2198.059355789286
 31
0.0
  0
LINE
  5
1BC
330
2
100
AcDbEntity
  8
Scherentreppe
370
    25
100
AcDbLine
 10
77.64757995118303
 20
2185.85119458361
 30
0.0
 11
94.04948259609158
 21
2195.951126657865
 31
0.0
  0
ARC
  5
1BD
330
2
100
AcDbEntity
  8
Scherentreppe
370
    25
100
AcDbCircle
 10
93.42445366652826
 20
2196.96614968743
 30
0.0
 40
1.192028906249999
100
AcDbArc
 50
301.6238508190121
 51
113.494697494037
  0
ARC
  5
1BE
330
2
100
AcDbEntity
  8
Scherentreppe
370
    25
100
AcDbCircle
 10
59.50708659866267
 20
2179.265264761982
 30
0.0
 40
1.192028906249999
100
AcDbArc
 50
121.6238508190121
 51
293.4946974926719
  0
LINE
  5
1BF
330
2
100
AcDbEntity
  8
Scherentreppe
370
    25
100
AcDbLine
 10
75.28396030238297
 20
2190.380219859735
 30
0.0
 11
58.88205766909935
 21
2180.280287791546
 31
0.0
  0
LINE
  5
1C0
330
2
100
AcDbEntity
  8
Scherentreppe
370
    25
100
AcDbLine
 10
94.99176732503302
 20
2216.19149435393
 30
0.0
 11
94.61201768943601
 21
2196.933072092798
 31
0.0
  0
LINE
  5
1C1
330
2
100
AcDbEntity
  8
Scherentreppe
370
    25
100
AcDbLine
 10
89.889772940832
 20
2215.929920082385
 30
0.0
 11
90.26952257575702
 21
2235.188342356613
 31
0.0
  0
LINE
  5
1C2
330
2
100
AcDbEntity
  8
Scherentreppe
370
    25
100
AcDbLine
 10
94.99176732503302
 20
2216.19149435393
 30
0.0
 11
92.64446476162264
 21
2235.310103324078
 31
0.0
  0
ARC
  5
1C3
330
2
100
AcDbEntity
  8
Scherentreppe
370
    25
100
AcDbCircle
 10
91.46131980470578
 20
2235.164841752217
 30
0.0
 40
1.192028906249999
100
AcDbArc
 50
6.999505647543855
 51
178.8703523226267
  0
ARC
  5
1C4
330
2
100
AcDbEntity
  8
Scherentreppe
370
    25
100
AcDbCircle
 10
93.42022046048759
 20
2196.956572697194
 30
0.0
 40
1.192028906249999
100
AcDbArc
 50
186.9995056475438
 51
358.8703523213758
  0
LINE
  5
1C5
330
2
100
AcDbEntity
  8
Scherentreppe
370
    25
100
AcDbLine
 10
89.889772940832
 20
2215.929920082385
 30
0.0
 11
92.23707550357152
 21
2196.811311125332
 31
0.0
  0
LINE
  5
1C6
330
2
100
AcDbEntity
  8
Scherentreppe
370
    25
100
AcDbLine
 10
93.62257995118419
 20
2213.796194583611
 30
0.0
 11
75.95730584511817
 21
2206.117058660126
 31
0.0
  0
LINE
  5
1C7
330
2
100
AcDbEntity
  8
Scherentreppe
370
    25
100
AcDbLine
 10
91.25896030238413
 20
2218.325219859734
 30
0.0
 11
108.9242344200752
 21
2226.004355789286
 31
0.0
  0
LINE
  5
1C8
330
2
100
AcDbEntity
  8
Scherentreppe
370
    25
100
AcDbLine
 10
93.62257995118419
 20
2213.796194583611
 30
0.0
 11
110.0244825960927
 21
2223.896126657865
 31
0.0
  0
ARC
  5
1C9
330
2
100
AcDbEntity
  8
Scherentreppe
370
    25
100
AcDbCircle
 10
109.3994536665295
 20
2224.91114968743
 30
0.0
 40
1.192028906249999
100
AcDbArc
 50
301.6238508191598
 51
113.494697494037
  0
ARC
  5
1CA
330
2
100
AcDbEntity
  8
Scherentreppe
370
    25
100
AcDbCircle
 10
75.48208659866394
 20
2207.210264761982
 30
0.0
 40
1.192028906249999
100
AcDbArc
 50
121.6238508191598
 51
293.4946974926719
  0
LINE
  5
1CB
330
2
100
AcDbEntity
  8
Scherentreppe
370
    25
100
AcDbLine
 10
91.25896030238413
 20
2218.325219859734
 30
0.0
 11
74.85705766910062
 21
2208.225287791545
 31
0.0
  0
LINE
  5
1CC
330
2
100
AcDbEntity
  8
Scherentreppe
370
    25
100
AcDbLine
 10
110.9667673250338
 20
2244.136494353931
 30
0.0
 11
110.5870176894368
 21
2224.878072092797
 31
0.0
  0
LINE
  5
1CD
330
2
100
AcDbEntity
  8
Scherentreppe
370
    25
100
AcDbLine
 10
105.8647729408328
 20
2243.874920082385
 30
0.0
 11
106.2445225757578
 21
2263.133342356614
 31
0.0
  0
LINE
  5
1CE
330
2
100
AcDbEntity
  8
Scherentreppe
370
    25
100
AcDbLine
 10
110.9667673250338
 20
2244.136494353931
 30
0.0
 11
108.6194647616234
 21
2263.255103324079
 31
0.0
  0
ARC
  5
1CF
330
2
100
AcDbEntity
  8
Scherentreppe
370
    25
100
AcDbCircle
 10
107.4363198047066
 20
2263.109841752218
 30
0.0
 40
1.192028906249999
100
AcDbArc
 50
6.999505647543855
 51
178.8703523226267
  0
ARC
  5
1D0
330
2
100
AcDbEntity
  8
Scherentreppe
370
    25
100
AcDbCircle
 10
109.3952204604884
 20
2224.901572697195
 30
0.0
 40
1.192028906249999
100
AcDbArc
 50
186.9995056475438
 51
358.8703523213758
  0
LINE
  5
1D1
330
2
100
AcDbEntity
  8
Scherentreppe
370
    25
100
AcDbLine
 10
105.8647729408328
 20
2243.874920082385
 30
0.0
 11
108.2120755035723
 21
2224.756311125332
 31
0.0
  0
LINE
  5
1D2
330
2
100
AcDbEntity
  8
Scherentreppe
370
    25
100
AcDbLine
 10
109.597579951185
 20
2241.741194583611
 30
0.0
 11
91.932305845119
 21
2234.062058660126
 31
0.0
  0
LINE
  5
1D3
330
2
100
AcDbEntity
  8
Scherentreppe
370
    25
100
AcDbLine
 10
107.2339603023849
 20
2246.270219859734
 30
0.0
 11
124.899234420076
 21
2253.949355789286
 31
0.0
  0
LINE
  5
1D4
330
2
100
AcDbEntity
  8
Scherentreppe
370
    25
100
AcDbLine
 10
109.597579951185
 20
2241.741194583611
 30
0.0
 11
125.9994825960935
 21
2251.841126657866
 31
0.0
  0
ARC
  5
1D5
330
2
100
AcDbEntity
  8
Scherentreppe
370
    25
100
AcDbCircle
 10
125.3744536665303
 20
2252.85614968743
 30
0.0
 40
1.192028906249999
100
AcDbArc
 50
301.6238508191598
 51
113.494697494037
  0
ARC
  5
1D6
330
2
100
AcDbEntity
  8
Scherentreppe
370
    25
100
AcDbCircle
 10
91.45708659866476
 20
2235.155264761982
 30
0.0
 40
1.192028906249999
100
AcDbArc
 50
121.6238508191598
 51
293.4946974926719
  0
LINE
  5
1D7
330
2
100
AcDbEntity
  8
Scherentreppe
370
    25
100
AcDbLine
 10
107.2339603023849
 20
2246.270219859734
 30
0.0
 11
90.83205766910145
 21
2236.170287791546
 31
0.0
  0
LINE
  5
1D8
330
2
100
AcDbEntity
  8
Scherentreppe
370
    25
100
AcDbLine
 10
126.9417673250354
 20
2272.081494353931
 30
0.0
 11
126.5620176894384
 21
2252.823072092798
 31
0.0
  0
LINE
  5
1D9
330
2
100
AcDbEntity
  8
Scherentreppe
370
    25
100
AcDbLine
 10
121.8397729408344
 20
2271.819920082385
 30
0.0
 11
122.2195225757594
 21
2291.078342356614
 31
0.0
  0
LINE
  5
1DA
330
2
100
AcDbEntity
  8
Scherentreppe
370
    25
100
AcDbLine
 10
126.9417673250354
 20
2272.081494353931
 30
0.0
 11
124.5944647616252
 21
2291.200103324078
 31
0.0
  0
ARC
  5
1DB
330
2
100
AcDbEntity
  8
Scherentreppe
370
    25
100
AcDbCircle
 10
123.4113198047082
 20
2291.054841752218
 30
0.0
 40
1.192028906249999
100
AcDbArc
 50
6.999505647543855
 51
178.8703523226267
  0
ARC
  5
1DC
330
2
100
AcDbEntity
  8
Scherentreppe
370
    25
100
AcDbCircle
 10
125.37022046049
 20
2252.846572697194
 30
0.0
 40
1.192028906249999
100
AcDbArc
 50
186.9995056475438
 51
358.8703523213758
  0
LINE
  5
1DD
330
2
100
AcDbEntity
  8
Scherentreppe
370
    25
100
AcDbLine
 10
121.8397729408344
 20
2271.819920082385
 30
0.0
 11
124.1870755035739
 21
2252.701311125333
 31
0.0
  0
LINE
  5
1DE
330
2
100
AcDbEntity
  8
Scherentreppe
370
    25
100
AcDbLine
 10
125.5725799511867
 20
2269.686194583611
 30
0.0
 11
107.9073058451206
 21
2262.007058660126
 31
0.0
  0
LINE
  5
1DF
330
2
100
AcDbEntity
  8
Scherentreppe
370
    25
100
AcDbLine
 10
123.2089603023867
 20
2274.215219859735
 30
0.0
 11
140.8742344200777
 21
2281.894355789286
 31
0.0
  0
LINE
  5
1E0
330
2
100
AcDbEntity
  8
Scherentreppe
370
    25
100
AcDbLine
 10
125.5725799511867
 20
2269.686194583611
 30
0.0
 11
141.9744825960951
 21
2279.786126657866
 31
0.0
  0
ARC
  5
1E1
330
2
100
AcDbEntity
  8
Scherentreppe
370
    25
100
AcDbCircle
 10
141.3494536665319
 20
2280.80114968743
 30
0.0
 40
1.192028906249999
100
AcDbArc
 50
301.6238508191598
 51
113.494697494037
  0
ARC
  5
1E2
330
2
100
AcDbEntity
  8
Scherentreppe
370
    25
100
AcDbCircle
 10
107.4320865986663
 20
2263.100264761982
 30
0.0
 40
1.192028906249999
100
AcDbArc
 50
121.6238508191598
 51
293.4946974926719
  0
LINE
  5
1E3
330
2
100
AcDbEntity
  8
Scherentreppe
370
    25
100
AcDbLine
 10
123.2089603023867
 20
2274.215219859735
 30
0.0
 11
106.807057669103
 21
2264.115287791546
 31
0.0
  0
LINE
  5
1E4
330
2
100
AcDbEntity
  8
Scherentreppe
370
    25
100
AcDbLine
 10
142.9167673250362
 20
2300.026494353931
 30
0.0
 11
142.5370176894392
 21
2280.768072092798
 31
0.0
  0
LINE
  5
1E5
330
2
100
AcDbEntity
  8
Scherentreppe
370
    25
100
AcDbLine
 10
137.8147729408352
 20
2299.764920082385
 30
0.0
 11
138.1945225757602
 21
2319.023342356613
 31
0.0
  0
LINE
  5
1E6
330
2
100
AcDbEntity
  8
Scherentreppe
370
    25
100
AcDbLine
 10
142.9167673250362
 20
2300.026494353931
 30
0.0
 11
140.569464761626
 21
2319.145103324078
 31
0.0
  0
ARC
  5
1E7
330
2
100
AcDbEntity
  8
Scherentreppe
370
    25
100
AcDbCircle
 10
139.386319804709
 20
2318.999841752217
 30
0.0
 40
1.192028906249999
100
AcDbArc
 50
6.999505647543855
 51
178.8703523226267
  0
ARC
  5
1E8
330
2
100
AcDbEntity
  8
Scherentreppe
370
    25
100
AcDbCircle
 10
141.3452204604908
 20
2280.791572697195
 30
0.0
 40
1.192028906249999
100
AcDbArc
 50
186.9995056475438
 51
358.8703523213758
  0
LINE
  5
1E9
330
2
100
AcDbEntity
  8
Scherentreppe
370
    25
100
AcDbLine
 10
137.8147729408352
 20
2299.764920082385
 30
0.0
 11
140.1620755035747
 21
2280.646311125333
 31
0.0
  0
CIRCLE
  5
1EA
330
2
100
AcDbEntity
  8
Scherentreppe
370
    25
100
AcDbCircle
 10
139.3900411626036
 20
2318.99326094829
 30
0.0
 40
0.5676328124999998
  0
LINE
  5
1EB
330
2
100
AcDbEntity
  8
Scherentreppe
370
    25
100
AcDbLine
 10
141.5475799511875
 20
2297.63119458361
 30
0.0
 11
123.8823058451214
 21
2289.952058660126
 31
0.0
  0
LINE
  5
1EC
330
2
100
AcDbEntity
  8
Scherentreppe
370
    25
100
AcDbLine
 10
139.1839603023875
 20
2302.160219859734
 30
0.0
 11
156.8492344200785
 21
2309.839355789286
 31
0.0
  0
LINE
  5
1ED
330
2
100
AcDbEntity
  8
Scherentreppe
370
    25
100
AcDbLine
 10
141.5475799511875
 20
2297.63119458361
 30
0.0
 11
157.949482596096
 21
2307.731126657865
 31
0.0
  0
ARC
  5
1EE
330
2
100
AcDbEntity
  8
Scherentreppe
370
    25
100
AcDbCircle
 10
157.3244536665328
 20
2308.746149687431
 30
0.0
 40
1.192028906249999
100
AcDbArc
 50
301.6238508191598
 51
113.494697494037
  0
ARC
  5
1EF
330
2
100
AcDbEntity
  8
Scherentreppe
370
    25
100
AcDbCircle
 10
123.4070865986672
 20
2291.045264761983
 30
0.0
 40
1.192028906249999
100
AcDbArc
 50
121.6238508191598
 51
293.4946974926719
  0
LINE
  5
1F0
330
2
100
AcDbEntity
  8
Scherentreppe
370
    25
100
AcDbLine
 10
139.1839603023875
 20
2302.160219859734
 30
0.0
 11
122.7820576691039
 21
2292.060287791546
 31
0.0
  0
LINE
  5
1F1
330
2
100
AcDbEntity
  8
Scherentreppe
370
    25
100
AcDbLine
 10
158.8917673250391
 20
2327.971494353931
 30
0.0
 11
158.5120176894421
 21
2308.713072092798
 31
0.0
  0
LINE
  5
1F2
330
2
100
AcDbEntity
  8
Scherentreppe
370
    25
100
AcDbLine
 10
153.7897729408381
 20
2327.709920082385
 30
0.0
 11
154.1695225757631
 21
2346.968342356614
 31
0.0
  0
LINE
  5
1F3
330
2
100
AcDbEntity
  8
Scherentreppe
370
    25
100
AcDbLine
 10
158.8917673250391
 20
2327.971494353931
 30
0.0
 11
156.5444647616288
 21
2347.090103324079
 31
0.0
  0
ARC
  5
1F4
330
2
100
AcDbEntity
  8
Scherentreppe
370
    25
100
AcDbCircle
 10
155.3613198047119
 20
2346.944841752218
 30
0.0
 40
1.192028906249999
100
AcDbArc
 50
6.999505647543855
 51
178.8703523226267
  0
ARC
  5
1F5
330
2
100
AcDbEntity
  8
Scherentreppe
370
    25
100
AcDbCircle
 10
157.3202204604937
 20
2308.736572697194
 30
0.0
 40
1.192028906249999
100
AcDbArc
 50
186.9995056475438
 51
358.8703523213758
  0
LINE
  5
1F6
330
2
100
AcDbEntity
  8
Scherentreppe
370
    25
100
AcDbLine
 10
153.7897729408381
 20
2327.709920082385
 30
0.0
 11
156.1370755035776
 21
2308.591311125333
 31
0.0
  0
LINE
  5
1F7
330
2
100
AcDbEntity
  8
Scherentreppe
370
    25
100
AcDbLine
 10
157.5225799511904
 20
2325.576194583611
 30
0.0
 11
139.8573058451243
 21
2317.897058660125
 31
0.0
  0
LINE
  5
1F8
330
2
100
AcDbEntity
  8
Scherentreppe
370
    25
100
AcDbLine
 10
155.1589603023903
 20
2330.105219859734
 30
0.0
 11
172.8242344200814
 21
2337.784355789287
 31
0.0
  0
LINE
  5
1F9
330
2
100
AcDbEntity
  8
Scherentreppe
370
    25
100
AcDbLine
 10
157.5225799511904
 20
2325.576194583611
 30
0.0
 11
173.9244825960988
 21
2335.676126657865
 31
0.0
  0
ARC
  5
1FA
330
2
100
AcDbEntity
  8
Scherentreppe
370
    25
100
AcDbCircle
 10
173.2994536665356
 20
2336.69114968743
 30
0.0
 40
1.192028906249999
100
AcDbArc
 50
301.6238508191598
 51
113.494697494037
  0
ARC
  5
1FB
330
2
100
AcDbEntity
  8
Scherentreppe
370
    25
100
AcDbCircle
 10
139.38208659867
 20
2318.990264761982
 30
0.0
 40
1.192028906249999
100
AcDbArc
 50
121.6238508191598
 51
293.4946974926719
  0
LINE
  5
1FC
330
2
100
AcDbEntity
  8
Scherentreppe
370
    25
100
AcDbLine
 10
155.1589603023903
 20
2330.105219859734
 30
0.0
 11
138.7570576691067
 21
2320.005287791546
 31
0.0
  0
CIRCLE
  5
1FD
330
2
100
AcDbEntity
  8
Scherentreppe
370
    25
100
AcDbCircle
 10
173.2950218938976
 20
2336.685024748557
 30
0.0
 40
0.5676328124999998
  0
LINE
  5
1FE
330
2
100
AcDbEntity
  8
Scherentreppe
370
    25
100
AcDbLine
 10
173.4975799511923
 20
2353.52119458361
 30
0.0
 11
155.8323058451263
 21
2345.842058660126
 31
0.0
  0
LINE
  5
1FF
330
2
100
AcDbEntity
  8
Scherentreppe
370
    25
100
AcDbLine
 10
171.1339603023923
 20
2358.050219859735
 30
0.0
 11
188.7992344200833
 21
2365.729355789286
 31
0.0
  0
LINE
  5
200
330
2
100
AcDbEntity
  8
Scherentreppe
370
    25
100
AcDbLine
 10
173.4975799511923
 20
2353.52119458361
 30
0.0
 11
189.8994825961009
 21
2363.621126657866
 31
0.0
  0
ARC
  5
201
330
2
100
AcDbEntity
  8
Scherentreppe
370
    25
100
AcDbCircle
 10
189.2744536665377
 20
2364.63614968743
 30
0.0
 40
1.192028906249999
100
AcDbArc
 50
301.6238508191598
 51
113.494697494037
  0
ARC
  5
202
330
2
100
AcDbEntity
  8
Scherentreppe
370
    25
100
AcDbCircle
 10
155.3570865986721
 20
2346.935264761983
 30
0.0
 40
1.192028906249999
100
AcDbArc
 50
121.6238508191598
 51
293.4946974926719
  0
LINE
  5
203
330
2
100
AcDbEntity
  8
Scherentreppe
370
    25
100
AcDbLine
 10
171.1339603023923
 20
2358.050219859735
 30
0.0
 11
154.7320576691088
 21
2347.950287791546
 31
0.0
  0
LINE
  5
204
330
2
100
AcDbEntity
  8
Scherentreppe
370
    25
100
AcDbLine
 10
30.79339521769235
 20
2104.379858995446
 30
0.0
 11
28.73978190051683
 21
2123.519874956689
 31
0.0
  0
LINE
  5
205
330
2
100
AcDbEntity
  8
Scherentreppe
370
    25
100
AcDbLine
 10
26.28045230620408
 20
2104.121121481814
 30
0.0
 11
26.36483775602345
 21
2123.398152198211
 31
0.0
  0
ARC
  5
206
330
2
100
AcDbEntity
  8
Scherentreppe
370
    25
100
AcDbCircle
 10
27.5566346067303
 20
2123.374632419731
 30
0.0
 40
1.192028906249999
100
AcDbArc
 50
6.998583851034804
 51
178.8694305248448
  0
ARC
  5
207
330
2
100
AcDbEntity
  8
Scherentreppe
100
AcDbCircle
 10
28.53577757992024
 20
2104.270482136923
 30
0.0
 40
2.260265624999992
100
AcDbArc
 50
175.7094527658207
 51
9.474464244647922
  0
CIRCLE
  5
208
330
2
100
AcDbEntity
  8
Scherentreppe
100
AcDbCircle
 10
28.53569111200283
 20
2104.272169220556
 30
0.0
 40
2.812499999999998
  0
LINE
  5
209
330
2
100
AcDbEntity
  8
Scherentreppe
370
    25
100
AcDbLine
 10
29.57463812905313
 20
2102.276170237008
 30
0.0
 11
46.12097755688272
 21
2112.113659255665
 31
0.0
  0
LINE
  5
20A
330
2
100
AcDbEntity
  8
Scherentreppe
370
    25
100
AcDbLine
 10
27.4600936528867
 20
2106.27145501805
 30
0.0
 11
45.02132168068963
 21
2114.22219739223
 31
0.0
  0
ARC
  5
20B
330
2
100
AcDbEntity
  8
Scherentreppe
370
    25
100
AcDbCircle
 10
45.49623379835724
 20
2113.128857832063
 30
0.0
 40
1.192028906249999
100
AcDbArc
 50
301.6077549436384
 51
113.4786016174486
  0
ARC
  5
20C
330
2
100
AcDbEntity
  8
Scherentreppe
100
AcDbCircle
 10
28.53506461407823
 20
2104.283179853956
 30
0.0
 40
2.260265624999993
100
AcDbArc
 50
110.3186238583579
 51
304.0836353372646
  0
LINE
  5
20D
330
2
100
AcDbEntity
  8
Scherentreppe
370
    25
100
AcDbLine
 10
170.0545605613302
 20
2355.676422649246
 30
0.0
 11
172.1230355279657
 21
2336.538007093995
 31
0.0
  0
LINE
  5
20E
330
2
100
AcDbEntity
  8
Scherentreppe
370
    25
100
AcDbLine
 10
174.5673012019608
 20
2355.938664395933
 30
0.0
 11
174.4978844384506
 21
2336.661573965635
 31
0.0
  0
ARC
  5
20F
330
2
100
AcDbEntity
  8
Scherentreppe
370
    25
100
AcDbCircle
 10
173.3060696838796
 20
2336.684168303893
 30
0.0
 40
1.19202890625
100
AcDbArc
 50
187.0430741665836
 51
358.9139208403606
  0
ARC
  5
210
330
2
100
AcDbEntity
  8
Scherentreppe
100
AcDbCircle
 10
172.3120925870848
 20
2355.787552520339
 30
0.0
 40
2.260265624999993
100
AcDbArc
 50
3.833414730891677
 51
182.8181823654496
  0
CIRCLE
  5
211
330
2
100
AcDbEntity
  8
Scherentreppe
100
AcDbCircle
 10
172.3157701326055
 20
2355.785707224706
 30
0.0
 40
0.6622382812499325
  0
CIRCLE
  5
212
330
2
100
AcDbEntity
  8
Scherentreppe
100
AcDbCircle
 10
156.340770132603
 20
2327.840707224706
 30
0.0
 40
0.6622382812499325
  0
CIRCLE
  5
213
330
2
100
AcDbEntity
  8
Scherentreppe
100
AcDbCircle
 10
157.3200218938948
 20
2308.740024748557
 30
0.0
 40
0.6622382812500093
  0
CIRCLE
  5
214
330
2
100
AcDbEntity
  8
Scherentreppe
100
AcDbCircle
 10
140.3657701326005
 20
2299.895707224706
 30
0.0
 40
0.6622382812498325
  0
CIRCLE
  5
215
330
2
100
AcDbEntity
  8
Scherentreppe
100
AcDbCircle
 10
141.3444576475059
 20
2280.795157804451
 30
0.0
 40
0.6622382812500093
  0
CIRCLE
  5
216
330
2
100
AcDbEntity
  8
Scherentreppe
100
AcDbCircle
 10
123.4150411626028
 20
2291.04826094829
 30
0.0
 40
0.6622382812499933
  0
CIRCLE
  5
217
330
2
100
AcDbEntity
  8
Scherentreppe
100
AcDbCircle
 10
124.3907701325994
 20
2271.950707224706
 30
0.0
 40
0.6622382812499325
  0
CIRCLE
  5
218
330
2
100
AcDbEntity
  8
Scherentreppe
100
AcDbCircle
 10
45.494640826255
 20
2113.121582797317
 30
0.0
 40
0.6622382812499997
  0
CIRCLE
  5
219
330
2
100
AcDbEntity
  8
Scherentreppe
100
AcDbCircle
 10
27.55685426575996
 20
2123.375795892169
 30
0.0
 40
0.6622382812500029
  0
CIRCLE
  5
21A
330
2
100
AcDbEntity
  8
Scherentreppe
100
AcDbCircle
 10
27.55685426575996
 20
2123.375795892169
 30
0.0
 40
0.6622382812499997
  0
CIRCLE
  5
21B
330
2
100
AcDbEntity
  8
Scherentreppe
100
AcDbCircle
 10
45.494640826255
 20
2113.121582797317
 30
0.0
 40
0.6622382812500001
  0
CIRCLE
  5
21C
330
2
100
AcDbEntity
  8
Scherentreppe
100
AcDbCircle
 10
28.53506461407823
 20
2104.283179853956
 30
0.0
 40
0.6495387693276946
  0
CIRCLE
  5
21D
330
2
100
AcDbEntity
  8
Scherentreppe
100
AcDbCircle
 10
44.51577013259326
 20
2132.225707224705
 30
0.0
 40
0.6622382812500348
  0
CIRCLE
  5
21E
330
2
100
AcDbEntity
  8
Scherentreppe
100
AcDbCircle
 10
61.47002189388785
 20
2141.070024748556
 30
0.0
 40
0.6622382812500029
  0
CIRCLE
  5
21F
330
2
100
AcDbEntity
  8
Scherentreppe
100
AcDbCircle
 10
43.54004116259669
 20
2151.32326094829
 30
0.0
 40
0.6622382812500057
  0
CIRCLE
  5
220
330
2
100
AcDbEntity
  8
Scherentreppe
100
AcDbCircle
 10
60.49077013259442
 20
2160.170707224706
 30
0.0
 40
0.6622382812499709
  0
CIRCLE
  5
221
330
2
100
AcDbEntity
  8
Scherentreppe
100
AcDbCircle
 10
77.44502189388946
 20
2169.015024748556
 30
0.0
 40
0.6622382812499965
  0
CIRCLE
  5
222
330
2
100
AcDbEntity
  8
Scherentreppe
100
AcDbCircle
 10
59.50708659866267
 20
2179.265264761982
 30
0.0
 40
0.6619157632512185
  0
CIRCLE
  5
223
330
2
100
AcDbEntity
  8
Scherentreppe
100
AcDbCircle
 10
76.46577013259523
 20
2188.115707224706
 30
0.0
 40
0.6622382812499965
  0
CIRCLE
  5
224
330
2
100
AcDbEntity
  8
Scherentreppe
100
AcDbCircle
 10
93.41945764750219
 20
2196.960157804451
 30
0.0
 40
0.6622382812499965
  0
CIRCLE
  5
225
330
2
100
AcDbEntity
  8
Scherentreppe
100
AcDbCircle
 10
75.48968510401969
 20
2207.212803454961
 30
0.0
 40
0.6622382812500093
  0
CIRCLE
  5
226
330
2
100
AcDbEntity
  8
Scherentreppe
100
AcDbCircle
 10
92.44077013259651
 20
2216.060707224706
 30
0.0
 40
0.6622382812500093
  0
CIRCLE
  5
227
330
2
100
AcDbEntity
  8
Scherentreppe
100
AcDbCircle
 10
109.3944576475035
 20
2224.90515780445
 30
0.0
 40
0.6622382812500093
  0
CIRCLE
  5
228
330
2
100
AcDbEntity
  8
Scherentreppe
100
AcDbCircle
 10
91.46504116260029
 20
2235.158260948289
 30
0.0
 40
0.6622382812500093
  0
CIRCLE
  5
229
330
2
100
AcDbEntity
  8
Scherentreppe
100
AcDbCircle
 10
108.4157701325981
 20
2244.005707224706
 30
0.0
 40
0.6622382812500779
  0
CIRCLE
  5
22A
330
2
100
AcDbEntity
  8
Scherentreppe
100
AcDbCircle
 10
125.3700218938922
 20
2252.850024748557
 30
0.0
 40
0.6622382812500093
  0
CIRCLE
  5
22B
330
2
100
AcDbEntity
  8
Scherentreppe
100
AcDbCircle
 10
107.4318542657661
 20
2263.100795892169
 30
0.0
 40
0.6622382812500093
  0
LWPOLYLINE
  5
22C
330
2
100
AcDbEntity
  8
Scherentreppe
100
AcDbPolyline
 90
        4
 70
     1
 43
0.0
 10
5.000000000000127
 20
2389.753718797486
 10
239.2687613526284
 20
2389.753718797486
 10
239.2687613526284
 20
2087.0
 10
5.000000000000127
 20
2087.0
  0
LINE
  5
22D
330
2
100
AcDbEntity
  8
Scherentreppe
  6
STRICHPUNKT
100
AcDbLine
 10
104.216098007121
 20
2358.078593702789
 30
0.0
 11
104.216098007121
 21
2355.458974797982
 31
0.0
  0
LINE
  5
22E
330
2
100
AcDbEntity
  8
Scherentreppe
  6
STRICHPUNKT
100
AcDbLine
 10
102.9062885547178
 20
2356.768784250386
 30
0.0
 11
105.5259074595242
 21
2356.768784250386
 31
0.0
  0
CIRCLE
  5
22F
330
2
100
AcDbEntity
  8
Scherentreppe
100
AcDbCircle
 10
104.216098007121
 20
2356.768784250386
 30
0.0
 40
0.421875
  0
LINE
  5
230
330
2
100
AcDbEntity
  8
Scherentreppe
  6
STRICHPUNKT
100
AcDbLine
 10
82.14373550010909
 20
2356.768784250386
 30
0.0
 11
88.96271662119778
 21
2356.768784250386
 31
0.0
  0
LINE
  5
231
330
2
100
AcDbEntity
  8
Scherentreppe
100
AcDbLine
 10
83.3412728340486
 20
2361.86359506151
 30
0.0
 11
83.3412728340486
 21
2353.313595061511
 31
0.0
  0
LINE
  5
232
330
2
100
AcDbEntity
  8
Scherentreppe
100
AcDbLine
 10
83.63827283404861
 20
2361.86359506151
 30
0.0
 11
83.63827283404861
 21
2353.313595061511
 31
0.0
  0
LINE
  5
233
330
2
100
AcDbEntity
  8
Scherentreppe
100
AcDbLine
 10
84.19739783404862
 20
2360.427224918958
 30
0.0
 11
83.0723978340486
 21
2359.302224918959
 31
0.0
  0
LINE
  5
234
330
2
100
AcDbEntity
  8
Scherentreppe
100
AcDbLine
 10
84.19739783404862
 20
2359.711279304208
 30
0.0
 11
83.0723978340486
 21
2358.586279304208
 31
0.0
  0
LINE
  5
235
330
2
100
AcDbEntity
  8
Scherentreppe
100
AcDbLine
 10
84.19739783404862
 20
2358.995333685408
 30
0.0
 11
83.0723978340486
 21
2357.870333685408
 31
0.0
  0
LINE
  5
236
330
2
100
AcDbEntity
  8
Scherentreppe
100
AcDbLine
 10
84.19739783404862
 20
2358.279388070658
 30
0.0
 11
83.0723978340486
 21
2357.154388070658
 31
0.0
  0
LINE
  5
237
330
2
100
AcDbEntity
  8
Scherentreppe
100
AcDbLine
 10
84.19739783404862
 20
2356.13155122325
 30
0.0
 11
83.0723978340486
 21
2355.00655122325
 31
0.0
  0
LINE
  5
238
330
2
100
AcDbEntity
  8
Scherentreppe
100
AcDbLine
 10
84.19739783404862
 20
2355.4156056085
 30
0.0
 11
83.0723978340486
 21
2354.2906056085
 31
0.0
  0
LINE
  5
239
330
2
100
AcDbEntity
  8
Scherentreppe
100
AcDbLine
 10
84.19739783404862
 20
2354.6996599897
 30
0.0
 11
83.0723978340486
 21
2353.5746599897
 31
0.0
  0
LINE
  5
23A
330
2
100
AcDbEntity
  8
Scherentreppe
100
AcDbLine
 10
84.19739783404862
 20
2353.98371437495
 30
0.0
 11
83.52727852060894
 21
2353.313595061511
 31
0.0
  0
LINE
  5
23B
330
2
100
AcDbEntity
  8
Scherentreppe
100
AcDbLine
 10
83.48593112919242
 20
2361.86359506151
 30
0.0
 11
83.07239783404856
 21
2361.450061766367
 31
0.0
  0
LWPOLYLINE
  5
23C
330
2
100
AcDbEntity
  8
Scherentreppe
100
AcDbPolyline
 90
        4
 70
     1
 43
0.0
 10
83.0723978340486
 20
2361.86359506151
 10
84.19739783404862
 20
2361.86359506151
 10
84.19739783404862
 20
2353.313595061511
 10
83.0723978340486
 20
2353.313595061511
  0
HATCH
  5
23D
330
2
100
AcDbEntity
  8
Scherentreppe
100
AcDbHatch
 10
0.0
 20
0.0
 30
0.0
210
0.0
220
0.0
230
1.0
  2
AR-SAND,I
 70
     0
 71
     0
 91
        2
 92
        1
 93
        5
 72
     1
 10
83.07239783404863
 20
2353.28209506151
 11
84.19739783404862
 21
2353.28209506151
 72
     1
 10
84.19739783404862
 20
2353.28209506151
 11
84.19739783404862
 21
2341.01959506151
 72
     1
 10
84.19739783404862
 20
2341.01959506151
 11
83.07239783404863
 21
2341.01959506151
 72
     1
 10
83.07239783404863
 20
2341.01959506151
 11
83.07239783404863
 21
2341.919595061511
 72
     1
 10
83.07239783404863
 20
2341.919595061511
 11
83.07239783404863
 21
2353.28209506151
 97
        0
 92
        1
 93
        4
 72
     1
 10
83.07239783404863
 20
2368.019595061511
 11
84.19739783404862
 21
2368.019595061511
 72
     1
 10
84.19739783404862
 20
2368.019595061511
 11
84.19739783404862
 21
2361.86359506151
 72
     1
 10
84.19739783404862
 20
2361.86359506151
 11
83.07239783404863
 21
2361.86359506151
 72
     1
 10
83.07239783404863
 20
2361.86359506151
 11
83.07239783404863
 21
2368.019595061511
 97
        0
 75
     2
 76
     1
 52
0.0
 41
0.225
 77
     0
 78
     4
 53
37.5
 43
68.14261395689161
 44
2316.11102109572
 45
-0.0141735055746618
 46
0.4335353480279608
 79
     6
 49
0.0
 49
-0.342
 49
0.0
 49
-0.3825
 49
0.0
 49
-0.365625
 53
7.499999999999999
 43
68.14261395689161
 44
2316.11102109572
 45
0.3981997586852386
 46
0.6349828646766916
 79
     6
 49
0.0
 49
-0.1845
 49
0.0
 49
-0.30825
 49
0.0
 49
-0.118125
 53
327.5
 43
67.8658639568916
 44
2316.11102109572
 45
0.7006819188940864
 46
0.0012732870458171
 79
     6
 49
0.0
 49
-0.1125
 49
0.0
 49
-0.4050000000000001
 49
0.0
 49
-0.5287500000000001
 53
317.5
 43
67.8658639568916
 44
2316.11102109572
 45
0.6763784860287661
 46
0.1974770021102061
 79
     6
 49
0.0
 49
-0.05625
 49
0.0
 49
-0.2655
 49
0.0
 49
-0.30375
 98
        2
 10
83.18414305547534
 20
2351.571317834283
 10
83.4549635230352
 20
2364.090016352827
1001
GradientColor1ACI
1070
     5
1001
GradientColor2ACI
1070
     2
1001
ACAD
1010
0.0
1020
0.0
1030
0.0
  0
LINE
  5
23E
330
2
100
AcDbEntity
  8
Scherentreppe
100
AcDbLine
 10
84.19739783404862
 20
2368.019595061511
 30
0.0
 11
83.07239783404863
 21
2368.019595061511
 31
0.0
  0
HATCH
  5
23F
330
2
100
AcDbEntity
  8
Scherentreppe
100
AcDbHatch
 10
0.0
 20
0.0
 30
0.0
210
0.0
220
0.0
230
1.0
  2
ANSI33
 70
     0
 71
     0
 91
        3
 92
        1
 93
        4
 72
     1
 10
71.91277687663521
 20
2368.019595061511
 11
83.07239783404863
 21
2368.019595061511
 72
     1
 10
83.07239783404863
 20
2368.019595061511
 11
83.07239783404863
 21
2341.019595061511
 72
     1
 10
83.07239783404863
 20
2341.019595061511
 11
71.91277687663521
 21
2341.019595061511
 72
     1
 10
71.91277687663521
 20
2341.019595061511
 11
71.91277687663521
 21
2368.019595061511
 97
        0
 92
       16
 93
        4
 72
     1
 10
77.28961739675153
 20
2346.947217237083
 11
77.28961739675148
 21
2364.055059316602
 72
     1
 10
77.28961739675148
 20
2364.055059316602
 11
79.19067002833044
 21
2364.055059316602
 72
     1
 10
79.19067002833044
 20
2364.055059316602
 11
79.19067002833044
 21
2346.947217237083
 72
     1
 10
79.19067002833044
 20
2346.947217237083
 11
77.28961739675153
 21
2346.947217237083
 97
        0
 92
       16
 93
        4
 72
     1
 10
75.26813713359461
 20
2346.944914605504
 11
75.26813713359461
 21
2356.919094923267
 72
     1
 10
75.26813713359461
 20
2356.919094923267
 11
77.18300555464721
 21
2356.919094923267
 72
     1
 10
77.18300555464721
 20
2356.919094923267
 11
77.18300555464721
 21
2346.944914605504
 72
     1
 10
77.18300555464721
 20
2346.944914605504
 11
75.26813713359461
 21
2346.944914605504
 97
        0
 75
     1
 76
     1
 52
90.0
 41
10.0
 77
     0
 78
     2
 53
135.0
 43
149.9851173246888
 44
2082.0
 45
-1.767766952966368
 46
-1.767766952966368
 79
     0
 53
135.0
 43
149.9851173246888
 44
2083.76776695
 45
-1.767766952966368
 46
-1.767766952966368
 79
     2
 49
1.25
 49
-0.625
 98
        1
 10
79.23020701006254
 20
2361.939947353213
1001
GradientColor1ACI
1070
     5
1001
GradientColor2ACI
1070
     2
1001
ACAD
1010
0.0
1020
0.0
1030
0.0
  0
LWPOLYLINE
  5
240
330
2
100
AcDbEntity
  8
Scherentreppe
100
AcDbPolyline
 90
        4
 70
     1
 43
0.0
 10
83.07239783404861
 20
2341.019595061511
 10
71.91277687663519
 20
2341.019595061511
 10
71.91277687663521
 20
2368.019595061511
 10
83.07239783404863
 20
2368.019595061511
  0
TEXT
  5
241
330
2
100
AcDbEntity
  8
Scherentreppe
100
AcDbText
 10
78.81468048283046
 20
2347.264059342347
 30
0.0
 40
1.26
  1
Konstruktionsdecke
 50
90.0
  7
TECHNICBOLD
100
AcDbText
  0
TEXT
  5
242
330
2
100
AcDbEntity
  8
Scherentreppe
100
AcDbText
 10
76.80655548283145
 20
2347.264059342347
 30
0.0
 40
1.26
  1
Beton oder
 50
90.0
  7
TECHNICBOLD
100
AcDbText
  0
LWPOLYLINE
  5
243
330
2
100
AcDbEntity
  8
Scherentreppe
100
AcDbPolyline
 90
        4
 70
     1
 43
0.0
 10
84.19739783404862
 20
2348.894595061511
 10
88.47239783404864
 20
2348.894595061511
 10
88.47239783404864
 20
2368.019595061511
 10
84.19739783404862
 20
2368.019595061511
  0
LWPOLYLINE
  5
244
330
2
100
AcDbEntity
  8
Scherentreppe
100
AcDbPolyline
 90
        4
 70
     1
 43
0.0
 10
196.1348978340486
 20
2348.894595061511
 10
191.8598978340486
 20
2348.894595061511
 10
191.8598978340486
 20
2368.019595061511
 10
196.1348978340486
 20
2368.019595061511
  0
LINE
  5
245
330
2
100
AcDbEntity
  8
Scherentreppe
  6
STRICHPUNKT
100
AcDbLine
 10
176.1161976609762
 20
2358.078593702789
 30
0.0
 11
176.1161976609762
 21
2355.458974797982
 31
0.0
  0
LINE
  5
246
330
2
100
AcDbEntity
  8
Scherentreppe
  6
STRICHPUNKT
100
AcDbLine
 10
177.4260071133793
 20
2356.768784250386
 30
0.0
 11
174.806388208573
 21
2356.768784250386
 31
0.0
  0
CIRCLE
  5
247
330
2
100
AcDbEntity
  8
Scherentreppe
100
AcDbCircle
 10
176.1161976609762
 20
2356.768784250386
 30
0.0
 40
0.421875
  0
LINE
  5
248
330
2
100
AcDbEntity
  8
Scherentreppe
  6
STRICHPUNKT
100
AcDbLine
 10
198.1885601679881
 20
2356.768784250386
 30
0.0
 11
191.3695790468994
 21
2356.768784250386
 31
0.0
  0
LINE
  5
249
330
2
100
AcDbEntity
  8
Scherentreppe
100
AcDbLine
 10
196.9910228340486
 20
2361.86359506151
 30
0.0
 11
196.9910228340486
 21
2353.31359506151
 31
0.0
  0
LINE
  5
24A
330
2
100
AcDbEntity
  8
Scherentreppe
100
AcDbLine
 10
196.6940228340486
 20
2361.86359506151
 30
0.0
 11
196.6940228340486
 21
2353.31359506151
 31
0.0
  0
LINE
  5
24B
330
2
100
AcDbEntity
  8
Scherentreppe
100
AcDbLine
 10
196.1348978340486
 20
2360.427224918958
 30
0.0
 11
197.2598978340485
 21
2359.302224918958
 31
0.0
  0
LINE
  5
24C
330
2
100
AcDbEntity
  8
Scherentreppe
100
AcDbLine
 10
196.1348978340486
 20
2359.711279304208
 30
0.0
 11
197.2598978340485
 21
2358.586279304208
 31
0.0
  0
LINE
  5
24D
330
2
100
AcDbEntity
  8
Scherentreppe
100
AcDbLine
 10
196.1348978340486
 20
2358.995333685408
 30
0.0
 11
197.2598978340485
 21
2357.870333685408
 31
0.0
  0
LINE
  5
24E
330
2
100
AcDbEntity
  8
Scherentreppe
100
AcDbLine
 10
196.1348978340486
 20
2358.279388070658
 30
0.0
 11
197.2598978340485
 21
2357.154388070658
 31
0.0
  0
LINE
  5
24F
330
2
100
AcDbEntity
  8
Scherentreppe
100
AcDbLine
 10
196.1348978340486
 20
2356.13155122325
 30
0.0
 11
197.2598978340485
 21
2355.00655122325
 31
0.0
  0
LINE
  5
250
330
2
100
AcDbEntity
  8
Scherentreppe
100
AcDbLine
 10
196.1348978340486
 20
2355.4156056085
 30
0.0
 11
197.2598978340485
 21
2354.2906056085
 31
0.0
  0
LINE
  5
251
330
2
100
AcDbEntity
  8
Scherentreppe
100
AcDbLine
 10
196.1348978340486
 20
2354.6996599897
 30
0.0
 11
197.2598978340485
 21
2353.5746599897
 31
0.0
  0
LINE
  5
252
330
2
100
AcDbEntity
  8
Scherentreppe
100
AcDbLine
 10
196.1348978340486
 20
2353.98371437495
 30
0.0
 11
196.8050171474882
 21
2353.31359506151
 31
0.0
  0
LINE
  5
253
330
2
100
AcDbEntity
  8
Scherentreppe
100
AcDbLine
 10
196.8463645389047
 20
2361.86359506151
 30
0.0
 11
197.2598978340486
 21
2361.450061766367
 31
0.0
  0
LWPOLYLINE
  5
254
330
2
100
AcDbEntity
  8
Scherentreppe
100
AcDbPolyline
 90
        4
 70
     1
 43
0.0
 10
197.2598978340485
 20
2361.86359506151
 10
196.1348978340486
 20
2361.86359506151
 10
196.1348978340486
 20
2353.31359506151
 10
197.2598978340485
 20
2353.31359506151
  0
HATCH
  5
255
330
2
100
AcDbEntity
  8
Scherentreppe
100
AcDbHatch
 10
0.0
 20
0.0
 30
0.0
210
0.0
220
0.0
230
1.0
  2
AR-SAND,I
 70
     0
 71
     0
 91
        2
 92
        1
 93
        6
 72
     1
 10
197.2598978340485
 20
2353.28209506151
 11
196.6973978340486
 21
2353.313595061511
 72
     1
 10
196.6973978340486
 20
2353.31359506151
 11
196.6973978340486
 21
2342.144595061511
 72
     1
 10
196.6973978340486
 20
2342.144595061511
 11
196.1348978340486
 21
2342.144595061511
 72
     1
 10
196.1348978340486
 20
2342.144595061511
 11
196.1348978340486
 21
2341.019595061511
 72
     1
 10
196.1348978340486
 20
2341.019595061511
 11
197.2598978340485
 21
2341.019595061511
 72
     1
 10
197.2598978340485
 20
2341.019595061511
 11
197.2598978340485
 21
2353.28209506151
 97
        0
 92
        1
 93
        4
 72
     1
 10
197.2598978340485
 20
2368.019595061511
 11
196.1348978340486
 21
2368.019595061511
 72
     1
 10
196.1348978340486
 20
2368.019595061511
 11
196.1348978340486
 21
2361.86359506151
 72
     1
 10
196.1348978340486
 20
2361.86359506151
 11
197.2598978340485
 21
2361.86359506151
 72
     1
 10
197.2598978340485
 20
2361.86359506151
 11
197.2598978340485
 21
2368.019595061511
 97
        0
 75
     2
 76
     1
 52
0.0
 41
0.225
 77
     0
 78
     4
 53
37.5
 43
68.14261395689161
 44
2316.11102109572
 45
-0.0141735055746618
 46
0.4335353480279608
 79
     6
 49
0.0
 49
-0.342
 49
0.0
 49
-0.3825
 49
0.0
 49
-0.365625
 53
7.499999999999999
 43
68.14261395689161
 44
2316.11102109572
 45
0.3981997586852386
 46
0.6349828646766916
 79
     6
 49
0.0
 49
-0.1845
 49
0.0
 49
-0.30825
 49
0.0
 49
-0.118125
 53
327.5
 43
67.8658639568916
 44
2316.11102109572
 45
0.7006819188940864
 46
0.0012732870458171
 79
     6
 49
0.0
 49
-0.1125
 49
0.0
 49
-0.4050000000000001
 49
0.0
 49
-0.5287500000000001
 53
317.5
 43
67.8658639568916
 44
2316.11102109572
 45
0.6763784860287661
 46
0.1974770021102061
 79
     6
 49
0.0
 49
-0.05625
 49
0.0
 49
-0.2655
 49
0.0
 49
-0.30375
 98
        2
 10
197.1481526126218
 20
2351.571317834283
 10
196.8773321450619
 20
2364.090016352827
1001
GradientColor1ACI
1070
     5
1001
GradientColor2ACI
1070
     2
1001
ACAD
1010
0.0
1020
0.0
1030
0.0
  0
LINE
  5
256
330
2
100
AcDbEntity
  8
Scherentreppe
100
AcDbLine
 10
196.1348978340486
 20
2368.019595061511
 30
0.0
 11
197.2598978340485
 21
2368.019595061511
 31
0.0
  0
LWPOLYLINE
  5
257
330
2
100
AcDbEntity
  8
Scherentreppe
100
AcDbPolyline
 90
        4
 70
     1
 43
0.0
 10
197.2598978340485
 20
2341.019595061511
 10
208.419518791462
 20
2341.019595061511
 10
208.419518791462
 20
2368.019595061511
 10
197.2598978340485
 20
2368.019595061511
  0
HATCH
  5
258
330
2
100
AcDbEntity
  8
Scherentreppe
100
AcDbHatch
 10
0.0
 20
0.0
 30
0.0
210
0.0
220
0.0
230
1.0
  2
ANSI33
 70
     0
 71
     0
 91
        3
 92
        1
 93
        4
 72
     1
 10
197.2598978340485
 20
2368.019595061511
 11
208.419518791462
 21
2368.019595061511
 72
     1
 10
208.419518791462
 20
2368.019595061511
 11
208.419518791462
 21
2341.019595061511
 72
     1
 10
208.419518791462
 20
2341.019595061511
 11
197.2598978340485
 21
2341.019595061511
 72
     1
 10
197.2598978340485
 20
2341.019595061511
 11
197.2598978340485
 21
2368.019595061511
 97
        0
 92
       16
 93
        4
 72
     1
 10
202.6367383541649
 20
2346.947217237083
 11
202.6367383541649
 21
2364.055059316602
 72
     1
 10
202.6367383541649
 20
2364.055059316602
 11
204.5377909857438
 21
2364.055059316602
 72
     1
 10
204.5377909857438
 20
2364.055059316602
 11
204.5377909857438
 21
2346.947217237083
 72
     1
 10
204.5377909857438
 20
2346.947217237083
 11
202.6367383541649
 21
2346.947217237083
 97
        0
 92
       16
 93
        4
 72
     1
 10
200.615258091008
 20
2346.944914605504
 11
200.615258091008
 21
2356.919094923267
 72
     1
 10
200.615258091008
 20
2356.919094923267
 11
202.5301265120606
 21
2356.919094923267
 72
     1
 10
202.5301265120606
 20
2356.919094923267
 11
202.5301265120606
 21
2346.944914605504
 72
     1
 10
202.5301265120606
 20
2346.944914605504
 11
200.615258091008
 21
2346.944914605504
 97
        0
 75
     1
 76
     1
 52
90.0
 41
10.0
 77
     0
 78
     2
 53
135.0
 43
149.9851173246888
 44
2082.0
 45
-1.767766952966368
 46
-1.767766952966368
 79
     0
 53
135.0
 43
149.9851173246888
 44
2083.76776695
 45
-1.767766952966368
 46
-1.767766952966368
 79
     2
 49
1.25
 49
-0.625
 98
        1
 10
204.5773279674759
 20
2361.939947353213
1001
GradientColor1ACI
1070
     5
1001
GradientColor2ACI
1070
     2
1001
ACAD
1010
0.0
1020
0.0
1030
0.0
  0
TEXT
  5
259
330
2
100
AcDbEntity
  8
Scherentreppe
100
AcDbText
 10
204.1618014402438
 20
2347.264059342347
 30
0.0
 40
1.26
  1
Konstruktionsdecke
 50
90.0
  7
TECHNICBOLD
100
AcDbText
  0
TEXT
  5
25A
330
2
100
AcDbEntity
  8
Scherentreppe
100
AcDbText
 10
202.1536764402448
 20
2347.264059342347
 30
0.0
 40
1.26
  1
Beton oder
 50
90.0
  7
TECHNICBOLD
100
AcDbText
  0
LINE
  5
25B
330
2
100
AcDbEntity
  8
Scherentreppe
100
AcDbLine
 10
88.47239783404864
 20
2368.019595061511
 30
0.0
 11
191.8598978340486
 21
2368.019595061511
 31
0.0
  0
LWPOLYLINE
  5
25C
330
2
100
AcDbEntity
  8
Scherentreppe
100
AcDbPolyline
 90
        4
 70
     1
 43
0.0
 10
79.24739783404863
 20
2340.119595061511
 10
85.77239783404863
 20
2340.119595061511
 10
85.77239783404863
 20
2341.019595061511
 10
79.24739783404863
 20
2341.019595061511
  0
LWPOLYLINE
  5
25D
330
2
100
AcDbEntity
  8
Scherentreppe
100
AcDbPolyline
 90
        4
 70
     1
 43
0.0
 10
194.3348978340486
 20
2340.119595061511
 10
201.0848978340486
 20
2340.119595061511
 10
201.0848978340486
 20
2341.019595061511
 10
194.3348978340486
 20
2341.019595061511
  0
LINE
  5
25E
330
2
100
AcDbEntity
  8
Scherentreppe
100
AcDbLine
 10
83.93527283404859
 20
2361.86359506151
 30
0.0
 11
83.93527283404859
 21
2353.313595061511
 31
0.0
  0
LINE
  5
25F
330
2
100
AcDbEntity
  8
Scherentreppe
100
AcDbLine
 10
196.4003978340486
 20
2361.86359506151
 30
0.0
 11
196.4003978340486
 21
2353.31359506151
 31
0.0
  0
LWPOLYLINE
  5
260
330
2
100
AcDbEntity
  8
Scherentreppe
100
AcDbPolyline
 90
       14
 70
     0
 43
0.0
 10
85.77239783404861
 20
2342.686532999855
 10
85.77239783404863
 20
2344.732095061511
 10
86.78489783404863
 20
2344.732095061511
 10
86.78489783404863
 20
2346.532095061511
 10
87.58364783404887
 20
2346.532095061511
 10
87.58364783404887
 20
2347.094595061511
 10
87.92114783404889
 20
2347.094595061511
 10
87.92114783404889
 20
2346.532095061511
 10
88.47239783404864
 20
2346.532095061511
 10
88.47239783404864
 20
2348.894595061511
 10
84.19739783404862
 20
2348.894595061511
 10
84.19739783404862
 20
2341.019595061511
 10
85.77239783404863
 20
2341.019595061511
 10
85.77239783404863
 20
2342.032095061512
  0
LWPOLYLINE
  5
261
330
2
100
AcDbEntity
  8
Scherentreppe
100
AcDbPolyline
 90
       13
 70
     0
 43
0.0
 10
194.3348978340486
 20
2341.019595061511
 10
194.3348978340486
 20
2344.732095061511
 10
193.5473978340486
 20
2344.732095061511
 10
193.5473978340486
 20
2346.532095061511
 10
192.7486478340483
 20
2346.532095061511
 10
192.7486478340483
 20
2347.094595061511
 10
192.4111478340483
 20
2347.094595061511
 10
192.4111478340483
 20
2346.532095061511
 10
191.8598978340486
 20
2346.532095061511
 10
191.8598978340486
 20
2348.894595061511
 10
196.1348978340486
 20
2348.894595061511
 10
196.1348978340486
 20
2341.019595061511
 10
194.3348978340486
 20
2341.019595061511
  0
ELLIPSE
  5
262
330
2
100
AcDbEntity
  8
Scherentreppe
100
AcDbEllipse
 10
87.7523978340489
 20
2346.363345061512
 30
0.0
 11
0.675
 21
0.0000000000000003
 31
0.0
210
0.0
220
0.0
230
1.0
 40
0.25
 41
0.0
 42
6.283185307179586
  0
LWPOLYLINE
  5
263
330
2
100
AcDbEntity
  8
Scherentreppe
100
AcDbPolyline
 90
        4
 70
     1
 43
0.0
 10
86.78489783404863
 20
2344.732095061511
 10
86.98739783404858
 20
2344.732095061511
 10
86.98739783404858
 20
2346.532095061511
 10
86.78489783404863
 20
2346.532095061511
  0
LWPOLYLINE
  5
264
330
2
100
AcDbEntity
  8
Scherentreppe
100
AcDbPolyline
 90
        4
 70
     1
 43
0.0
 10
85.99739783404862
 20
2342.932095061511
 10
86.19989783404859
 20
2343.111813682625
 10
86.19989783404859
 20
2344.732095061511
 10
85.99739783404862
 20
2344.732095061511
  0
LWPOLYLINE
  5
265
330
2
100
AcDbEntity
  8
Scherentreppe
100
AcDbPolyline
 90
        4
 70
     0
 43
0.0
 10
85.77239783404863
 20
2342.032095061512
 10
85.77239783404863
 20
2340.119595061511
 10
85.99739783404862
 20
2340.119595061511
 10
85.99739783404862
 20
2342.032095061512
  0
LWPOLYLINE
  5
266
330
2
100
AcDbEntity
  8
Scherentreppe
100
AcDbPolyline
 90
        4
 70
     0
 43
0.0
 10
85.99739783404862
 20
2342.939805380303
 10
85.99739783404862
 20
2344.732095061511
 10
85.77239783404863
 20
2344.732095061511
 10
85.77239783404861
 20
2342.686532999855
  0
ELLIPSE
  5
267
330
2
100
AcDbEntity
  8
Scherentreppe
100
AcDbEllipse
 10
192.5798978340484
 20
2346.363345061512
 30
0.0
 11
0.675
 21
0.0000000000000003
 31
0.0
210
0.0
220
0.0
230
1.0
 40
0.25
 41
0.0
 42
6.283185307179586
  0
LWPOLYLINE
  5
268
330
2
100
AcDbEntity
  8
Scherentreppe
100
AcDbPolyline
 90
        4
 70
     1
 43
0.0
 10
193.3448978340486
 20
2344.732095061511
 10
193.5473978340486
 20
2344.732095061511
 10
193.5473978340486
 20
2346.532095061511
 10
193.3448978340486
 20
2346.532095061511
  0
LWPOLYLINE
  5
269
330
2
100
AcDbEntity
  8
Scherentreppe
100
AcDbPolyline
 90
        4
 70
     1
 43
0.0
 10
193.9636478340486
 20
2342.369595061511
 10
194.1661478340486
 20
2342.369595061511
 10
194.1661478340486
 20
2344.169595061512
 10
193.9636478340486
 20
2344.169595061512
  0
LWPOLYLINE
  5
26A
330
2
100
AcDbEntity
  8
Scherentreppe
100
AcDbPolyline
 90
        8
 70
     0
 43
0.0
 10
194.1661478340486
 20
2344.169595061512
 10
194.3348978340486
 20
2344.169595061512
 10
194.3348978340486
 20
2340.794595061511
 42
-3.732050807568986
 10
194.1380228340486
 20
2341.135592564251
 10
194.1661478340486
 20
2341.117726710379
 10
194.0697192626202
 20
2340.979241718007
 42
4.075101114960545
 10
194.1661478340486
 20
2340.794595061511
 10
194.1661478340486
 20
2344.169595061512
  0
LINE
  5
26B
330
2
100
AcDbEntity
  8
Scherentreppe
100
AcDbLine
 10
190.9058120962761
 20
2342.28723934566
 30
0.0
 11
190.8214370962761
 21
2342.141097558771
 31
0.0
  0
LINE
  5
26C
330
2
100
AcDbEntity
  8
Scherentreppe
100
AcDbLine
 10
190.8214370962761
 20
2342.141097558771
 30
0.0
 11
193.7442728340485
 21
2340.453597558771
 31
0.0
  0
ARC
  5
26D
330
2
100
AcDbEntity
  8
Scherentreppe
100
AcDbCircle
 10
193.9411478340486
 20
2340.794595061511
 30
0.0
 40
0.3937500000000895
100
AcDbArc
 50
180.0
 51
120.0000000000031
  0
LINE
  5
26E
330
2
100
AcDbEntity
  8
Scherentreppe
100
AcDbLine
 10
193.7442728340485
 20
2341.135592564251
 30
0.0
 11
193.7161478340491
 21
2341.117726710378
 31
0.0
  0
LWPOLYLINE
  5
26F
330
2
100
AcDbEntity
  8
Scherentreppe
100
AcDbPolyline
 90
        2
 70
     0
 43
0.0
 10
193.5488076173623
 20
2340.761305170093
 10
190.9058120962761
 20
2342.28723934566
  0
LINE
  5
270
330
2
100
AcDbEntity
  8
Scherentreppe
100
AcDbLine
 10
88.47239783404864
 20
2346.532095061511
 30
0.0
 11
191.8598978340486
 21
2346.532095061511
 31
0.0
  0
LINE
  5
271
330
2
100
AcDbEntity
  8
Scherentreppe
100
AcDbLine
 10
194.3348978340486
 20
2340.119595061511
 30
0.0
 11
85.99739783404862
 21
2340.119595061511
 31
0.0
  0
LWPOLYLINE
  5
272
330
2
100
AcDbEntity
  8
Scherentreppe
100
AcDbPolyline
 90
        4
 70
     1
 43
0.0
 10
188.7864856536125
 20
2342.666458269142
 10
135.9677356536125
 20
2251.181699676863
 10
136.3574470853156
 20
2250.956699676864
 10
189.1761970853155
 20
2342.441458269142
  0
LWPOLYLINE
  5
273
330
2
100
AcDbEntity
  8
Scherentreppe
100
AcDbPolyline
 90
        6
 70
     1
 43
0.0
 10
140.8434995268829
 20
2254.991770431077
 10
142.9284556864941
 20
2253.788020431077
 10
191.865955686494
 20
2338.550256826479
 10
188.1636970853156
 20
2340.687756826479
 10
137.3699470853156
 20
2252.710401119527
 10
138.9872495268829
 20
2251.776651119527
  0
LWPOLYLINE
  5
274
330
2
100
AcDbEntity
  8
Scherentreppe
100
AcDbPolyline
 90
        6
 70
     0
 43
0.0
 10
142.2995470775878
 20
2251.798718767134
 10
193.549417118197
 20
2340.566097558771
 10
193.159705686494
 20
2340.791097558771
 10
139.6659556864941
 20
2248.137204671383
 10
140.055667118197
 20
2247.912204671383
 10
141.3996975366617
 20
2250.240133643082
  0
LWPOLYLINE
  5
275
330
2
100
AcDbEntity
  8
Scherentreppe
100
AcDbPolyline
 90
        9
 70
     0
 43
0.0
 10
137.3699470853156
 20
2252.710401119527
 10
136.3574470853156
 20
2250.956699676864
 10
137.4291535224988
 20
2250.337949676864
 10
137.0354035224988
 20
2249.655954671383
 10
137.2302592383502
 20
2249.543454671383
 10
137.3427592383502
 20
2249.738310387235
 10
137.6934995268829
 20
2249.535810387235
 10
138.9872495268829
 20
2251.776651119527
 10
137.3699470853156
 20
2252.710401119527
  0
LWPOLYLINE
  5
276
330
2
100
AcDbEntity
  8
Scherentreppe
100
AcDbPolyline
 90
        4
 70
     0
 43
0.0
 10
138.0548488405738
 20
2249.067377642569
 10
137.2302592383502
 20
2249.543454671383
 10
137.3427592383502
 20
2249.738310387235
 10
138.0871285892476
 20
2249.308548542118
  0
LWPOLYLINE
  5
277
330
2
100
AcDbEntity
  8
Scherentreppe
100
AcDbPolyline
 90
        4
 70
     0
 43
0.0
 10
139.2913163968652
 20
2248.613310387235
 10
139.7784556864939
 20
2248.332060387235
 10
139.6659556864938
 20
2248.137204671384
 10
139.1788163968651
 20
2248.418454671384
  0
LINE
  5
278
330
2
100
AcDbEntity
  8
Scherentreppe
100
AcDbLine
 10
141.7398971045257
 20
2251.729376579337
 30
0.0
 11
144.2803025341051
 21
2252.044139875787
 31
0.0
  0
LINE
  5
279
330
2
100
AcDbEntity
  8
Scherentreppe
100
AcDbLine
 10
140.8472056864937
 20
2250.183189687824
 30
0.0
 11
146.7851718969829
 21
2250.795201036245
 31
0.0
  0
ARC
  5
27A
330
2
100
AcDbEntity
  8
Scherentreppe
100
AcDbCircle
 10
146.6331940705667
 20
2252.532315541042
 30
0.0
 40
1.74375
100
AcDbArc
 50
275.0000000000217
 51
175.6310844215339
  0
ARC
  5
27B
330
2
100
AcDbEntity
  8
Scherentreppe
100
AcDbCircle
 10
144.2214724077503
 20
2252.716571296998
 30
0.0
 40
0.675
100
AcDbArc
 50
275.0000000000217
 51
355.631084421534
  0
ARC
  5
27C
330
2
100
AcDbEntity
  8
Scherentreppe
100
AcDbCircle
 10
140.2048405742319
 20
2248.902355658548
 30
0.0
 40
2.156315540455191
100
AcDbArc
 50
169.1421164656832
 51
222.5502558397784
  0
LINE
  5
27D
330
2
100
AcDbEntity
  8
Scherentreppe
100
AcDbLine
 10
138.6163163968651
 20
2247.444176092126
 30
0.0
 11
139.2913163968652
 21
2248.613310387235
 31
0.0
  0
LWPOLYLINE
  5
27E
330
2
100
AcDbEntity
  8
Scherentreppe
100
AcDbPolyline
 90
        7
 70
     0
 43
0.0
 10
188.1636970853156
 20
2340.687756826479
 10
189.1761970853155
 20
2342.441458269142
 10
190.2479035224987
 20
2341.822708269142
 10
190.5291535224988
 20
2342.309847558771
 10
193.159705686494
 20
2340.791097558771
 10
191.865955686494
 20
2338.550256826479
 10
188.1636970853156
 20
2340.687756826479
  0
LWPOLYLINE
  5
27F
330
2
100
AcDbEntity
  8
Scherentreppe
100
AcDbPolyline
 90
        4
 70
     1
 43
0.0
 10
196.1348978340486
 20
2342.144595061511
 10
196.6973978340486
 20
2342.144595061511
 10
196.6973978340486
 20
2358.457095061512
 10
196.1348978340486
 20
2358.457095061512
  0
LWPOLYLINE
  5
280
330
2
100
AcDbEntity
  8
Zeichnung
100
AcDbPolyline
 90
        4
 70
     1
 43
0.0
 10
247.2999999999998
 20
2523.893391009476
 10
317.2999999999998
 20
2523.893391009476
 10
317.2999999999998
 20
2538.893391009476
 10
247.2999999999998
 20
2538.893391009476
  0
LINE
  5
282
330
2
100
AcDbEntity
  8
Zeichnung
100
AcDbLine
 10
239.2999999999998
 20
2526.893391009476
 30
0.0
 11
247.2999999999998
 21
2526.893391009476
 31
0.0
  0
LINE
  5
283
330
2
100
AcDbEntity
  8
Zeichnung
100
AcDbLine
 10
1154.299999999999
 20
2526.893391009476
 30
0.0
 11
1158.299999999999
 21
2526.893391009476
 31
0.0
  0
LWPOLYLINE
  5
284
330
2
100
AcDbEntity
  8
Zeichnung
100
AcDbPolyline
 90
        4
 70
     1
 43
0.0
 10
1134.299999999998
 20
2523.893391009476
 10
1154.299999999999
 20
2523.893391009476
 10
1154.299999999999
 20
2563.893391009476
 10
1134.299999999998
 20
2563.893391009476
  0
LWPOLYLINE
  5
285
330
2
100
AcDbEntity
  8
Zeichnung
100
AcDbPolyline
 90
        4
 70
     1
 43
0.0
 10
247.2999999999998
 20
2538.893391009476
 10
267.2999999999998
 20
2538.893391009476
 10
267.2999999999998
 20
2563.893391009476
 10
247.2999999999998
 20
2563.893391009476
  0
LWPOLYLINE
  5
286
330
2
100
AcDbEntity
  8
Zeichnung
100
AcDbPolyline
 90
        4
 70
     1
 43
0.0
 10
247.2999999999998
 20
2563.893391009476
 10
1154.299999999999
 20
2563.893391009476
 10
1154.299999999999
 20
2571.893391009476
 10
247.2999999999998
 20
2571.893391009476
  0
HATCH
  5
287
330
2
100
AcDbEntity
  8
Kasten
 62
     9
100
AcDbHatch
 10
0.0
 20
0.0
 30
0.0
210
0.0
220
0.0
230
1.0
  2
AR-SAND
 70
     0
 71
     1
 91
        1
 92
        7
 72
     0
 73
     1
 93
        6
 10
267.2999999999998
 20
2563.893391009476
 10
267.2999999999998
 20
2538.893391009476
 10
317.2999999999999
 20
2538.893391009476
 10
317.2999999999999
 20
2523.893391009476
 10
1134.299999999998
 20
2523.893391009476
 10
1134.299999999998
 20
2563.893391009476
 97
        1
330
288
 75
     1
 76
     1
 52
0.0
 41
3.0
 77
     0
 78
     4
 53
37.5
 43
38.87991228538215
 44
683.196346216836
 45
-0.1889800743288245
 46
5.780471307039475
 79
     6
 49
0.0
 49
-4.56
 49
0.0
 49
-5.099999999999999
 49
0.0
 49
-4.875
 53
7.499999999999999
 43
38.87991228538215
 44
683.196346216836
 45
5.309330115803181
 46
8.466438195689221
 79
     6
 49
0.0
 49
-2.459999999999999
 49
0.0
 49
-4.11
 49
0.0
 49
-1.575
 53
327.5
 43
35.18991228538215
 44
683.196346216836
 45
9.342425585254485
 46
0.0169771606108948
 79
     6
 49
0.0
 49
-1.5
 49
0.0
 49
-5.4
 49
0.0
 49
-7.05
 53
317.5
 43
35.18991228538215
 44
683.196346216836
 45
9.01837981371688
 46
2.633026694802747
 79
     6
 49
0.0
 49
-0.75
 49
0.0
 49
-3.54
 49
0.0
 49
-4.05
 47
0.6524924211441164
 98
        1
 10
672.534888412975
 20
2548.979550944808
1001
GradientColor1ACI
1070
     5
1001
GradientColor2ACI
1070
     2
1001
ACAD
1010
0.0
1020
0.0
1030
0.0
  0
LWPOLYLINE
  5
288
102
{ACAD_REACTORS
330
287
102
}
330
2
100
AcDbEntity
  8
Kasten
100
AcDbPolyline
 90
        6
 70
     1
 43
0.0
 10
267.2999999999998
 20
2563.893391009476
 10
1134.299999999998
 20
2563.893391009476
 10
1134.299999999998
 20
2523.893391009476
 10
317.2999999999998
 20
2523.893391009476
 10
317.2999999999998
 20
2538.893391009476
 10
267.2999999999998
 20
2538.893391009476
  0
TEXT
  5
289
102
{ACAD_XDICTIONARY
360
28A
102
}
330
2
100
AcDbEntity
  8
Plankopf
 62
     0
100
AcDbText
 10
1070.189378942763
 20
2104.510638620435
 30
0.0
 40
8.001503999999998
  1
Schnitt Längs
  7
TECHNICBOLD
100
AcDbText
1001
AcadAnnotative
1000
AnnotativeData
1002
{
1070
     1
1070
     0
1002
}
  0
TEXT
  5
28D
102
{ACAD_XDICTIONARY
360
28E
102
}
330
2
100
AcDbEntity
  8
Plankopf
 62
     0
100
AcDbText
 10
1040.992366197802
 20
2090.452385438283
 30
0.0
 40
7.7
  1
Deckenanschluss 8, 40mm Isolierung U=0.5
  7
TECHNICBOLD
100
AcDbText
1001
AcadAnnotative
1000
AnnotativeData
1002
{
1070
     1
1070
     0
1002
}
  0
TEXT
  5
291
102
{ACAD_XDICTIONARY
360
292
102
}
330
2
100
AcDbEntity
  8
Plankopf
 62
     0
100
AcDbText
 10
1153.264022064318
 20
2104.510638620435
 30
0.0
 40
8.001503999999998
  1
EI30
  7
TECHNICBOLD
100
AcDbText
1001
AcadAnnotative
1000
AnnotativeData
1002
{
1070
     1
1070
     0
1002
}
  0
TEXT
  5
295
102
{ACAD_XDICTIONARY
360
296
102
}
330
2
100
AcDbEntity
  8
Plankopf
 62
     0
100
AcDbText
 10
1178.378706083116
 20
2104.510638620435
 30
0.0
 40
6.0
  1
feuerhemmend
  7
TECHNICBOLD
100
AcDbText
1001
AcadAnnotative
1000
AnnotativeData
1002
{
1070
     1
1070
     0
1002
}
  0
LWPOLYLINE
  5
299
330
2
100
AcDbEntity
  8
Scherentreppe
100
AcDbPolyline
 90
        4
 70
     1
 43
0.0
 10
136.9802356536137
 20
2252.935401119526
 10
140.9177356536137
 20
2259.755351174328
 10
139.4563177847275
 20
2260.599101174328
 10
135.5188177847274
 20
2253.779151119527
  0
LWPOLYLINE
  5
29A
330
2
100
AcDbEntity
  8
Scherentreppe
100
AcDbPolyline
 90
        4
 70
     1
 43
0.0
 10
186.8739856536137
 20
2339.353911099666
 10
187.9989856536137
 20
2341.302468258181
 10
184.1018713365837
 20
2343.552468258181
 10
182.9768713365837
 20
2341.603911099666
  0
LWPOLYLINE
  5
29B
330
2
100
AcDbEntity
  8
Scherentreppe
100
AcDbPolyline
 90
        4
 70
     1
 43
0.0
 10
135.5188177847274
 20
2253.779151119527
 10
136.6438177847274
 20
2255.727708278041
 10
134.2081213365838
 20
2257.133958278041
 10
133.0831213365838
 20
2255.185401119526
  0
LWPOLYLINE
  5
29C
330
2
100
AcDbEntity
  8
Scherentreppe
100
AcDbPolyline
 90
        4
 70
     1
 43
0.0
 10
133.0831213365838
 20
2255.185401119526
 10
184.1018713365837
 20
2343.552468258181
 10
183.3224484731777
 20
2344.002468258181
 10
132.3036984731777
 20
2255.635401119526
  0
LINE
  5
29D
330
2
100
AcDbEntity
  8
Scherentreppe
100
AcDbLine
 10
1158.299999999999
 20
2717.893391009476
 30
0.0
 11
1128.895610027141
 21
2696.836756655335
 31
0.0
  0
LINE
  5
29E
330
2
100
AcDbEntity
  8
Scherentreppe
100
AcDbLine
 10
1158.299999999999
 20
2717.893391009476
 30
0.0
 11
1158.299999999999
 21
2657.893391009476
 31
0.0
  0
LINE
  5
29F
330
2
100
AcDbEntity
  8
Scherentreppe
100
AcDbLine
 10
1155.299999999999
 20
2715.745075634774
 30
0.0
 11
1155.299999999999
 21
2660.041706384178
 31
0.0
  0
LINE
  5
2A0
330
2
100
AcDbEntity
  8
Scherentreppe
100
AcDbLine
 10
1158.299999999999
 20
2657.893391009476
 30
0.0
 11
1128.895610027141
 21
2678.950025363617
 31
0.0
  0
CIRCLE
  5
2A1
330
2
100
AcDbEntity
  8
Scherentreppe
100
AcDbCircle
 10
1135.299999999999
 20
2687.893391009473
 30
0.0
 40
4.999999999999998
  0
ARC
  5
2A2
330
2
100
AcDbEntity
  8
Scherentreppe
100
AcDbCircle
 10
1135.299999999987
 20
2687.89339100947
 30
0.0
 40
11.0
100
AcDbArc
 50
204.9277344229012
 51
288.1430104365337
  0
ARC
  5
2A3
330
2
100
AcDbEntity
  8
Scherentreppe
100
AcDbCircle
 10
1135.299999999999
 20
2687.893391009473
 30
0.0
 40
11.0
100
AcDbArc
 50
288.1430104365337
 51
11.35828645024547
  0
ARC
  5
2A4
330
2
100
AcDbEntity
  8
Scherentreppe
100
AcDbCircle
 10
-417.5636110902762
 20
2375.957500030871
 30
0.0
 40
1594.884274411786
100
AcDbArc
 50
11.35828645024547
 51
17.52800838003834
  0
CIRCLE
  5
2A5
330
2
100
AcDbEntity
  8
Scherentreppe
100
AcDbCircle
 10
1135.299999999992
 20
2687.893391009472
 30
0.0
 40
10.14999999999782
  0
CIRCLE
  5
2A6
330
2
100
AcDbEntity
  8
Scherentreppe
100
AcDbCircle
 10
996.0732936665804
 20
2662.913416624191
 30
0.0
 40
4.999999999999998
  0
CIRCLE
  5
2A7
330
2
100
AcDbEntity
  8
Scherentreppe
100
AcDbCircle
 10
943.1370158993191
 20
2824.461398648564
 30
0.0
 40
4.999999999999998
  0
CIRCLE
  5
2A8
330
2
100
AcDbEntity
  8
Scherentreppe
100
AcDbCircle
 10
890.2007381320569
 20
2986.009380672938
 30
0.0
 40
4.999999999999998
  0
ARC
  5
2A9
330
2
100
AcDbEntity
  8
Scherentreppe
100
AcDbCircle
 10
996.0732936665749
 20
2662.913416624189
 30
0.0
 40
11.0
100
AcDbArc
 50
204.9277344229012
 51
288.1430104365337
  0
ARC
  5
2AA
330
2
100
AcDbEntity
  8
Scherentreppe
100
AcDbCircle
 10
2432.403071744147
 20
3330.480764040594
 30
0.0
 40
1594.884274411786
100
AcDbArc
 50
198.7580124930888
 51
204.9277344229012
  0
ARC
  5
2AB
330
2
100
AcDbEntity
  8
Scherentreppe
100
AcDbCircle
 10
890.2007381320508
 20
2986.009380672936
 30
0.0
 40
11.0
100
AcDbArc
 50
108.1430104365337
 51
191.3582864502455
  0
ARC
  5
2AC
330
2
100
AcDbEntity
  8
Scherentreppe
100
AcDbCircle
 10
890.2007381320508
 20
2986.009380672936
 30
0.0
 40
10.15
100
AcDbArc
 50
108.1430104365337
 51
191.3582864502455
  0
ARC
  5
2AD
330
2
100
AcDbEntity
  8
Scherentreppe
100
AcDbCircle
 10
2443.064349222328
 20
3297.945271651529
 30
0.0
 40
1594.884274411786
100
AcDbArc
 50
191.3582864502455
 51
197.5280083800383
  0
ARC
  5
2AE
330
2
100
AcDbEntity
  8
Scherentreppe
100
AcDbCircle
 10
996.0732936665868
 20
2662.913416624193
 30
0.0
 40
11.0
100
AcDbArc
 50
288.1430104365337
 51
11.35828645024547
  0
ARC
  5
2AF
330
2
100
AcDbEntity
  8
Scherentreppe
100
AcDbCircle
 10
-556.7903174236891
 20
2350.97752564559
 30
0.0
 40
1594.884274411786
100
AcDbArc
 50
11.35828645024547
 51
17.52800838003834
  0
ARC
  5
2B0
330
2
100
AcDbEntity
  8
Scherentreppe
100
AcDbCircle
 10
890.2007381320641
 20
2986.00938067294
 30
0.0
 40
11.0
100
AcDbArc
 50
24.92773442283835
 51
108.1430104365337
  0
ARC
  5
2B1
330
2
100
AcDbEntity
  8
Scherentreppe
100
AcDbCircle
 10
890.2007381320641
 20
2986.00938067294
 30
0.0
 40
10.15
100
AcDbArc
 50
24.92773442283835
 51
108.1430104365337
  0
ARC
  5
2B2
330
2
100
AcDbEntity
  8
Scherentreppe
100
AcDbCircle
 10
-546.1290399455076
 20
2318.442033256525
 30
0.0
 40
1594.884274411786
100
AcDbArc
 50
18.75801249308962
 51
24.92773442283835
  0
CIRCLE
  5
2B3
330
2
100
AcDbEntity
  8
Scherentreppe
100
AcDbCircle
 10
996.0732936665804
 20
2662.913416624191
 30
0.0
 40
10.14999999999782
  0
CIRCLE
  5
2B4
330
2
100
AcDbEntity
  8
Scherentreppe
100
AcDbCircle
 10
890.2007381320569
 20
2986.009380672938
 30
0.0
 40
10.14999999999782
  0
CIRCLE
  5
2B5
330
2
100
AcDbEntity
  8
Scherentreppe
100
AcDbCircle
 10
903.2554894443032
 20
2646.260100367336
 30
0.0
 40
4.999999999999998
  0
CIRCLE
  5
2B6
330
2
100
AcDbEntity
  8
Scherentreppe
100
AcDbCircle
 10
850.3192116770415
 20
2807.808082391709
 30
0.0
 40
4.999999999999998
  0
CIRCLE
  5
2B7
330
2
100
AcDbEntity
  8
Scherentreppe
100
AcDbCircle
 10
797.3829339097792
 20
2969.356064416083
 30
0.0
 40
4.999999999999998
  0
ARC
  5
2B8
330
2
100
AcDbEntity
  8
Scherentreppe
100
AcDbCircle
 10
903.2554894442968
 20
2646.260100367335
 30
0.0
 40
11.0
100
AcDbArc
 50
204.9277344229012
 51
288.1430104365337
  0
ARC
  5
2B9
330
2
100
AcDbEntity
  8
Scherentreppe
100
AcDbCircle
 10
2339.58526752187
 20
3313.827447783739
 30
0.0
 40
1594.884274411786
100
AcDbArc
 50
198.7580124930888
 51
204.9277344229012
  0
ARC
  5
2BA
330
2
100
AcDbEntity
  8
Scherentreppe
100
AcDbCircle
 10
797.3829339097733
 20
2969.356064416081
 30
0.0
 40
11.0
100
AcDbArc
 50
108.1430104365337
 51
191.3582864502455
  0
ARC
  5
2BB
330
2
100
AcDbEntity
  8
Scherentreppe
100
AcDbCircle
 10
2350.24654500005
 20
3281.291955394673
 30
0.0
 40
1594.884274411786
100
AcDbArc
 50
191.3582864502455
 51
197.5280083800383
  0
ARC
  5
2BC
330
2
100
AcDbEntity
  8
Scherentreppe
100
AcDbCircle
 10
903.2554894443096
 20
2646.260100367338
 30
0.0
 40
11.0
100
AcDbArc
 50
288.1430104365337
 51
11.35828645024547
  0
ARC
  5
2BD
330
2
100
AcDbEntity
  8
Scherentreppe
100
AcDbCircle
 10
-649.6081216459665
 20
2334.324209388735
 30
0.0
 40
1594.884274411786
100
AcDbArc
 50
11.35828645024547
 51
17.52800838003834
  0
ARC
  5
2BE
330
2
100
AcDbEntity
  8
Scherentreppe
100
AcDbCircle
 10
797.3829339097865
 20
2969.356064416086
 30
0.0
 40
11.0
100
AcDbArc
 50
24.92773442283835
 51
108.1430104365337
  0
ARC
  5
2BF
330
2
100
AcDbEntity
  8
Scherentreppe
100
AcDbCircle
 10
-638.9468441677849
 20
2301.78871699967
 30
0.0
 40
1594.884274411786
100
AcDbArc
 50
18.75801249308962
 51
24.92773442283835
  0
CIRCLE
  5
2C0
330
2
100
AcDbEntity
  8
Scherentreppe
100
AcDbCircle
 10
903.2554894443032
 20
2646.260100367336
 30
0.0
 40
10.14999999999782
  0
CIRCLE
  5
2C1
330
2
100
AcDbEntity
  8
Scherentreppe
100
AcDbCircle
 10
797.3829339097792
 20
2969.356064416083
 30
0.0
 40
10.14999999999782
  0
CIRCLE
  5
2C2
330
2
100
AcDbEntity
  8
Scherentreppe
100
AcDbCircle
 10
717.6198809997559
 20
2612.953467853628
 30
0.0
 40
40.0
  0
ARC
  5
2C3
330
2
100
AcDbEntity
  8
Scherentreppe
100
AcDbCircle
 10
717.6198809997559
 20
2612.953467853628
 30
0.0
 40
12.0
100
AcDbArc
 50
105.1598956460561
 51
136.7603652905863
  0
ARC
  5
2C4
330
2
100
AcDbEntity
  8
Scherentreppe
100
AcDbCircle
 10
717.6198809997559
 20
2612.953467853628
 30
0.0
 40
12.0
100
AcDbArc
 50
150.1598956461836
 51
181.7603652905823
  0
ARC
  5
2C5
330
2
100
AcDbEntity
  8
Scherentreppe
100
AcDbCircle
 10
717.6198809997559
 20
2612.953467853628
 30
0.0
 40
12.0
100
AcDbArc
 50
195.1598956461316
 51
226.7603652905532
  0
ARC
  5
2C6
330
2
100
AcDbEntity
  8
Scherentreppe
100
AcDbCircle
 10
717.6198809997559
 20
2612.953467853628
 30
0.0
 40
12.0
100
AcDbArc
 50
240.1598956461389
 51
271.7603652907103
  0
ARC
  5
2C7
330
2
100
AcDbEntity
  8
Scherentreppe
100
AcDbCircle
 10
717.6198809997559
 20
2612.953467853628
 30
0.0
 40
12.0
100
AcDbArc
 50
285.1598956462181
 51
316.7603652905863
  0
ARC
  5
2C8
330
2
100
AcDbEntity
  8
Scherentreppe
100
AcDbCircle
 10
717.6198809997559
 20
2612.953467853628
 30
0.0
 40
12.0
100
AcDbArc
 50
330.1598956461836
 51
1.760365290582377
  0
ARC
  5
2C9
330
2
100
AcDbEntity
  8
Scherentreppe
100
AcDbCircle
 10
717.6198809997559
 20
2612.953467853628
 30
0.0
 40
12.0
100
AcDbArc
 50
15.15989564613166
 51
46.76036529055324
  0
ARC
  5
2CA
330
2
100
AcDbEntity
  8
Scherentreppe
100
AcDbCircle
 10
717.6198809997559
 20
2612.953467853628
 30
0.0
 40
12.0
100
AcDbArc
 50
60.15989564613889
 51
91.76036529050172
  0
CIRCLE
  5
2CB
330
2
100
AcDbEntity
  8
Scherentreppe
100
AcDbCircle
 10
717.6198809997559
 20
2612.953467853628
 30
0.0
 40
5.0
  0
LINE
  5
2CC
330
2
100
AcDbEntity
  8
Scherentreppe
100
AcDbLine
 10
717.2512489583909
 20
2624.947804451293
 30
0.0
 11
713.1234058751724
 21
2652.699935765305
 31
0.0
  0
LINE
  5
2CD
330
2
100
AcDbEntity
  8
Scherentreppe
100
AcDbLine
 10
714.4817172206508
 20
2624.535865191637
 30
0.0
 11
710.3538741374318
 21
2652.28799650565
 31
0.0
  0
LINE
  5
2CE
330
2
100
AcDbEntity
  8
Scherentreppe
100
AcDbLine
 10
708.8779420395026
 20
2621.17408238146
 30
0.0
 11
686.3353959591655
 21
2637.878976790159
 31
0.0
  0
LINE
  5
2CF
330
2
100
AcDbEntity
  8
Scherentreppe
100
AcDbLine
 10
707.2108724109707
 20
2618.924442665047
 30
0.0
 11
684.6683263306349
 21
2635.629337073747
 31
0.0
  0
LINE
  5
2D0
330
2
100
AcDbEntity
  8
Scherentreppe
100
AcDbLine
 10
705.6255444020921
 20
2612.584835812263
 30
0.0
 11
677.8734130880784
 21
2608.456992729044
 31
0.0
  0
LINE
  5
2D1
330
2
100
AcDbEntity
  8
Scherentreppe
100
AcDbLine
 10
706.0374836617498
 20
2609.815304074519
 30
0.0
 11
678.2853523477356
 21
2605.687460991302
 31
0.0
  0
LINE
  5
2D2
330
2
100
AcDbEntity
  8
Scherentreppe
100
AcDbLine
 10
709.3992664719239
 20
2604.211528893374
 30
0.0
 11
692.6943720632229
 21
2581.66898281304
 31
0.0
  0
LINE
  5
2D3
330
2
100
AcDbEntity
  8
Scherentreppe
100
AcDbLine
 10
711.6489061883371
 20
2602.544459264844
 30
0.0
 11
694.9440117796343
 21
2580.001913184509
 31
0.0
  0
LINE
  5
2D4
330
2
100
AcDbEntity
  8
Scherentreppe
100
AcDbLine
 10
717.9885130411244
 20
2600.959131255963
 30
0.0
 11
722.1163561243388
 21
2573.206999941951
 31
0.0
  0
LINE
  5
2D5
330
2
100
AcDbEntity
  8
Scherentreppe
100
AcDbLine
 10
720.758044778865
 20
2601.37107051562
 30
0.0
 11
724.8858878620827
 21
2573.618939201608
 31
0.0
  0
LINE
  5
2D6
330
2
100
AcDbEntity
  8
Scherentreppe
100
AcDbLine
 10
726.3618199600123
 20
2604.7328533258
 30
0.0
 11
748.9043660403463
 21
2588.027958917098
 31
0.0
  0
LINE
  5
2D7
330
2
100
AcDbEntity
  8
Scherentreppe
100
AcDbLine
 10
728.0288895885414
 20
2606.982493042212
 30
0.0
 11
750.5714356688772
 21
2590.27759863351
 31
0.0
  0
LINE
  5
2D8
330
2
100
AcDbEntity
  8
Scherentreppe
100
AcDbLine
 10
729.6142175974196
 20
2613.322099894994
 30
0.0
 11
757.3663489114332
 21
2617.449942978212
 31
0.0
  0
LINE
  5
2D9
330
2
100
AcDbEntity
  8
Scherentreppe
100
AcDbLine
 10
729.2022783377619
 20
2616.091631632737
 30
0.0
 11
756.9544096517761
 21
2620.219474715956
 31
0.0
  0
LINE
  5
2DA
330
2
100
AcDbEntity
  8
Scherentreppe
100
AcDbLine
 10
725.8404955275887
 20
2621.69540681388
 30
0.0
 11
742.5453899362887
 21
2644.237952894217
 31
0.0
  0
LINE
  5
2DB
330
2
100
AcDbEntity
  8
Scherentreppe
100
AcDbLine
 10
723.5908558111782
 20
2623.362476442411
 30
0.0
 11
740.2957502198769
 21
2645.905022522747
 31
0.0
  0
CIRCLE
  5
2DC
330
2
100
AcDbEntity
  8
Scherentreppe
100
AcDbCircle
 10
1088.891097888857
 20
2679.566732881048
 30
0.0
 40
4.999999999999998
  0
CIRCLE
  5
2DD
330
2
100
AcDbEntity
  8
Scherentreppe
100
AcDbCircle
 10
1035.954820121596
 20
2841.114714905422
 30
0.0
 40
4.999999999999998
  0
CIRCLE
  5
2DE
330
2
100
AcDbEntity
  8
Scherentreppe
100
AcDbCircle
 10
983.0185423543339
 20
3002.662696929795
 30
0.0
 40
4.999999999999998
  0
ARC
  5
2DF
330
2
100
AcDbEntity
  8
Scherentreppe
100
AcDbCircle
 10
1088.891097888851
 20
2679.566732881046
 30
0.0
 40
11.0
100
AcDbArc
 50
204.9277344229012
 51
288.1430104365337
  0
ARC
  5
2E0
330
2
100
AcDbEntity
  8
Scherentreppe
100
AcDbCircle
 10
2525.220875966424
 20
3347.13408029745
 30
0.0
 40
1594.884274411786
100
AcDbArc
 50
198.7580124930888
 51
204.9277344229012
  0
ARC
  5
2E1
330
2
100
AcDbEntity
  8
Scherentreppe
100
AcDbCircle
 10
983.0185423543284
 20
3002.662696929793
 30
0.0
 40
11.0
100
AcDbArc
 50
108.1430104365337
 51
191.3582864502455
  0
ARC
  5
2E2
330
2
100
AcDbEntity
  8
Scherentreppe
100
AcDbCircle
 10
983.0185423543284
 20
3002.662696929793
 30
0.0
 40
10.15
100
AcDbArc
 50
108.1430104365337
 51
191.3582864502455
  0
ARC
  5
2E3
330
2
100
AcDbEntity
  8
Scherentreppe
100
AcDbCircle
 10
2535.882153444607
 20
3314.598587908385
 30
0.0
 40
1594.884274411786
100
AcDbArc
 50
191.3582864502455
 51
197.5280083800383
  0
ARC
  5
2E4
330
2
100
AcDbEntity
  8
Scherentreppe
100
AcDbCircle
 10
1088.891097888864
 20
2679.56673288105
 30
0.0
 40
11.0
100
AcDbArc
 50
288.1430104365337
 51
11.35828645024547
  0
ARC
  5
2E5
330
2
100
AcDbEntity
  8
Scherentreppe
100
AcDbCircle
 10
-463.9725132014119
 20
2367.630841902447
 30
0.0
 40
1594.884274411786
100
AcDbArc
 50
11.35828645024547
 51
17.52800838003834
  0
ARC
  5
2E6
330
2
100
AcDbEntity
  8
Scherentreppe
100
AcDbCircle
 10
983.0185423543412
 20
3002.662696929797
 30
0.0
 40
11.0
100
AcDbArc
 50
24.92773442283835
 51
108.1430104365337
  0
ARC
  5
2E7
330
2
100
AcDbEntity
  8
Scherentreppe
100
AcDbCircle
 10
983.0185423543412
 20
3002.662696929797
 30
0.0
 40
10.15
100
AcDbArc
 50
24.92773442283835
 51
108.1430104365337
  0
ARC
  5
2E8
330
2
100
AcDbEntity
  8
Scherentreppe
100
AcDbCircle
 10
-453.3112357232303
 20
2335.095349513382
 30
0.0
 40
1594.884274411786
100
AcDbArc
 50
18.75801249308962
 51
24.92773442283835
  0
CIRCLE
  5
2E9
330
2
100
AcDbEntity
  8
Scherentreppe
100
AcDbCircle
 10
1088.891097888857
 20
2679.566732881048
 30
0.0
 40
10.14999999999782
  0
CIRCLE
  5
2EA
330
2
100
AcDbEntity
  8
Scherentreppe
100
AcDbCircle
 10
983.0185423543339
 20
3002.662696929795
 30
0.0
 40
10.14999999999782
  0
CIRCLE
  5
2EB
330
2
100
AcDbEntity
  8
Scherentreppe
100
AcDbCircle
 10
1042.482195777723
 20
2671.240074752623
 30
0.0
 40
4.999999999999998
  0
CIRCLE
  5
2EC
330
2
100
AcDbEntity
  8
Scherentreppe
100
AcDbCircle
 10
989.5459180104612
 20
2832.788056776996
 30
0.0
 40
4.999999999999998
  0
CIRCLE
  5
2ED
330
2
100
AcDbEntity
  8
Scherentreppe
100
AcDbCircle
 10
936.609640243199
 20
2994.33603880137
 30
0.0
 40
4.999999999999998
  0
ARC
  5
2EE
330
2
100
AcDbEntity
  8
Scherentreppe
100
AcDbCircle
 10
2478.81197385529
 20
3338.807422169025
 30
0.0
 40
1594.884274411786
100
AcDbArc
 50
198.7580124930888
 51
204.9277344229012
  0
ARC
  5
2EF
330
2
100
AcDbEntity
  8
Scherentreppe
100
AcDbCircle
 10
936.6096402431935
 20
2994.336038801368
 30
0.0
 40
11.0
100
AcDbArc
 50
108.1430104365337
 51
191.3582864502455
  0
ARC
  5
2F0
330
2
100
AcDbEntity
  8
Scherentreppe
100
AcDbCircle
 10
2489.473251333473
 20
3306.27192977996
 30
0.0
 40
1594.884274411786
100
AcDbArc
 50
191.3582864502455
 51
197.5280083800383
  0
ARC
  5
2F1
330
2
100
AcDbEntity
  8
Scherentreppe
100
AcDbCircle
 10
1042.48219577773
 20
2671.240074752625
 30
0.0
 40
11.00000000000136
100
AcDbArc
 50
272.2004884227414
 51
11.35828645023425
  0
ARC
  5
2F2
330
2
100
AcDbEntity
  8
Scherentreppe
100
AcDbCircle
 10
-510.3814153125467
 20
2359.304183774022
 30
0.0
 40
1594.884274411786
100
AcDbArc
 50
11.35828645024547
 51
17.52800838003834
  0
ARC
  5
2F3
330
2
100
AcDbEntity
  8
Scherentreppe
100
AcDbCircle
 10
936.6096402432054
 20
2994.336038801372
 30
0.0
 40
11.0
100
AcDbArc
 50
24.92773442283835
 51
108.1430104365337
  0
ARC
  5
2F4
330
2
100
AcDbEntity
  8
Scherentreppe
100
AcDbCircle
 10
-499.720137834365
 20
2326.768691384957
 30
0.0
 40
1594.884274411786
100
AcDbArc
 50
18.75801249308962
 51
24.92773442283835
  0
CIRCLE
  5
2F5
330
2
100
AcDbEntity
  8
Scherentreppe
100
AcDbCircle
 10
936.609640243199
 20
2994.33603880137
 30
0.0
 40
10.14999999999782
  0
ARC
  5
2F6
330
2
100
AcDbEntity
  8
Scherentreppe
100
AcDbCircle
 10
996.0732936665808
 20
2662.913416624198
 30
0.0
 40
11.0
100
AcDbArc
 50
188.9852124091219
 51
272.2004884228196
  0
ARC
  5
2F7
330
2
100
AcDbEntity
  8
Scherentreppe
100
AcDbCircle
 10
2560.521220798391
 20
2910.28374229388
 30
0.0
 40
1594.884274411786
100
AcDbArc
 50
182.8154904793189
 51
188.9852124091219
  0
ARC
  5
2F8
330
2
100
AcDbEntity
  8
Scherentreppe
100
AcDbCircle
 10
983.0185423543266
 20
3002.662696929794
 30
0.0
 40
11.0
100
AcDbArc
 50
92.20048842281963
 51
175.4157644364998
  0
ARC
  5
2F9
330
2
100
AcDbEntity
  8
Scherentreppe
100
AcDbCircle
 10
983.0185423543266
 20
3002.662696929794
 30
0.0
 40
10.15
100
AcDbArc
 50
92.20048842281963
 51
175.4157644364998
  0
ARC
  5
2FA
330
2
100
AcDbEntity
  8
Scherentreppe
100
AcDbCircle
 10
2561.835823298028
 20
2876.071274935716
 30
0.0
 40
1594.884274411786
100
AcDbArc
 50
175.4157644364998
 51
181.5854863662788
  0
ARC
  5
2FB
330
2
100
AcDbEntity
  8
Scherentreppe
100
AcDbCircle
 10
996.0732936665959
 20
2662.913416624199
 30
0.0
 40
11.0
100
AcDbArc
 50
272.2004884228196
 51
355.4157644364998
  0
ARC
  5
2FC
330
2
100
AcDbEntity
  8
Scherentreppe
100
AcDbCircle
 10
-582.7439872771058
 20
2789.504838618276
 30
0.0
 40
1594.884274411786
100
AcDbArc
 50
355.4157644364998
 51
1.585486366278861
  0
ARC
  5
2FD
330
2
100
AcDbEntity
  8
Scherentreppe
100
AcDbCircle
 10
983.0185423543412
 20
3002.662696929795
 30
0.0
 40
11.0
100
AcDbArc
 50
8.985212409121922
 51
92.20048842281963
  0
ARC
  5
2FE
330
2
100
AcDbEntity
  8
Scherentreppe
100
AcDbCircle
 10
983.0185423543412
 20
3002.662696929795
 30
0.0
 40
10.15
100
AcDbArc
 50
8.985212409121922
 51
92.20048842281963
  0
ARC
  5
2FF
330
2
100
AcDbEntity
  8
Scherentreppe
100
AcDbCircle
 10
-581.4293847774695
 20
2755.292371260113
 30
0.0
 40
1594.884274411786
100
AcDbArc
 50
2.815490479318897
 51
8.985212409121922
  0
CIRCLE
  5
300
330
2
100
AcDbEntity
  8
Scherentreppe
100
AcDbCircle
 10
1029.427444465468
 20
3010.989355058223
 30
0.0
 40
4.999999999999998
  0
ARC
  5
301
330
2
100
AcDbEntity
  8
Scherentreppe
100
AcDbCircle
 10
1029.427444465477
 20
3010.98935505822
 30
0.0
 40
11.0
100
AcDbArc
 50
8.985212409121922
 51
92.20048842281963
  0
ARC
  5
302
330
2
100
AcDbEntity
  8
Scherentreppe
100
AcDbCircle
 10
-535.0204826663355
 20
2763.61902938854
 30
0.0
 40
1594.884274411786
100
AcDbArc
 50
2.815490479318897
 51
8.985212409121922
  0
ARC
  5
303
330
2
100
AcDbEntity
  8
Scherentreppe
100
AcDbCircle
 10
-536.335085165972
 20
2797.831496746703
 30
0.0
 40
1594.884274411786
100
AcDbArc
 50
355.4157644364998
 51
1.585486366278861
  0
ARC
  5
304
330
2
100
AcDbEntity
  8
Scherentreppe
100
AcDbCircle
 10
1029.427444465462
 20
3010.989355058219
 30
0.0
 40
11.0
100
AcDbArc
 50
92.20048842281963
 51
175.4157644364998
  0
ARC
  5
305
330
2
100
AcDbEntity
  8
Scherentreppe
100
AcDbCircle
 10
2608.244725409164
 20
2884.397933064139
 30
0.0
 40
1594.884274411786
100
AcDbArc
 50
175.4157644364998
 51
181.5854863662788
  0
ARC
  5
306
330
2
100
AcDbEntity
  8
Scherentreppe
100
AcDbCircle
 10
1042.482195777716
 20
2671.240074752623
 30
0.0
 40
11.0
100
AcDbArc
 50
188.9852124091219
 51
272.2004884228196
  0
ARC
  5
307
330
2
100
AcDbEntity
  8
Scherentreppe
100
AcDbCircle
 10
2606.930122909527
 20
2918.610400422302
 30
0.0
 40
1594.884274411786
100
AcDbArc
 50
182.8154904793189
 51
188.9852124091219
  0
CIRCLE
  5
308
330
2
100
AcDbEntity
  8
Scherentreppe
100
AcDbCircle
 10
1029.427444465468
 20
3010.989355058223
 30
0.0
 40
10.14999999999782
  0
CIRCLE
  5
309
330
2
100
AcDbEntity
  8
Scherentreppe
100
AcDbCircle
 10
1042.482195777722
 20
2671.24007475262
 30
0.0
 40
10.14999999999782
  0
CIRCLE
  5
30A
330
2
100
AcDbEntity
  8
Scherentreppe
100
AcDbCircle
 10
949.6643915554455
 20
2654.586758495767
 30
0.0
 40
4.999999999999998
  0
CIRCLE
  5
30B
330
2
100
AcDbEntity
  8
Scherentreppe
100
AcDbCircle
 10
896.728113788184
 20
2816.134740520141
 30
0.0
 40
4.999999999999998
  0
CIRCLE
  5
30C
330
2
100
AcDbEntity
  8
Scherentreppe
100
AcDbCircle
 10
843.7918360209218
 20
2977.682722544514
 30
0.0
 40
4.999999999999998
  0
ARC
  5
30D
330
2
100
AcDbEntity
  8
Scherentreppe
100
AcDbCircle
 10
949.66439155544
 20
2654.586758495765
 30
0.0
 40
11.0
100
AcDbArc
 50
204.9277344229012
 51
288.1430104365337
  0
ARC
  5
30E
330
2
100
AcDbEntity
  8
Scherentreppe
100
AcDbCircle
 10
2385.994169633013
 20
3322.154105912169
 30
0.0
 40
1594.884274411786
100
AcDbArc
 50
198.7580124930888
 51
204.9277344229012
  0
ARC
  5
30F
330
2
100
AcDbEntity
  8
Scherentreppe
100
AcDbCircle
 10
843.7918360209163
 20
2977.682722544512
 30
0.0
 40
11.0
100
AcDbArc
 50
108.1430104365337
 51
191.3582864502455
  0
ARC
  5
310
330
2
100
AcDbEntity
  8
Scherentreppe
100
AcDbCircle
 10
843.7918360209163
 20
2977.682722544512
 30
0.0
 40
10.15
100
AcDbArc
 50
108.1430104365337
 51
191.3582864502455
  0
ARC
  5
311
330
2
100
AcDbEntity
  8
Scherentreppe
100
AcDbCircle
 10
2396.655447111196
 20
3289.618613523104
 30
0.0
 40
1594.884274411786
100
AcDbArc
 50
191.3582864502455
 51
197.5280083800383
  0
ARC
  5
312
330
2
100
AcDbEntity
  8
Scherentreppe
100
AcDbCircle
 10
949.6643915554527
 20
2654.586758495769
 30
0.0
 40
11.0
100
AcDbArc
 50
288.1430104365337
 51
11.35828645024547
  0
ARC
  5
313
330
2
100
AcDbEntity
  8
Scherentreppe
100
AcDbCircle
 10
949.6643915554527
 20
2654.586758495769
 30
0.0
 40
10.15
100
AcDbArc
 50
288.1430104365337
 51
11.35828645024547
  0
ARC
  5
314
330
2
100
AcDbEntity
  8
Scherentreppe
100
AcDbCircle
 10
-603.1992195348238
 20
2342.650867517166
 30
0.0
 40
1594.884274411786
100
AcDbArc
 50
11.35828645024547
 51
17.52800838003834
  0
ARC
  5
315
330
2
100
AcDbEntity
  8
Scherentreppe
100
AcDbCircle
 10
843.7918360209282
 20
2977.682722544516
 30
0.0
 40
11.0
100
AcDbArc
 50
24.92773442283835
 51
108.1430104365337
  0
ARC
  5
316
330
2
100
AcDbEntity
  8
Scherentreppe
100
AcDbCircle
 10
843.7918360209282
 20
2977.682722544516
 30
0.0
 40
10.15
100
AcDbArc
 50
24.92773442283835
 51
108.1430104365337
  0
ARC
  5
317
330
2
100
AcDbEntity
  8
Scherentreppe
100
AcDbCircle
 10
-592.5379420566423
 20
2310.115375128101
 30
0.0
 40
1594.884274411786
100
AcDbArc
 50
18.75801249308962
 51
24.92773442283835
  0
CIRCLE
  5
318
330
2
100
AcDbEntity
  8
Scherentreppe
100
AcDbCircle
 10
949.6643915554455
 20
2654.586758495767
 30
0.0
 40
10.14999999999782
  0
ARC
  5
319
330
2
100
AcDbEntity
  8
Scherentreppe
100
AcDbCircle
 10
903.2554894443032
 20
2646.260100367343
 30
0.0
 40
11.0
100
AcDbArc
 50
188.9852124091219
 51
272.2004884228196
  0
ARC
  5
31A
330
2
100
AcDbEntity
  8
Scherentreppe
100
AcDbCircle
 10
2467.703416576114
 20
2893.630426037024
 30
0.0
 40
1594.884274411786
100
AcDbArc
 50
182.8154904793189
 51
188.9852124091219
  0
ARC
  5
31B
330
2
100
AcDbEntity
  8
Scherentreppe
100
AcDbCircle
 10
890.2007381320496
 20
2986.009380672938
 30
0.0
 40
11.0
100
AcDbArc
 50
92.20048842281963
 51
175.4157644364998
  0
ARC
  5
31C
330
2
100
AcDbEntity
  8
Scherentreppe
100
AcDbCircle
 10
890.2007381320496
 20
2986.009380672938
 30
0.0
 40
10.15
100
AcDbArc
 50
92.20048842281963
 51
175.4157644364998
  0
ARC
  5
31D
330
2
100
AcDbEntity
  8
Scherentreppe
100
AcDbCircle
 10
2469.018019075751
 20
2859.417958678861
 30
0.0
 40
1594.884274411786
100
AcDbArc
 50
175.4157644364998
 51
181.5854863662788
  0
ARC
  5
31E
330
2
100
AcDbEntity
  8
Scherentreppe
100
AcDbCircle
 10
903.2554894443178
 20
2646.260100367343
 30
0.0
 40
11.0
100
AcDbArc
 50
272.2004884228196
 51
355.4157644364998
  0
ARC
  5
31F
330
2
100
AcDbEntity
  8
Scherentreppe
100
AcDbCircle
 10
-675.5617914993831
 20
2772.851522361421
 30
0.0
 40
1594.884274411786
100
AcDbArc
 50
355.4157644364998
 51
1.585486366278861
  0
ARC
  5
320
330
2
100
AcDbEntity
  8
Scherentreppe
100
AcDbCircle
 10
890.2007381320641
 20
2986.009380672939
 30
0.0
 40
11.0
100
AcDbArc
 50
8.985212409121922
 51
92.20048842281963
  0
ARC
  5
321
330
2
100
AcDbEntity
  8
Scherentreppe
100
AcDbCircle
 10
890.2007381320641
 20
2986.009380672939
 30
0.0
 40
10.15
100
AcDbArc
 50
8.985212409121922
 51
92.20048842281963
  0
ARC
  5
322
330
2
100
AcDbEntity
  8
Scherentreppe
100
AcDbCircle
 10
-674.2471889997468
 20
2738.639055003257
 30
0.0
 40
1594.884274411786
100
AcDbArc
 50
2.815490479318897
 51
8.985212409121922
  0
ARC
  5
323
330
2
100
AcDbEntity
  8
Scherentreppe
100
AcDbCircle
 10
936.6096402431994
 20
2994.336038801363
 30
0.0
 40
11.0
100
AcDbArc
 50
8.985212409121922
 51
92.20048842281963
  0
ARC
  5
324
330
2
100
AcDbEntity
  8
Scherentreppe
100
AcDbCircle
 10
-627.8382868886128
 20
2746.965713131683
 30
0.0
 40
1594.884274411786
100
AcDbArc
 50
2.815490479318897
 51
8.985212409121922
  0
ARC
  5
325
330
2
100
AcDbEntity
  8
Scherentreppe
100
AcDbCircle
 10
949.6643915554527
 20
2654.586758495767
 30
0.0
 40
11.0
100
AcDbArc
 50
272.2004884228196
 51
355.4157644364998
  0
ARC
  5
326
330
2
100
AcDbEntity
  8
Scherentreppe
100
AcDbCircle
 10
949.6643915554527
 20
2654.586758495767
 30
0.0
 40
10.15
100
AcDbArc
 50
272.2004884228196
 51
355.4157644364998
  0
ARC
  5
327
330
2
100
AcDbEntity
  8
Scherentreppe
100
AcDbCircle
 10
-629.1528893882492
 20
2781.178180489846
 30
0.0
 40
1594.884274411786
100
AcDbArc
 50
355.4157644364998
 51
1.585486366278861
  0
ARC
  5
328
330
2
100
AcDbEntity
  8
Scherentreppe
100
AcDbCircle
 10
936.6096402431848
 20
2994.336038801362
 30
0.0
 40
11.0
100
AcDbArc
 50
92.20048842281963
 51
175.4157644364998
  0
ARC
  5
329
330
2
100
AcDbEntity
  8
Scherentreppe
100
AcDbCircle
 10
2515.426921186886
 20
2867.744616807283
 30
0.0
 40
1594.884274411786
100
AcDbArc
 50
175.4157644364998
 51
181.5854863662788
  0
ARC
  5
32A
330
2
100
AcDbEntity
  8
Scherentreppe
100
AcDbCircle
 10
949.6643915554383
 20
2654.586758495766
 30
0.0
 40
11.0
100
AcDbArc
 50
188.9852124091219
 51
272.2004884228196
  0
ARC
  5
32B
330
2
100
AcDbEntity
  8
Scherentreppe
100
AcDbCircle
 10
2514.11231868725
 20
2901.957084165445
 30
0.0
 40
1594.884274411786
100
AcDbArc
 50
182.8154904793189
 51
188.9852124091219
  0
CIRCLE
  5
32C
330
2
100
AcDbEntity
  8
Scherentreppe
100
AcDbCircle
 10
856.8465873331684
 20
2637.933442238911
 30
0.0
 40
4.999999999999998
  0
CIRCLE
  5
32D
330
2
100
AcDbEntity
  8
Scherentreppe
100
AcDbCircle
 10
803.9103095659061
 20
2799.481424263284
 30
0.0
 40
4.999999999999998
  0
CIRCLE
  5
32E
330
2
100
AcDbEntity
  8
Scherentreppe
100
AcDbCircle
 10
750.9740317986443
 20
2961.029406287659
 30
0.0
 40
4.999999999999998
  0
ARC
  5
32F
330
2
100
AcDbEntity
  8
Scherentreppe
100
AcDbCircle
 10
856.8465873331629
 20
2637.933442238909
 30
0.0
 40
11.0
100
AcDbArc
 50
204.9277344229012
 51
288.1430104365337
  0
ARC
  5
330
330
2
100
AcDbEntity
  8
Scherentreppe
100
AcDbCircle
 10
2293.176365410736
 20
3305.500789655313
 30
0.0
 40
1594.884274411786
100
AcDbArc
 50
198.7580124930888
 51
204.9277344229012
  0
ARC
  5
331
330
2
100
AcDbEntity
  8
Scherentreppe
100
AcDbCircle
 10
750.9740317986379
 20
2961.029406287656
 30
0.0
 40
11.0
100
AcDbArc
 50
108.1430104365337
 51
191.3582864502455
  0
ARC
  5
332
330
2
100
AcDbEntity
  8
Scherentreppe
100
AcDbCircle
 10
2303.837642888918
 20
3272.965297266248
 30
0.0
 40
1594.884274411786
100
AcDbArc
 50
191.3582864502455
 51
197.5280083800383
  0
ARC
  5
333
330
2
100
AcDbEntity
  8
Scherentreppe
100
AcDbCircle
 10
856.8465873331748
 20
2637.933442238913
 30
0.0
 40
11.0
100
AcDbArc
 50
288.1430104365337
 51
11.35828645024547
  0
ARC
  5
334
330
2
100
AcDbEntity
  8
Scherentreppe
100
AcDbCircle
 10
-696.0170237571015
 20
2325.99755126031
 30
0.0
 40
1594.884274411786
100
AcDbArc
 50
11.35828645024547
 51
17.52800838003834
  0
ARC
  5
335
330
2
100
AcDbEntity
  8
Scherentreppe
100
AcDbCircle
 10
750.9740317986511
 20
2961.029406287661
 30
0.0
 40
11.0
100
AcDbArc
 50
24.92773442283835
 51
108.1430104365337
  0
ARC
  5
336
330
2
100
AcDbEntity
  8
Scherentreppe
100
AcDbCircle
 10
-685.3557462789199
 20
2293.462058871245
 30
0.0
 40
1594.884274411786
100
AcDbArc
 50
18.75801249308962
 51
24.92773442283835
  0
CIRCLE
  5
337
330
2
100
AcDbEntity
  8
Scherentreppe
100
AcDbCircle
 10
750.9740317986443
 20
2961.029406287659
 30
0.0
 40
10.14999999999782
  0
CIRCLE
  5
338
330
2
100
AcDbEntity
  8
Scherentreppe
100
AcDbCircle
 10
810.4376852220335
 20
2629.606784110483
 30
0.0
 40
4.999999999999998
  0
ARC
  5
339
330
2
100
AcDbEntity
  8
Scherentreppe
100
AcDbCircle
 10
810.4376852220262
 20
2629.606784110486
 30
0.0
 40
11.0
100
AcDbArc
 50
188.9852124091219
 51
272.2004884228196
  0
ARC
  5
33A
330
2
100
AcDbEntity
  8
Scherentreppe
100
AcDbCircle
 10
810.4376852220262
 20
2629.606784110486
 30
0.0
 40
10.15
100
AcDbArc
 50
188.9852124091219
 51
272.2004884228196
  0
ARC
  5
33B
330
2
100
AcDbEntity
  8
Scherentreppe
100
AcDbCircle
 10
2374.885612353837
 20
2876.977109780167
 30
0.0
 40
1594.884274411786
100
AcDbArc
 50
182.8154904793189
 51
188.9852124091219
  0
ARC
  5
33C
330
2
100
AcDbEntity
  8
Scherentreppe
100
AcDbCircle
 10
797.3829339097715
 20
2969.356064416082
 30
0.0
 40
11.0
100
AcDbArc
 50
92.20048842281963
 51
175.4157644364998
  0
ARC
  5
33D
330
2
100
AcDbEntity
  8
Scherentreppe
100
AcDbCircle
 10
2376.200214853473
 20
2842.764642422004
 30
0.0
 40
1594.884274411786
100
AcDbArc
 50
175.4157644364998
 51
181.5854863662788
  0
ARC
  5
33E
330
2
100
AcDbEntity
  8
Scherentreppe
100
AcDbCircle
 10
810.4376852220408
 20
2629.606784110487
 30
0.0
 40
11.0
100
AcDbArc
 50
272.2004884228196
 51
355.4157644364998
  0
ARC
  5
33F
330
2
100
AcDbEntity
  8
Scherentreppe
100
AcDbCircle
 10
810.4376852220408
 20
2629.606784110487
 30
0.0
 40
10.15
100
AcDbArc
 50
272.2004884228196
 51
355.4157644364998
  0
ARC
  5
340
330
2
100
AcDbEntity
  8
Scherentreppe
100
AcDbCircle
 10
-768.3795957216607
 20
2756.198206104565
 30
0.0
 40
1594.884274411786
100
AcDbArc
 50
355.4157644364998
 51
1.585486366278861
  0
ARC
  5
341
330
2
100
AcDbEntity
  8
Scherentreppe
100
AcDbCircle
 10
797.3829339097865
 20
2969.356064416082
 30
0.0
 40
11.0
100
AcDbArc
 50
8.985212409121922
 51
92.20048842281963
  0
ARC
  5
342
330
2
100
AcDbEntity
  8
Scherentreppe
100
AcDbCircle
 10
-767.0649932220242
 20
2721.985738746401
 30
0.0
 40
1594.884274411786
100
AcDbArc
 50
2.815490479318897
 51
8.985212409121922
  0
CIRCLE
  5
343
330
2
100
AcDbEntity
  8
Scherentreppe
100
AcDbCircle
 10
810.4376852220335
 20
2629.606784110483
 30
0.0
 40
10.14999999999782
  0
ARC
  5
344
330
2
100
AcDbEntity
  8
Scherentreppe
100
AcDbCircle
 10
843.7918360209218
 20
2977.682722544508
 30
0.0
 40
11.0
100
AcDbArc
 50
8.985212409121922
 51
92.20048842281963
  0
ARC
  5
345
330
2
100
AcDbEntity
  8
Scherentreppe
100
AcDbCircle
 10
843.7918360209218
 20
2977.682722544508
 30
0.0
 40
10.15
100
AcDbArc
 50
8.985212409121922
 51
92.20048842281963
  0
ARC
  5
346
330
2
100
AcDbEntity
  8
Scherentreppe
100
AcDbCircle
 10
-720.6560911108901
 20
2730.312396874828
 30
0.0
 40
1594.884274411786
100
AcDbArc
 50
2.815490479318897
 51
8.985212409121922
  0
ARC
  5
347
330
2
100
AcDbEntity
  8
Scherentreppe
100
AcDbCircle
 10
856.8465873331748
 20
2637.933442238912
 30
0.0
 40
11.0
100
AcDbArc
 50
272.2004884228196
 51
355.4157644364998
  0
ARC
  5
348
330
2
100
AcDbEntity
  8
Scherentreppe
100
AcDbCircle
 10
-721.9706936105267
 20
2764.524864232991
 30
0.0
 40
1594.884274411786
100
AcDbArc
 50
355.4157644364998
 51
1.585486366278861
  0
ARC
  5
349
330
2
100
AcDbEntity
  8
Scherentreppe
100
AcDbCircle
 10
843.7918360209073
 20
2977.682722544507
 30
0.0
 40
11.0
100
AcDbArc
 50
92.20048842281963
 51
175.4157644364998
  0
ARC
  5
34A
330
2
100
AcDbEntity
  8
Scherentreppe
100
AcDbCircle
 10
843.7918360209073
 20
2977.682722544507
 30
0.0
 40
10.15
100
AcDbArc
 50
92.20048842281963
 51
175.4157644364998
  0
ARC
  5
34B
330
2
100
AcDbEntity
  8
Scherentreppe
100
AcDbCircle
 10
2422.60911696461
 20
2851.091300550428
 30
0.0
 40
1594.884274411786
100
AcDbArc
 50
175.4157644364998
 51
181.5854863662788
  0
ARC
  5
34C
330
2
100
AcDbEntity
  8
Scherentreppe
100
AcDbCircle
 10
856.8465873331611
 20
2637.933442238911
 30
0.0
 40
11.0
100
AcDbArc
 50
188.9852124091219
 51
272.2004884228196
  0
ARC
  5
34D
330
2
100
AcDbEntity
  8
Scherentreppe
100
AcDbCircle
 10
2421.294514464973
 20
2885.303767908591
 30
0.0
 40
1594.884274411786
100
AcDbArc
 50
182.8154904793189
 51
188.9852124091219
  0
CIRCLE
  5
34E
330
2
100
AcDbEntity
  8
Scherentreppe
100
AcDbCircle
 10
843.7918360209142
 20
2977.682722544511
 30
0.0
 40
10.14999999999782
  0
CIRCLE
  5
34F
330
2
100
AcDbEntity
  8
Scherentreppe
100
AcDbCircle
 10
856.8465873331684
 20
2637.933442238908
 30
0.0
 40
10.14999999999782
  0
CIRCLE
  5
350
330
2
100
AcDbEntity
  8
Scherentreppe
100
AcDbCircle
 10
757.5014074547643
 20
2791.154766134855
 30
0.0
 40
4.999999999999998
  0
CIRCLE
  5
351
330
2
100
AcDbEntity
  8
Scherentreppe
100
AcDbCircle
 10
704.5651296875016
 20
2952.702748159228
 30
0.0
 40
4.999999999999998
  0
ARC
  5
352
330
2
100
AcDbEntity
  8
Scherentreppe
100
AcDbCircle
 10
810.4376852220202
 20
2629.606784110479
 30
0.0
 40
11.0
100
AcDbArc
 50
204.9277344229012
 51
288.1430104365337
  0
ARC
  5
353
330
2
100
AcDbEntity
  8
Scherentreppe
100
AcDbCircle
 10
810.4376852220202
 20
2629.606784110479
 30
0.0
 40
10.15
100
AcDbArc
 50
204.9277344229012
 51
288.1430104365337
  0
ARC
  5
354
330
2
100
AcDbEntity
  8
Scherentreppe
100
AcDbCircle
 10
2246.767463299593
 20
3297.174131526883
 30
0.0
 40
1594.884274411786
100
AcDbArc
 50
198.7580124930888
 51
204.9277344229012
  0
ARC
  5
355
330
2
100
AcDbEntity
  8
Scherentreppe
100
AcDbCircle
 10
704.5651296874962
 20
2952.702748159225
 30
0.0
 40
11.0
100
AcDbArc
 50
108.1430104365337
 51
191.3582864502455
  0
ARC
  5
356
330
2
100
AcDbEntity
  8
Scherentreppe
100
AcDbCircle
 10
2257.428740777775
 20
3264.638639137818
 30
0.0
 40
1594.884274411786
100
AcDbArc
 50
191.3582864502455
 51
197.5280083800383
  0
ARC
  5
357
330
2
100
AcDbEntity
  8
Scherentreppe
100
AcDbCircle
 10
810.4376852220335
 20
2629.606784110483
 30
0.0
 40
11.0
100
AcDbArc
 50
288.1430104365337
 51
11.35828645024547
  0
ARC
  5
358
330
2
100
AcDbEntity
  8
Scherentreppe
100
AcDbCircle
 10
810.4376852220335
 20
2629.606784110483
 30
0.0
 40
10.15
100
AcDbArc
 50
288.1430104365337
 51
11.35828645024547
  0
ARC
  5
359
330
2
100
AcDbEntity
  8
Scherentreppe
100
AcDbCircle
 10
-742.425925868243
 20
2317.67089313188
 30
0.0
 40
1594.884274411786
100
AcDbArc
 50
11.35828645024547
 51
17.52800838003834
  0
ARC
  5
35A
330
2
100
AcDbEntity
  8
Scherentreppe
100
AcDbCircle
 10
704.5651296875093
 20
2952.70274815923
 30
0.0
 40
11.0
100
AcDbArc
 50
24.92773442283835
 51
108.1430104365337
  0
ARC
  5
35B
330
2
100
AcDbEntity
  8
Scherentreppe
100
AcDbCircle
 10
-731.7646483900611
 20
2285.135400742815
 30
0.0
 40
1594.884274411786
100
AcDbArc
 50
18.75801249308962
 51
24.92773442283835
  0
CIRCLE
  5
35C
330
2
100
AcDbEntity
  8
Scherentreppe
100
AcDbCircle
 10
810.4376852220266
 20
2629.60678411048
 30
0.0
 40
10.14999999999782
  0
CIRCLE
  5
35D
330
2
100
AcDbEntity
  8
Scherentreppe
100
AcDbCircle
 10
704.5651296875016
 20
2952.702748159228
 30
0.0
 40
10.14999999999782
  0
CIRCLE
  5
35E
330
2
100
AcDbEntity
  8
Scherentreppe
100
AcDbCircle
 10
764.0287831108913
 20
2621.280125982058
 30
0.0
 40
4.999999999999998
  0
CIRCLE
  5
35F
330
2
100
AcDbEntity
  8
Scherentreppe
100
AcDbCircle
 10
711.0925053436285
 20
2782.828108006431
 30
0.0
 40
4.999999999999998
  0
CIRCLE
  5
360
330
2
100
AcDbEntity
  8
Scherentreppe
100
AcDbCircle
 10
658.1562275763672
 20
2944.376090030804
 30
0.0
 40
4.999999999999998
  0
ARC
  5
361
330
2
100
AcDbEntity
  8
Scherentreppe
100
AcDbCircle
 10
764.0287831108853
 20
2621.280125982055
 30
0.0
 40
11.0
100
AcDbArc
 50
204.9277344229012
 51
288.1430104365337
  0
ARC
  5
362
330
2
100
AcDbEntity
  8
Scherentreppe
100
AcDbCircle
 10
2200.358561188458
 20
3288.84747339846
 30
0.0
 40
1594.884274411786
100
AcDbArc
 50
198.7580124930888
 51
204.9277344229012
  0
ARC
  5
363
330
2
100
AcDbEntity
  8
Scherentreppe
100
AcDbCircle
 10
658.1562275763603
 20
2944.376090030802
 30
0.0
 40
11.0
100
AcDbArc
 50
108.1430104365337
 51
191.3582864502455
  0
ARC
  5
364
330
2
100
AcDbEntity
  8
Scherentreppe
100
AcDbCircle
 10
658.1562275763603
 20
2944.376090030802
 30
0.0
 40
10.15
100
AcDbArc
 50
108.1430104365337
 51
191.3582864502455
  0
ARC
  5
365
330
2
100
AcDbEntity
  8
Scherentreppe
100
AcDbCircle
 10
2211.01983866664
 20
3256.311981009395
 30
0.0
 40
1594.884274411786
100
AcDbArc
 50
191.3582864502455
 51
197.5280083800383
  0
ARC
  5
366
330
2
100
AcDbEntity
  8
Scherentreppe
100
AcDbCircle
 10
764.0287831108976
 20
2621.28012598206
 30
0.0
 40
11.0
100
AcDbArc
 50
288.1430104365337
 51
11.35828645024547
  0
ARC
  5
367
330
2
100
AcDbEntity
  8
Scherentreppe
100
AcDbCircle
 10
-788.8348279793786
 20
2309.344235003456
 30
0.0
 40
1594.884274411786
100
AcDbArc
 50
11.35828645024547
 51
17.52800838003834
  0
ARC
  5
368
330
2
100
AcDbEntity
  8
Scherentreppe
100
AcDbCircle
 10
658.1562275763736
 20
2944.376090030807
 30
0.0
 40
11.0
100
AcDbArc
 50
24.92773442283835
 51
108.1430104365337
  0
ARC
  5
369
330
2
100
AcDbEntity
  8
Scherentreppe
100
AcDbCircle
 10
658.1562275763736
 20
2944.376090030807
 30
0.0
 40
10.15
100
AcDbArc
 50
24.92773442283835
 51
108.1430104365337
  0
ARC
  5
36A
330
2
100
AcDbEntity
  8
Scherentreppe
100
AcDbCircle
 10
-778.173550501197
 20
2276.808742614392
 30
0.0
 40
1594.884274411786
100
AcDbArc
 50
18.75801249308962
 51
24.92773442283835
  0
CIRCLE
  5
36B
330
2
100
AcDbEntity
  8
Scherentreppe
100
AcDbCircle
 10
764.0287831108913
 20
2621.280125982058
 30
0.0
 40
10.14999999999782
  0
CIRCLE
  5
36C
330
2
100
AcDbEntity
  8
Scherentreppe
100
AcDbCircle
 10
658.1562275763672
 20
2944.376090030804
 30
0.0
 40
10.14999999999782
  0
ARC
  5
36D
330
2
100
AcDbEntity
  8
Scherentreppe
100
AcDbCircle
 10
750.9740317986447
 20
2961.029406287652
 30
0.0
 40
11.0
100
AcDbArc
 50
8.985212409121922
 51
92.20048842281963
  0
ARC
  5
36E
330
2
100
AcDbEntity
  8
Scherentreppe
100
AcDbCircle
 10
-813.4738953331666
 20
2713.659080617973
 30
0.0
 40
1594.884274411786
100
AcDbArc
 50
2.815490479318897
 51
8.985212409121922
  0
ARC
  5
36F
330
2
100
AcDbEntity
  8
Scherentreppe
100
AcDbCircle
 10
764.0287831108985
 20
2621.280125982057
 30
0.0
 40
11.0
100
AcDbArc
 50
272.2004884228196
 51
355.4157644364998
  0
ARC
  5
370
330
2
100
AcDbEntity
  8
Scherentreppe
100
AcDbCircle
 10
-814.7884978328029
 20
2747.871547976136
 30
0.0
 40
1594.884274411786
100
AcDbArc
 50
355.4157644364998
 51
1.585486366278861
  0
ARC
  5
371
330
2
100
AcDbEntity
  8
Scherentreppe
100
AcDbCircle
 10
750.9740317986302
 20
2961.029406287652
 30
0.0
 40
11.0
100
AcDbArc
 50
92.20048842281963
 51
175.4157644364998
  0
ARC
  5
372
330
2
100
AcDbEntity
  8
Scherentreppe
100
AcDbCircle
 10
2329.791312742332
 20
2834.437984293572
 30
0.0
 40
1594.884274411786
100
AcDbArc
 50
175.4157644364998
 51
181.5854863662788
  0
ARC
  5
373
330
2
100
AcDbEntity
  8
Scherentreppe
100
AcDbCircle
 10
764.0287831108835
 20
2621.280125982056
 30
0.0
 40
11.0
100
AcDbArc
 50
188.9852124091219
 51
272.2004884228196
  0
ARC
  5
374
330
2
100
AcDbEntity
  8
Scherentreppe
100
AcDbCircle
 10
2328.476710242695
 20
2868.650451651736
 30
0.0
 40
1594.884274411786
100
AcDbArc
 50
182.8154904793189
 51
188.9852124091219
  0
CIRCLE
  5
375
330
2
100
AcDbEntity
  8
Scherentreppe
100
AcDbCircle
 10
664.6836032324945
 20
2774.501449878004
 30
0.0
 40
4.999999999999998
  0
ARC
  5
376
330
2
100
AcDbEntity
  8
Scherentreppe
100
AcDbCircle
 10
717.3084911305291
 20
2613.903750100833
 30
0.0
 40
10.15
100
AcDbArc
 50
204.9277344229012
 51
288.1430104365337
  0
ARC
  5
377
330
2
100
AcDbEntity
  8
Scherentreppe
100
AcDbCircle
 10
717.3084911305432
 20
2613.903750100838
 30
0.0
 40
10.15
100
AcDbArc
 50
288.1430104365337
 51
11.35828645024547
  0
CIRCLE
  5
378
330
2
100
AcDbEntity
  8
Scherentreppe
100
AcDbCircle
 10
717.3084911305372
 20
2613.903750100833
 30
0.0
 40
10.14999999999782
  0
CIRCLE
  5
379
330
2
100
AcDbEntity
  8
Scherentreppe
100
AcDbCircle
 10
664.6836032324945
 20
2774.501449878004
 30
0.0
 40
13.5
  0
LINE
  5
37A
330
2
100
AcDbEntity
  8
Scherentreppe
100
AcDbLine
 10
651.9406425955525
 20
2770.044213715833
 30
0.0
 11
707.7276725775791
 21
2610.552568838165
 31
0.0
  0
LINE
  5
37B
330
2
100
AcDbEntity
  8
Scherentreppe
100
AcDbLine
 10
677.593221938494
 20
2778.450088233906
 30
0.0
 11
727.0146118613415
 21
2616.87254116101
 31
0.0
  0
ARC
  5
37C
330
2
100
AcDbEntity
  8
Scherentreppe
100
AcDbCircle
 10
658.1946239037643
 20
2943.376827441668
 30
0.0
 40
10.15
100
AcDbArc
 50
8.985212409121922
 51
92.20048842281963
  0
ARC
  5
37D
330
2
100
AcDbEntity
  8
Scherentreppe
100
AcDbCircle
 10
658.1946239037493
 20
2943.376827441667
 30
0.0
 40
10.15
100
AcDbArc
 50
92.20048842281963
 51
175.4157644364998
  0
CIRCLE
  5
37E
330
2
100
AcDbEntity
  8
Scherentreppe
100
AcDbCircle
 10
658.1946239037561
 20
2943.376827441671
 30
0.0
 40
10.14999999999782
  0
LINE
  5
37F
330
2
100
AcDbEntity
  8
Scherentreppe
100
AcDbLine
 10
678.1607226039909
 20
2775.287104666326
 30
0.0
 11
668.3274210608419
 21
2943.967523449186
 31
0.0
  0
LINE
  5
380
330
2
100
AcDbEntity
  8
Scherentreppe
100
AcDbLine
 10
651.1859338739419
 20
2774.250607522741
 30
0.0
 11
648.0463762008476
 21
2943.188231152344
 31
0.0
  0
ARC
  5
381
330
2
100
AcDbEntity
  8
Scherentreppe
100
AcDbCircle
 10
717.619880999749
 20
2612.953467853632
 30
0.0
 40
11.0
100
AcDbArc
 50
188.9852124091219
 51
272.2004884228196
  0
ARC
  5
382
330
2
100
AcDbEntity
  8
Scherentreppe
100
AcDbCircle
 10
717.619880999749
 20
2612.953467853632
 30
0.0
 40
10.15
100
AcDbArc
 50
188.9852124091219
 51
272.2004884228196
  0
ARC
  5
383
330
2
100
AcDbEntity
  8
Scherentreppe
100
AcDbCircle
 10
2282.067808131559
 20
2860.323793523314
 30
0.0
 40
1594.884274411786
100
AcDbArc
 50
182.8154904793189
 51
188.9852124091219
  0
ARC
  5
384
330
2
100
AcDbEntity
  8
Scherentreppe
100
AcDbCircle
 10
704.5651296874943
 20
2952.702748159228
 30
0.0
 40
11.0
100
AcDbArc
 50
92.20048842281963
 51
175.4157644364998
  0
ARC
  5
385
330
2
100
AcDbEntity
  8
Scherentreppe
100
AcDbCircle
 10
2283.382410631196
 20
2826.111326165151
 30
0.0
 40
1594.884274411786
100
AcDbArc
 50
175.4157644364998
 51
181.5854863662788
  0
ARC
  5
386
330
2
100
AcDbEntity
  8
Scherentreppe
100
AcDbCircle
 10
717.6198809997636
 20
2612.953467853634
 30
0.0
 40
11.0
100
AcDbArc
 50
272.2004884228196
 51
355.4157644364998
  0
ARC
  5
387
330
2
100
AcDbEntity
  8
Scherentreppe
100
AcDbCircle
 10
717.6198809997636
 20
2612.953467853634
 30
0.0
 40
10.15
100
AcDbArc
 50
272.2004884228196
 51
355.4157644364998
  0
ARC
  5
388
330
2
100
AcDbEntity
  8
Scherentreppe
100
AcDbCircle
 10
-861.1973999439378
 20
2739.544889847711
 30
0.0
 40
1594.884274411786
100
AcDbArc
 50
355.4157644364998
 51
1.585486366278861
  0
ARC
  5
389
330
2
100
AcDbEntity
  8
Scherentreppe
100
AcDbCircle
 10
704.5651296875093
 20
2952.702748159229
 30
0.0
 40
11.0
100
AcDbArc
 50
8.985212409121922
 51
92.20048842281963
  0
ARC
  5
38A
330
2
100
AcDbEntity
  8
Scherentreppe
100
AcDbCircle
 10
-859.8827974443015
 20
2705.332422489548
 30
0.0
 40
1594.884274411786
100
AcDbArc
 50
2.815490479318897
 51
8.985212409121922
  0
CIRCLE
  5
38B
330
2
100
AcDbEntity
  8
Scherentreppe
100
AcDbCircle
 10
664.6836032324945
 20
2774.501449878004
 30
0.0
 40
20.0
  0
CIRCLE
  5
38C
330
2
100
AcDbEntity
  8
Scherentreppe
100
AcDbCircle
 10
1082.363722232731
 20
2849.441373033845
 30
0.0
 40
13.5
  0
LINE
  5
38D
330
2
100
AcDbEntity
  8
Scherentreppe
100
AcDbLine
 10
1068.886602861234
 20
2848.655718245524
 30
0.0
 11
1078.719904404382
 21
2679.975299462663
 31
0.0
  0
LINE
  5
38E
330
2
100
AcDbEntity
  8
Scherentreppe
100
AcDbLine
 10
1095.861391591283
 20
2849.692215389108
 30
0.0
 11
1099.000949264379
 21
2680.754591759505
 31
0.0
  0
ARC
  5
38F
330
2
100
AcDbEntity
  8
Scherentreppe
100
AcDbCircle
 10
1135.299999999999
 20
2687.893391009476
 30
0.0
 40
11.0
100
AcDbArc
 50
125.60664520616
 51
234.39335479384
  0
CIRCLE
  5
390
330
2
100
AcDbEntity
  8
Scherentreppe
100
AcDbCircle
 10
1082.363722232731
 20
2849.441373033845
 30
0.0
 40
4.999999999999998
  0
ARC
  5
391
330
2
100
AcDbEntity
  8
Scherentreppe
100
AcDbCircle
 10
2571.62977807756
 20
3355.460738425874
 30
0.0
 40
1594.884274411786
100
AcDbArc
 50
198.7580124930888
 51
204.9277344229012
  0
ARC
  5
392
330
2
100
AcDbEntity
  8
Scherentreppe
100
AcDbCircle
 10
1029.427444465463
 20
3010.989355058216
 30
0.0
 40
11.0
100
AcDbArc
 50
108.1430104365337
 51
191.3582864502455
  0
ARC
  5
393
330
2
100
AcDbEntity
  8
Scherentreppe
100
AcDbCircle
 10
2582.291055555741
 20
3322.92524603681
 30
0.0
 40
1594.884274411786
100
AcDbArc
 50
191.3582864502455
 51
197.5280083800383
  0
ARC
  5
394
330
2
100
AcDbEntity
  8
Scherentreppe
100
AcDbCircle
 10
1029.427444465476
 20
3010.989355058221
 30
0.0
 40
11.0
100
AcDbArc
 50
24.92773442283835
 51
108.1430104365337
  0
ARC
  5
395
330
2
100
AcDbEntity
  8
Scherentreppe
100
AcDbCircle
 10
-406.9023336120944
 20
2343.422007641805
 30
0.0
 40
1594.884274411786
100
AcDbArc
 50
18.75801249308962
 51
24.92773442283835
  0
LINE
  5
396
330
2
100
AcDbEntity
  8
Plankopf
 62
     0
100
AcDbLine
 10
1297.6
 20
2082.0
 30
0.0
 11
1297.6
 21
2117.7632
 31
0.0
  0
TEXT
  5
397
330
2
100
AcDbEntity
  8
Plankopf
 62
     0
100
AcDbText
 10
1303.793488042719
 20
2108.986666666669
 30
0.0
 40
5.632
  1
Zeichnungs-Nr.
  7
TECHNICBOLD
100
AcDbText
  0
LINE
  5
398
330
2
100
AcDbEntity
  8
Beschriftung
100
AcDbLine
 10
1253.951999999999
 20
2207.4624
 30
0.0
 11
1353.951999999999
 21
2207.4624
 31
0.0
  0
MTEXT
  5
39A
330
2
100
AcDbEntity
  8
Beschriftung
 62
     1
100
AcDbMText
 10
1302.599288555453
 20
2219.723885714581
 30
0.0
 40
10.0
 41
0.0
 46
0.0
 71
     5
 72
     1
  1
\A1;10 cm
  7
Arial
 73
     1
 44
1.0
  0
LINE
  5
39C
330
2
100
AcDbEntity
  8
Beschriftung
100
AcDbLine
 10
1253.951999999999
 20
2210.462399999999
 30
0.0
 11
1253.951999999999
 21
2204.4624
 31
0.0
  0
LINE
  5
39D
330
2
100
AcDbEntity
  8
Beschriftung
100
AcDbLine
 10
1353.951999999999
 20
2210.462399999999
 30
0.0
 11
1353.951999999999
 21
2204.4624
 31
0.0
  0
TEXT
  5
39E
102
{ACAD_XDICTIONARY
360
39F
102
}
330
2
100
AcDbEntity
  8
Plankopf
 62
     0
100
AcDbText
 10
970.3284290714218
 20
2160.454276299163
 30
0.0
 40
7.5
  1
Stand: Mai 14
  7
TECHNICBOLD
100
AcDbText
1001
AcadAnnotative
1000
AnnotativeData
1002
{
1070
     1
1070
     0
1002
}
  0
HATCH
  5
3A2
330
2
100
AcDbEntity
  8
Bauseitig_Beton
100
AcDbHatch
 10
0.0
 20
0.0
 30
0.0
210
0.0
220
0.0
230
1.0
  2
ANSI31
 70
     0
 71
     1
 91
        1
 92
        7
 72
     0
 73
     1
 93
        4
 10
94.60336926743616
 20
2485.893391009475
 10
94.60336926743616
 20
2477.893391009475
 10
193.7999999999999
 20
2477.893391009475
 10
193.7999999999999
 20
2485.893391009475
 97
        1
330
3A3
 75
     1
 76
     1
 52
0.0
 41
50.0
 77
     0
 78
     1
 53
45.0
 43
2.500000000000227
 44
2050.0
 45
-4.419417382415921
 46
4.419417382415922
 79
     0
 47
0.2285218501967519
 98
        1
 10
155.1884594205369
 20
2483.606751253734
1001
GradientColor1ACI
1070
     5
1001
GradientColor2ACI
1070
     2
1001
ACAD
1010
0.0
1020
0.0
1030
0.0
  0
LWPOLYLINE
  5
3A3
102
{ACAD_REACTORS
330
3A2
102
}
330
2
100
AcDbEntity
  8
Bauseitig_Beton
100
AcDbPolyline
 90
        4
 70
     1
 43
0.0
 10
94.60336926743616
 20
2485.893391009475
 10
193.7999999999999
 20
2485.893391009475
 10
193.7999999999999
 20
2477.893391009475
 10
94.60336926743616
 20
2477.893391009475
  0
LWPOLYLINE
  5
3A4
102
{ACAD_REACTORS
330
66
102
}
330
2
100
AcDbEntity
  8
Bauseitig_Beton
100
AcDbPolyline
 90
        4
 70
     1
 43
0.0
 10
193.7999999999999
 20
2485.893391009476
 10
94.60336926743616
 20
2485.893391009476
 10
94.60336926743616
 20
2717.893391009476
 10
193.7999999999999
 20
2717.893391009476
  0
MTEXT
  5
3A5
102
{ACAD_XDICTIONARY
360
3A6
102
}
330
2
100
AcDbEntity
  8
Bauseitig_Beton
 62
     1
100
AcDbMText
 10
141.0427052818929
 20
2567.657454298599
 30
0.0
 40
10.0
 41
37.77744553950834
 46
0.0
 71
     1
 72
     5
  1
Beton
  7
TECHNICBOLD
 11
0.0000000000000001
 21
1.0
 31
0.0
 73
     1
 44
1.0
 90
        3
 63
   256
 45
1.199999999999999
441
        0
1001
AcadAnnotative
1000
AnnotativeData
1002
{
1070
     1
1070
     0
1002
}
1001
ACAD
1000
ACAD_MTEXT_COLUMN_INFO_BEGIN
1070
    75
1070
     2
1070
    79
1070
     0
1070
    76
1070
     1
1070
    78
1070
     0
1070
    48
1040
37.77744553950834
1070
    49
1040
17.5
1070
    50
1070
     1
1040
0.0
1000
ACAD_MTEXT_COLUMN_INFO_END
  0
LWPOLYLINE
  5
3A9
330
2
100
AcDbEntity
  8
Bauseitig_Beton
100
AcDbPolyline
 90
        4
 70
     1
 43
0.0
 10
193.7999999999999
 20
2717.893391009476
 10
201.2999999999999
 20
2717.893391009476
 10
201.2999999999999
 20
2485.893391009475
 10
193.7999999999999
 20
2485.893391009476
  0
ARC
  5
3AA
330
2
100
AcDbEntity
  8
Bauseitig_Beton
100
AcDbCircle
 10
195.7999999999999
 20
2717.888272625835
 30
0.0
 40
2.0
100
AcDbArc
 50
179.8533689496797
 51
270.0
  0
LINE
  5
3AB
330
2
100
AcDbEntity
  8
Bauseitig_Beton
100
AcDbLine
 10
199.2999999999999
 20
2717.888272625835
 30
0.0
 11
195.7999999999999
 21
2715.888272625835
 31
0.0
  0
ARC
  5
3AC
330
2
100
AcDbEntity
  8
Bauseitig_Beton
100
AcDbCircle
 10
199.2999999999999
 20
2715.888272625835
 30
0.0
 40
2.0
100
AcDbArc
 50
270.0
 51
90.0
  0
ARC
  5
3AD
330
2
100
AcDbEntity
  8
Bauseitig_Beton
100
AcDbCircle
 10
195.7999999999999
 20
2713.888272625835
 30
0.0
 40
2.0
100
AcDbArc
 50
90.0
 51
270.0
  0
LINE
  5
3AE
330
2
100
AcDbEntity
  8
Bauseitig_Beton
100
AcDbLine
 10
195.7999999999999
 20
2715.888272625835
 30
0.0
 11
199.2999999999999
 21
2713.888272625835
 31
0.0
  0
LINE
  5
3AF
330
2
100
AcDbEntity
  8
Bauseitig_Beton
100
AcDbLine
 10
199.2999999999999
 20
2713.888272625835
 30
0.0
 11
195.7999999999999
 21
2711.888272625835
 31
0.0
  0
ARC
  5
3B0
330
2
100
AcDbEntity
  8
Bauseitig_Beton
100
AcDbCircle
 10
199.2999999999999
 20
2711.888272625835
 30
0.0
 40
2.0
100
AcDbArc
 50
270.0
 51
90.0
  0
ARC
  5
3B1
330
2
100
AcDbEntity
  8
Bauseitig_Beton
100
AcDbCircle
 10
195.7999999999999
 20
2709.888272625835
 30
0.0
 40
2.0
100
AcDbArc
 50
90.0
 51
270.0
  0
LINE
  5
3B2
330
2
100
AcDbEntity
  8
Bauseitig_Beton
100
AcDbLine
 10
195.7999999999999
 20
2711.888272625835
 30
0.0
 11
199.2999999999999
 21
2709.888272625835
 31
0.0
  0
LINE
  5
3B3
330
2
100
AcDbEntity
  8
Bauseitig_Beton
100
AcDbLine
 10
199.2999999999999
 20
2709.888272625835
 30
0.0
 11
195.7999999999999
 21
2707.888272625835
 31
0.0
  0
ARC
  5
3B4
330
2
100
AcDbEntity
  8
Bauseitig_Beton
100
AcDbCircle
 10
199.2999999999999
 20
2707.888272625835
 30
0.0
 40
2.0
100
AcDbArc
 50
270.0
 51
90.0
  0
ARC
  5
3B5
330
2
100
AcDbEntity
  8
Bauseitig_Beton
100
AcDbCircle
 10
195.7999999999999
 20
2705.888272625835
 30
0.0
 40
2.0
100
AcDbArc
 50
90.0
 51
270.0
  0
LINE
  5
3B6
330
2
100
AcDbEntity
  8
Bauseitig_Beton
100
AcDbLine
 10
195.7999999999999
 20
2707.888272625835
 30
0.0
 11
199.2999999999999
 21
2705.888272625835
 31
0.0
  0
LINE
  5
3B7
330
2
100
AcDbEntity
  8
Bauseitig_Beton
100
AcDbLine
 10
199.2999999999999
 20
2705.888272625835
 30
0.0
 11
195.7999999999999
 21
2703.888272625835
 31
0.0
  0
ARC
  5
3B8
330
2
100
AcDbEntity
  8
Bauseitig_Beton
100
AcDbCircle
 10
199.2999999999999
 20
2703.888272625835
 30
0.0
 40
2.0
100
AcDbArc
 50
270.0
 51
90.0
  0
ARC
  5
3B9
330
2
100
AcDbEntity
  8
Bauseitig_Beton
100
AcDbCircle
 10
195.7999999999999
 20
2701.888272625835
 30
0.0
 40
2.0
100
AcDbArc
 50
90.0
 51
270.0
  0
LINE
  5
3BA
330
2
100
AcDbEntity
  8
Bauseitig_Beton
100
AcDbLine
 10
195.7999999999999
 20
2703.888272625835
 30
0.0
 11
199.2999999999999
 21
2701.888272625835
 31
0.0
  0
LINE
  5
3BB
330
2
100
AcDbEntity
  8
Bauseitig_Beton
100
AcDbLine
 10
199.2999999999999
 20
2701.888272625835
 30
0.0
 11
195.7999999999999
 21
2699.888272625835
 31
0.0
  0
ARC
  5
3BC
330
2
100
AcDbEntity
  8
Bauseitig_Beton
100
AcDbCircle
 10
199.2999999999999
 20
2699.888272625835
 30
0.0
 40
2.0
100
AcDbArc
 50
270.0
 51
90.0
  0
ARC
  5
3BD
330
2
100
AcDbEntity
  8
Bauseitig_Beton
100
AcDbCircle
 10
195.7999999999999
 20
2697.888272625835
 30
0.0
 40
2.0
100
AcDbArc
 50
90.0
 51
270.0
  0
LINE
  5
3BE
330
2
100
AcDbEntity
  8
Bauseitig_Beton
100
AcDbLine
 10
195.7999999999999
 20
2699.888272625835
 30
0.0
 11
199.2999999999999
 21
2697.888272625835
 31
0.0
  0
LINE
  5
3BF
330
2
100
AcDbEntity
  8
Bauseitig_Beton
100
AcDbLine
 10
199.2999999999999
 20
2697.888272625835
 30
0.0
 11
195.7999999999999
 21
2695.888272625835
 31
0.0
  0
ARC
  5
3C0
330
2
100
AcDbEntity
  8
Bauseitig_Beton
100
AcDbCircle
 10
199.2999999999999
 20
2695.888272625835
 30
0.0
 40
2.0
100
AcDbArc
 50
270.0
 51
90.0
  0
ARC
  5
3C1
330
2
100
AcDbEntity
  8
Bauseitig_Beton
100
AcDbCircle
 10
195.7999999999999
 20
2693.888272625835
 30
0.0
 40
2.0
100
AcDbArc
 50
90.0
 51
270.0
  0
LINE
  5
3C2
330
2
100
AcDbEntity
  8
Bauseitig_Beton
100
AcDbLine
 10
195.7999999999999
 20
2695.888272625835
 30
0.0
 11
199.2999999999999
 21
2693.888272625835
 31
0.0
  0
LINE
  5
3C3
330
2
100
AcDbEntity
  8
Bauseitig_Beton
100
AcDbLine
 10
199.2999999999999
 20
2693.888272625835
 30
0.0
 11
195.7999999999999
 21
2691.888272625835
 31
0.0
  0
ARC
  5
3C4
330
2
100
AcDbEntity
  8
Bauseitig_Beton
100
AcDbCircle
 10
199.2999999999999
 20
2691.888272625835
 30
0.0
 40
2.0
100
AcDbArc
 50
270.0
 51
90.0
  0
ARC
  5
3C5
330
2
100
AcDbEntity
  8
Bauseitig_Beton
100
AcDbCircle
 10
195.7999999999999
 20
2689.888272625835
 30
0.0
 40
2.0
100
AcDbArc
 50
90.0
 51
270.0
  0
LINE
  5
3C6
330
2
100
AcDbEntity
  8
Bauseitig_Beton
100
AcDbLine
 10
195.7999999999999
 20
2691.888272625835
 30
0.0
 11
199.2999999999999
 21
2689.888272625835
 31
0.0
  0
LINE
  5
3C7
330
2
100
AcDbEntity
  8
Bauseitig_Beton
100
AcDbLine
 10
199.2999999999999
 20
2689.888272625835
 30
0.0
 11
195.7999999999999
 21
2687.888272625835
 31
0.0
  0
ARC
  5
3C8
330
2
100
AcDbEntity
  8
Bauseitig_Beton
100
AcDbCircle
 10
199.2999999999999
 20
2687.888272625835
 30
0.0
 40
2.0
100
AcDbArc
 50
270.0
 51
90.0
  0
ARC
  5
3C9
330
2
100
AcDbEntity
  8
Bauseitig_Beton
100
AcDbCircle
 10
195.7999999999999
 20
2685.888272625835
 30
0.0
 40
2.0
100
AcDbArc
 50
90.0
 51
270.0
  0
LINE
  5
3CA
330
2
100
AcDbEntity
  8
Bauseitig_Beton
100
AcDbLine
 10
195.7999999999999
 20
2687.888272625835
 30
0.0
 11
199.2999999999999
 21
2685.888272625835
 31
0.0
  0
LINE
  5
3CB
330
2
100
AcDbEntity
  8
Bauseitig_Beton
100
AcDbLine
 10
199.2999999999999
 20
2685.888272625835
 30
0.0
 11
195.7999999999999
 21
2683.888272625835
 31
0.0
  0
ARC
  5
3CC
330
2
100
AcDbEntity
  8
Bauseitig_Beton
100
AcDbCircle
 10
199.2999999999999
 20
2683.888272625835
 30
0.0
 40
2.0
100
AcDbArc
 50
270.0
 51
90.0
  0
ARC
  5
3CD
330
2
100
AcDbEntity
  8
Bauseitig_Beton
100
AcDbCircle
 10
195.7999999999999
 20
2681.888272625835
 30
0.0
 40
2.0
100
AcDbArc
 50
90.0
 51
270.0
  0
LINE
  5
3CE
330
2
100
AcDbEntity
  8
Bauseitig_Beton
100
AcDbLine
 10
195.7999999999999
 20
2683.888272625835
 30
0.0
 11
199.2999999999999
 21
2681.888272625835
 31
0.0
  0
LINE
  5
3CF
330
2
100
AcDbEntity
  8
Bauseitig_Beton
100
AcDbLine
 10
199.2999999999999
 20
2681.888272625835
 30
0.0
 11
195.7999999999999
 21
2679.888272625835
 31
0.0
  0
ARC
  5
3D0
330
2
100
AcDbEntity
  8
Bauseitig_Beton
100
AcDbCircle
 10
199.2999999999999
 20
2679.888272625835
 30
0.0
 40
2.0
100
AcDbArc
 50
270.0
 51
90.0
  0
ARC
  5
3D1
330
2
100
AcDbEntity
  8
Bauseitig_Beton
100
AcDbCircle
 10
195.7999999999999
 20
2677.888272625835
 30
0.0
 40
2.0
100
AcDbArc
 50
90.0
 51
270.0
  0
LINE
  5
3D2
330
2
100
AcDbEntity
  8
Bauseitig_Beton
100
AcDbLine
 10
195.7999999999999
 20
2679.888272625835
 30
0.0
 11
199.2999999999999
 21
2677.888272625835
 31
0.0
  0
LINE
  5
3D3
330
2
100
AcDbEntity
  8
Bauseitig_Beton
100
AcDbLine
 10
199.2999999999999
 20
2677.888272625835
 30
0.0
 11
195.7999999999999
 21
2675.888272625835
 31
0.0
  0
ARC
  5
3D4
330
2
100
AcDbEntity
  8
Bauseitig_Beton
100
AcDbCircle
 10
199.2999999999999
 20
2675.888272625835
 30
0.0
 40
2.0
100
AcDbArc
 50
270.0
 51
90.0
  0
ARC
  5
3D5
330
2
100
AcDbEntity
  8
Bauseitig_Beton
100
AcDbCircle
 10
195.7999999999999
 20
2673.888272625835
 30
0.0
 40
2.0
100
AcDbArc
 50
90.0
 51
270.0
  0
LINE
  5
3D6
330
2
100
AcDbEntity
  8
Bauseitig_Beton
100
AcDbLine
 10
195.7999999999999
 20
2675.888272625835
 30
0.0
 11
199.2999999999999
 21
2673.888272625835
 31
0.0
  0
LINE
  5
3D7
330
2
100
AcDbEntity
  8
Bauseitig_Beton
100
AcDbLine
 10
199.2999999999999
 20
2673.888272625835
 30
0.0
 11
195.7999999999999
 21
2671.888272625835
 31
0.0
  0
ARC
  5
3D8
330
2
100
AcDbEntity
  8
Bauseitig_Beton
100
AcDbCircle
 10
199.2999999999999
 20
2671.888272625835
 30
0.0
 40
2.0
100
AcDbArc
 50
270.0
 51
90.0
  0
ARC
  5
3D9
330
2
100
AcDbEntity
  8
Bauseitig_Beton
100
AcDbCircle
 10
195.7999999999999
 20
2669.888272625835
 30
0.0
 40
2.0
100
AcDbArc
 50
90.0
 51
270.0
  0
LINE
  5
3DA
330
2
100
AcDbEntity
  8
Bauseitig_Beton
100
AcDbLine
 10
195.7999999999999
 20
2671.888272625835
 30
0.0
 11
199.2999999999999
 21
2669.888272625835
 31
0.0
  0
LINE
  5
3DB
330
2
100
AcDbEntity
  8
Bauseitig_Beton
100
AcDbLine
 10
199.2999999999999
 20
2669.888272625835
 30
0.0
 11
195.7999999999999
 21
2667.888272625835
 31
0.0
  0
ARC
  5
3DC
330
2
100
AcDbEntity
  8
Bauseitig_Beton
100
AcDbCircle
 10
199.2999999999999
 20
2667.888272625835
 30
0.0
 40
2.0
100
AcDbArc
 50
270.0
 51
90.0
  0
ARC
  5
3DD
330
2
100
AcDbEntity
  8
Bauseitig_Beton
100
AcDbCircle
 10
195.7999999999999
 20
2665.888272625835
 30
0.0
 40
2.0
100
AcDbArc
 50
90.0
 51
270.0
  0
LINE
  5
3DE
330
2
100
AcDbEntity
  8
Bauseitig_Beton
100
AcDbLine
 10
195.7999999999999
 20
2667.888272625835
 30
0.0
 11
199.2999999999999
 21
2665.888272625835
 31
0.0
  0
LINE
  5
3DF
330
2
100
AcDbEntity
  8
Bauseitig_Beton
100
AcDbLine
 10
199.2999999999999
 20
2665.888272625835
 30
0.0
 11
195.7999999999999
 21
2663.888272625835
 31
0.0
  0
ARC
  5
3E0
330
2
100
AcDbEntity
  8
Bauseitig_Beton
100
AcDbCircle
 10
199.2999999999999
 20
2663.888272625835
 30
0.0
 40
2.0
100
AcDbArc
 50
339.0568897684515
 51
90.0
  0
ARC
  5
3E1
330
2
100
AcDbEntity
  8
Bauseitig_Beton
100
AcDbCircle
 10
195.7999999999999
 20
2661.888272625835
 30
0.0
 40
2.0
100
AcDbArc
 50
90.0
 51
140.0170822246424
  0
LINE
  5
3E2
330
2
100
AcDbEntity
  8
Bauseitig_Beton
100
AcDbLine
 10
195.7999999999999
 20
2663.888272625835
 30
0.0
 11
197.0510428286404
 21
2663.173391009469
 31
0.0
  0
ARC
  5
3E3
330
2
100
AcDbEntity
  8
Bauseitig_Beton
100
AcDbCircle
 10
199.2999999999999
 20
2587.888272625835
 30
0.0
 40
2.0
100
AcDbArc
 50
270.0
 51
339.0568897684515
  0
ARC
  5
3E4
330
2
100
AcDbEntity
  8
Bauseitig_Beton
100
AcDbCircle
 10
195.7999999999999
 20
2585.888272625835
 30
0.0
 40
2.0
100
AcDbArc
 50
140.0170822246424
 51
270.0
  0
LINE
  5
3E5
330
2
100
AcDbEntity
  8
Bauseitig_Beton
100
AcDbLine
 10
197.0510428286404
 20
2587.173391009469
 30
0.0
 11
199.2999999999999
 21
2585.888272625835
 31
0.0
  0
LINE
  5
3E6
330
2
100
AcDbEntity
  8
Bauseitig_Beton
100
AcDbLine
 10
199.2999999999999
 20
2585.888272625835
 30
0.0
 11
195.7999999999999
 21
2583.888272625835
 31
0.0
  0
ARC
  5
3E7
330
2
100
AcDbEntity
  8
Bauseitig_Beton
100
AcDbCircle
 10
199.2999999999999
 20
2583.888272625835
 30
0.0
 40
2.0
100
AcDbArc
 50
270.0
 51
90.0
  0
ARC
  5
3E8
330
2
100
AcDbEntity
  8
Bauseitig_Beton
100
AcDbCircle
 10
195.7999999999999
 20
2581.888272625835
 30
0.0
 40
2.0
100
AcDbArc
 50
90.0
 51
270.0
  0
LINE
  5
3E9
330
2
100
AcDbEntity
  8
Bauseitig_Beton
100
AcDbLine
 10
195.7999999999999
 20
2583.888272625835
 30
0.0
 11
199.2999999999999
 21
2581.888272625835
 31
0.0
  0
LINE
  5
3EA
330
2
100
AcDbEntity
  8
Bauseitig_Beton
100
AcDbLine
 10
199.2999999999999
 20
2581.888272625835
 30
0.0
 11
195.7999999999999
 21
2579.888272625835
 31
0.0
  0
ARC
  5
3EB
330
2
100
AcDbEntity
  8
Bauseitig_Beton
100
AcDbCircle
 10
199.2999999999999
 20
2579.888272625835
 30
0.0
 40
2.0
100
AcDbArc
 50
270.0
 51
90.0
  0
ARC
  5
3EC
330
2
100
AcDbEntity
  8
Bauseitig_Beton
100
AcDbCircle
 10
195.7999999999999
 20
2577.888272625835
 30
0.0
 40
2.0
100
AcDbArc
 50
90.0
 51
270.0
  0
LINE
  5
3ED
330
2
100
AcDbEntity
  8
Bauseitig_Beton
100
AcDbLine
 10
195.7999999999999
 20
2579.888272625835
 30
0.0
 11
199.2999999999999
 21
2577.888272625835
 31
0.0
  0
LINE
  5
3EE
330
2
100
AcDbEntity
  8
Bauseitig_Beton
100
AcDbLine
 10
199.2999999999999
 20
2577.888272625835
 30
0.0
 11
195.7999999999999
 21
2575.888272625835
 31
0.0
  0
ARC
  5
3EF
330
2
100
AcDbEntity
  8
Bauseitig_Beton
100
AcDbCircle
 10
199.2999999999999
 20
2575.888272625835
 30
0.0
 40
2.0
100
AcDbArc
 50
270.0
 51
90.0
  0
ARC
  5
3F0
330
2
100
AcDbEntity
  8
Bauseitig_Beton
100
AcDbCircle
 10
195.7999999999999
 20
2573.888272625835
 30
0.0
 40
2.0
100
AcDbArc
 50
90.0
 51
270.0
  0
LINE
  5
3F1
330
2
100
AcDbEntity
  8
Bauseitig_Beton
100
AcDbLine
 10
195.7999999999999
 20
2575.888272625835
 30
0.0
 11
199.2999999999999
 21
2573.888272625835
 31
0.0
  0
LINE
  5
3F2
330
2
100
AcDbEntity
  8
Bauseitig_Beton
100
AcDbLine
 10
199.2999999999999
 20
2573.888272625835
 30
0.0
 11
195.7999999999999
 21
2571.888272625835
 31
0.0
  0
ARC
  5
3F3
330
2
100
AcDbEntity
  8
Bauseitig_Beton
100
AcDbCircle
 10
199.2999999999999
 20
2571.888272625835
 30
0.0
 40
2.0
100
AcDbArc
 50
270.0
 51
90.0
  0
ARC
  5
3F4
330
2
100
AcDbEntity
  8
Bauseitig_Beton
100
AcDbCircle
 10
195.7999999999999
 20
2569.888272625835
 30
0.0
 40
2.0
100
AcDbArc
 50
90.0
 51
270.0
  0
LINE
  5
3F5
330
2
100
AcDbEntity
  8
Bauseitig_Beton
100
AcDbLine
 10
195.7999999999999
 20
2571.888272625835
 30
0.0
 11
199.2999999999999
 21
2569.888272625835
 31
0.0
  0
LINE
  5
3F6
330
2
100
AcDbEntity
  8
Bauseitig_Beton
100
AcDbLine
 10
199.2999999999999
 20
2569.888272625835
 30
0.0
 11
195.7999999999999
 21
2567.888272625835
 31
0.0
  0
ARC
  5
3F7
330
2
100
AcDbEntity
  8
Bauseitig_Beton
100
AcDbCircle
 10
199.2999999999999
 20
2567.888272625835
 30
0.0
 40
2.0
100
AcDbArc
 50
270.0
 51
90.0
  0
ARC
  5
3F8
330
2
100
AcDbEntity
  8
Bauseitig_Beton
100
AcDbCircle
 10
195.7999999999999
 20
2565.888272625835
 30
0.0
 40
2.0
100
AcDbArc
 50
90.0
 51
270.0
  0
LINE
  5
3F9
330
2
100
AcDbEntity
  8
Bauseitig_Beton
100
AcDbLine
 10
195.7999999999999
 20
2567.888272625835
 30
0.0
 11
199.2999999999999
 21
2565.888272625835
 31
0.0
  0
LINE
  5
3FA
330
2
100
AcDbEntity
  8
Bauseitig_Beton
100
AcDbLine
 10
199.2999999999999
 20
2565.888272625835
 30
0.0
 11
195.7999999999999
 21
2563.888272625835
 31
0.0
  0
ARC
  5
3FB
330
2
100
AcDbEntity
  8
Bauseitig_Beton
100
AcDbCircle
 10
199.2999999999999
 20
2563.888272625835
 30
0.0
 40
2.0
100
AcDbArc
 50
270.0
 51
90.0
  0
ARC
  5
3FC
330
2
100
AcDbEntity
  8
Bauseitig_Beton
100
AcDbCircle
 10
195.7999999999999
 20
2561.888272625835
 30
0.0
 40
2.0
100
AcDbArc
 50
90.0
 51
270.0
  0
LINE
  5
3FD
330
2
100
AcDbEntity
  8
Bauseitig_Beton
100
AcDbLine
 10
195.7999999999999
 20
2563.888272625835
 30
0.0
 11
199.2999999999999
 21
2561.888272625835
 31
0.0
  0
LINE
  5
3FE
330
2
100
AcDbEntity
  8
Bauseitig_Beton
100
AcDbLine
 10
199.2999999999999
 20
2561.888272625835
 30
0.0
 11
195.7999999999999
 21
2559.888272625835
 31
0.0
  0
ARC
  5
3FF
330
2
100
AcDbEntity
  8
Bauseitig_Beton
100
AcDbCircle
 10
199.2999999999999
 20
2559.888272625835
 30
0.0
 40
2.0
100
AcDbArc
 50
270.0
 51
90.0
  0
ARC
  5
400
330
2
100
AcDbEntity
  8
Bauseitig_Beton
100
AcDbCircle
 10
195.7999999999999
 20
2557.888272625835
 30
0.0
 40
2.0
100
AcDbArc
 50
90.0
 51
270.0
  0
LINE
  5
401
330
2
100
AcDbEntity
  8
Bauseitig_Beton
100
AcDbLine
 10
195.7999999999999
 20
2559.888272625835
 30
0.0
 11
199.2999999999999
 21
2557.888272625835
 31
0.0
  0
LINE
  5
402
330
2
100
AcDbEntity
  8
Bauseitig_Beton
100
AcDbLine
 10
199.2999999999999
 20
2557.888272625835
 30
0.0
 11
195.7999999999999
 21
2555.888272625835
 31
0.0
  0
ARC
  5
403
330
2
100
AcDbEntity
  8
Bauseitig_Beton
100
AcDbCircle
 10
199.2999999999999
 20
2555.888272625835
 30
0.0
 40
2.0
100
AcDbArc
 50
270.0
 51
90.0
  0
ARC
  5
404
330
2
100
AcDbEntity
  8
Bauseitig_Beton
100
AcDbCircle
 10
195.7999999999999
 20
2553.888272625835
 30
0.0
 40
2.0
100
AcDbArc
 50
90.0
 51
270.0
  0
LINE
  5
405
330
2
100
AcDbEntity
  8
Bauseitig_Beton
100
AcDbLine
 10
195.7999999999999
 20
2555.888272625835
 30
0.0
 11
199.2999999999999
 21
2553.888272625835
 31
0.0
  0
LINE
  5
406
330
2
100
AcDbEntity
  8
Bauseitig_Beton
100
AcDbLine
 10
199.2999999999999
 20
2553.888272625835
 30
0.0
 11
195.7999999999999
 21
2551.888272625835
 31
0.0
  0
ARC
  5
407
330
2
100
AcDbEntity
  8
Bauseitig_Beton
100
AcDbCircle
 10
199.2999999999999
 20
2551.888272625835
 30
0.0
 40
2.0
100
AcDbArc
 50
270.0
 51
90.0
  0
ARC
  5
408
330
2
100
AcDbEntity
  8
Bauseitig_Beton
100
AcDbCircle
 10
195.7999999999999
 20
2549.888272625835
 30
0.0
 40
2.0
100
AcDbArc
 50
90.0
 51
270.0
  0
LINE
  5
409
330
2
100
AcDbEntity
  8
Bauseitig_Beton
100
AcDbLine
 10
195.7999999999999
 20
2551.888272625835
 30
0.0
 11
199.2999999999999
 21
2549.888272625835
 31
0.0
  0
LINE
  5
40A
330
2
100
AcDbEntity
  8
Bauseitig_Beton
100
AcDbLine
 10
199.2999999999999
 20
2549.888272625835
 30
0.0
 11
195.7999999999999
 21
2547.888272625835
 31
0.0
  0
ARC
  5
40B
330
2
100
AcDbEntity
  8
Bauseitig_Beton
100
AcDbCircle
 10
199.2999999999999
 20
2547.888272625835
 30
0.0
 40
2.0
100
AcDbArc
 50
270.0
 51
90.0
  0
ARC
  5
40C
330
2
100
AcDbEntity
  8
Bauseitig_Beton
100
AcDbCircle
 10
195.7999999999999
 20
2545.888272625835
 30
0.0
 40
2.0
100
AcDbArc
 50
90.0
 51
270.0
  0
LINE
  5
40D
330
2
100
AcDbEntity
  8
Bauseitig_Beton
100
AcDbLine
 10
195.7999999999999
 20
2547.888272625835
 30
0.0
 11
199.2999999999999
 21
2545.888272625835
 31
0.0
  0
LINE
  5
40E
330
2
100
AcDbEntity
  8
Bauseitig_Beton
100
AcDbLine
 10
199.2999999999999
 20
2545.888272625835
 30
0.0
 11
195.7999999999999
 21
2543.888272625835
 31
0.0
  0
ARC
  5
40F
330
2
100
AcDbEntity
  8
Bauseitig_Beton
100
AcDbCircle
 10
199.2999999999999
 20
2543.888272625835
 30
0.0
 40
2.0
100
AcDbArc
 50
270.0
 51
90.0
  0
ARC
  5
410
330
2
100
AcDbEntity
  8
Bauseitig_Beton
100
AcDbCircle
 10
195.7999999999999
 20
2541.888272625835
 30
0.0
 40
2.0
100
AcDbArc
 50
90.0
 51
270.0
  0
LINE
  5
411
330
2
100
AcDbEntity
  8
Bauseitig_Beton
100
AcDbLine
 10
195.7999999999999
 20
2543.888272625835
 30
0.0
 11
199.2999999999999
 21
2541.888272625835
 31
0.0
  0
LINE
  5
412
330
2
100
AcDbEntity
  8
Bauseitig_Beton
100
AcDbLine
 10
199.2999999999999
 20
2541.888272625835
 30
0.0
 11
195.7999999999999
 21
2539.888272625835
 31
0.0
  0
ARC
  5
413
330
2
100
AcDbEntity
  8
Bauseitig_Beton
100
AcDbCircle
 10
199.2999999999999
 20
2539.888272625835
 30
0.0
 40
2.0
100
AcDbArc
 50
270.0
 51
90.0
  0
ARC
  5
414
330
2
100
AcDbEntity
  8
Bauseitig_Beton
100
AcDbCircle
 10
195.7999999999999
 20
2537.888272625835
 30
0.0
 40
2.0
100
AcDbArc
 50
90.0
 51
270.0
  0
LINE
  5
415
330
2
100
AcDbEntity
  8
Bauseitig_Beton
100
AcDbLine
 10
195.7999999999999
 20
2539.888272625835
 30
0.0
 11
199.2999999999999
 21
2537.888272625835
 31
0.0
  0
LINE
  5
416
330
2
100
AcDbEntity
  8
Bauseitig_Beton
100
AcDbLine
 10
199.2999999999999
 20
2537.888272625835
 30
0.0
 11
195.7999999999999
 21
2535.888272625835
 31
0.0
  0
ARC
  5
417
330
2
100
AcDbEntity
  8
Bauseitig_Beton
100
AcDbCircle
 10
199.2999999999999
 20
2535.888272625835
 30
0.0
 40
2.0
100
AcDbArc
 50
270.0
 51
90.0
  0
ARC
  5
418
330
2
100
AcDbEntity
  8
Bauseitig_Beton
100
AcDbCircle
 10
195.7999999999999
 20
2533.888272625835
 30
0.0
 40
2.0
100
AcDbArc
 50
90.0
 51
270.0
  0
LINE
  5
419
330
2
100
AcDbEntity
  8
Bauseitig_Beton
100
AcDbLine
 10
195.7999999999999
 20
2535.888272625835
 30
0.0
 11
199.2999999999999
 21
2533.888272625835
 31
0.0
  0
LINE
  5
41A
330
2
100
AcDbEntity
  8
Bauseitig_Beton
100
AcDbLine
 10
199.2999999999999
 20
2533.888272625835
 30
0.0
 11
195.7999999999999
 21
2531.888272625835
 31
0.0
  0
ARC
  5
41B
330
2
100
AcDbEntity
  8
Bauseitig_Beton
100
AcDbCircle
 10
199.2999999999999
 20
2531.888272625835
 30
0.0
 40
2.0
100
AcDbArc
 50
270.0
 51
90.0
  0
ARC
  5
41C
330
2
100
AcDbEntity
  8
Bauseitig_Beton
100
AcDbCircle
 10
195.7999999999999
 20
2529.888272625835
 30
0.0
 40
2.0
100
AcDbArc
 50
90.0
 51
270.0
  0
LINE
  5
41D
330
2
100
AcDbEntity
  8
Bauseitig_Beton
100
AcDbLine
 10
195.7999999999999
 20
2531.888272625835
 30
0.0
 11
199.2999999999999
 21
2529.888272625835
 31
0.0
  0
LINE
  5
41E
330
2
100
AcDbEntity
  8
Bauseitig_Beton
100
AcDbLine
 10
199.2999999999999
 20
2529.888272625835
 30
0.0
 11
195.7999999999999
 21
2527.888272625835
 31
0.0
  0
ARC
  5
41F
330
2
100
AcDbEntity
  8
Bauseitig_Beton
100
AcDbCircle
 10
199.2999999999999
 20
2527.888272625835
 30
0.0
 40
2.0
100
AcDbArc
 50
270.0
 51
90.0
  0
ARC
  5
420
330
2
100
AcDbEntity
  8
Bauseitig_Beton
100
AcDbCircle
 10
195.7999999999999
 20
2525.888272625835
 30
0.0
 40
2.0
100
AcDbArc
 50
90.0
 51
270.0
  0
LINE
  5
421
330
2
100
AcDbEntity
  8
Bauseitig_Beton
100
AcDbLine
 10
195.7999999999999
 20
2527.888272625835
 30
0.0
 11
199.2999999999999
 21
2525.888272625835
 31
0.0
  0
LINE
  5
422
330
2
100
AcDbEntity
  8
Bauseitig_Beton
100
AcDbLine
 10
199.2999999999999
 20
2525.888272625835
 30
0.0
 11
195.7999999999999
 21
2523.888272625835
 31
0.0
  0
ARC
  5
423
330
2
100
AcDbEntity
  8
Bauseitig_Beton
100
AcDbCircle
 10
199.2999999999999
 20
2523.888272625835
 30
0.0
 40
2.0
100
AcDbArc
 50
270.0
 51
90.0
  0
ARC
  5
424
330
2
100
AcDbEntity
  8
Bauseitig_Beton
100
AcDbCircle
 10
195.7999999999999
 20
2521.888272625835
 30
0.0
 40
2.0
100
AcDbArc
 50
90.0
 51
270.0
  0
LINE
  5
425
330
2
100
AcDbEntity
  8
Bauseitig_Beton
100
AcDbLine
 10
195.7999999999999
 20
2523.888272625835
 30
0.0
 11
199.2999999999999
 21
2521.888272625835
 31
0.0
  0
LINE
  5
426
330
2
100
AcDbEntity
  8
Bauseitig_Beton
100
AcDbLine
 10
199.2999999999999
 20
2521.888272625835
 30
0.0
 11
195.7999999999999
 21
2519.888272625835
 31
0.0
  0
ARC
  5
427
330
2
100
AcDbEntity
  8
Bauseitig_Beton
100
AcDbCircle
 10
199.2999999999999
 20
2519.888272625835
 30
0.0
 40
2.0
100
AcDbArc
 50
270.0
 51
90.0
  0
ARC
  5
428
330
2
100
AcDbEntity
  8
Bauseitig_Beton
100
AcDbCircle
 10
195.7999999999999
 20
2517.888272625835
 30
0.0
 40
2.0
100
AcDbArc
 50
90.0
 51
270.0
  0
LINE
  5
429
330
2
100
AcDbEntity
  8
Bauseitig_Beton
100
AcDbLine
 10
195.7999999999999
 20
2519.888272625835
 30
0.0
 11
199.2999999999999
 21
2517.888272625835
 31
0.0
  0
LINE
  5
42A
330
2
100
AcDbEntity
  8
Bauseitig_Beton
100
AcDbLine
 10
199.2999999999999
 20
2517.888272625835
 30
0.0
 11
195.7999999999999
 21
2515.888272625835
 31
0.0
  0
ARC
  5
42B
330
2
100
AcDbEntity
  8
Bauseitig_Beton
100
AcDbCircle
 10
199.2999999999999
 20
2515.888272625835
 30
0.0
 40
2.0
100
AcDbArc
 50
270.0
 51
90.0
  0
ARC
  5
42C
330
2
100
AcDbEntity
  8
Bauseitig_Beton
100
AcDbCircle
 10
195.7999999999999
 20
2513.888272625835
 30
0.0
 40
2.0
100
AcDbArc
 50
90.0
 51
270.0
  0
LINE
  5
42D
330
2
100
AcDbEntity
  8
Bauseitig_Beton
100
AcDbLine
 10
195.7999999999999
 20
2515.888272625835
 30
0.0
 11
199.2999999999999
 21
2513.888272625835
 31
0.0
  0
LINE
  5
42E
330
2
100
AcDbEntity
  8
Bauseitig_Beton
100
AcDbLine
 10
199.2999999999999
 20
2513.888272625835
 30
0.0
 11
195.7999999999999
 21
2511.888272625835
 31
0.0
  0
ARC
  5
42F
330
2
100
AcDbEntity
  8
Bauseitig_Beton
100
AcDbCircle
 10
199.2999999999999
 20
2511.888272625835
 30
0.0
 40
2.0
100
AcDbArc
 50
270.0
 51
90.0
  0
ARC
  5
430
330
2
100
AcDbEntity
  8
Bauseitig_Beton
100
AcDbCircle
 10
195.7999999999999
 20
2509.888272625835
 30
0.0
 40
2.0
100
AcDbArc
 50
90.0
 51
270.0
  0
LINE
  5
431
330
2
100
AcDbEntity
  8
Bauseitig_Beton
100
AcDbLine
 10
195.7999999999999
 20
2511.888272625835
 30
0.0
 11
199.2999999999999
 21
2509.888272625835
 31
0.0
  0
LINE
  5
432
330
2
100
AcDbEntity
  8
Bauseitig_Beton
100
AcDbLine
 10
199.2999999999999
 20
2509.888272625835
 30
0.0
 11
195.7999999999999
 21
2507.888272625835
 31
0.0
  0
ARC
  5
433
330
2
100
AcDbEntity
  8
Bauseitig_Beton
100
AcDbCircle
 10
199.2999999999999
 20
2507.888272625835
 30
0.0
 40
2.0
100
AcDbArc
 50
270.0
 51
90.0
  0
ARC
  5
434
330
2
100
AcDbEntity
  8
Bauseitig_Beton
100
AcDbCircle
 10
195.7999999999999
 20
2505.888272625835
 30
0.0
 40
2.0
100
AcDbArc
 50
90.0
 51
270.0
  0
LINE
  5
435
330
2
100
AcDbEntity
  8
Bauseitig_Beton
100
AcDbLine
 10
195.7999999999999
 20
2507.888272625835
 30
0.0
 11
199.2999999999999
 21
2505.888272625835
 31
0.0
  0
LINE
  5
436
330
2
100
AcDbEntity
  8
Bauseitig_Beton
100
AcDbLine
 10
199.2999999999999
 20
2505.888272625835
 30
0.0
 11
195.7999999999999
 21
2503.888272625835
 31
0.0
  0
ARC
  5
437
330
2
100
AcDbEntity
  8
Bauseitig_Beton
100
AcDbCircle
 10
199.2999999999999
 20
2503.888272625835
 30
0.0
 40
2.0
100
AcDbArc
 50
270.0
 51
90.0
  0
ARC
  5
438
330
2
100
AcDbEntity
  8
Bauseitig_Beton
100
AcDbCircle
 10
195.7999999999999
 20
2501.888272625835
 30
0.0
 40
2.0
100
AcDbArc
 50
90.0
 51
270.0
  0
LINE
  5
439
330
2
100
AcDbEntity
  8
Bauseitig_Beton
100
AcDbLine
 10
195.7999999999999
 20
2503.888272625835
 30
0.0
 11
199.2999999999999
 21
2501.888272625835
 31
0.0
  0
LINE
  5
43A
330
2
100
AcDbEntity
  8
Bauseitig_Beton
100
AcDbLine
 10
199.2999999999999
 20
2501.888272625835
 30
0.0
 11
195.7999999999999
 21
2499.888272625835
 31
0.0
  0
ARC
  5
43B
330
2
100
AcDbEntity
  8
Bauseitig_Beton
100
AcDbCircle
 10
199.2999999999999
 20
2499.888272625835
 30
0.0
 40
2.0
100
AcDbArc
 50
270.0
 51
90.0
  0
ARC
  5
43C
330
2
100
AcDbEntity
  8
Bauseitig_Beton
100
AcDbCircle
 10
195.7999999999999
 20
2497.888272625835
 30
0.0
 40
2.0
100
AcDbArc
 50
90.0
 51
270.0
  0
LINE
  5
43D
330
2
100
AcDbEntity
  8
Bauseitig_Beton
100
AcDbLine
 10
195.7999999999999
 20
2499.888272625835
 30
0.0
 11
199.2999999999999
 21
2497.888272625835
 31
0.0
  0
LINE
  5
43E
330
2
100
AcDbEntity
  8
Bauseitig_Beton
100
AcDbLine
 10
199.2999999999999
 20
2497.888272625835
 30
0.0
 11
195.7999999999999
 21
2495.888272625835
 31
0.0
  0
ARC
  5
43F
330
2
100
AcDbEntity
  8
Bauseitig_Beton
100
AcDbCircle
 10
199.2999999999999
 20
2495.888272625835
 30
0.0
 40
2.0
100
AcDbArc
 50
270.0
 51
90.0
  0
ARC
  5
440
330
2
100
AcDbEntity
  8
Bauseitig_Beton
100
AcDbCircle
 10
195.7999999999999
 20
2493.888272625835
 30
0.0
 40
2.0
100
AcDbArc
 50
90.0
 51
270.0
  0
LINE
  5
441
330
2
100
AcDbEntity
  8
Bauseitig_Beton
100
AcDbLine
 10
195.7999999999999
 20
2495.888272625835
 30
0.0
 11
199.2999999999999
 21
2493.888272625835
 31
0.0
  0
LINE
  5
442
330
2
100
AcDbEntity
  8
Bauseitig_Beton
100
AcDbLine
 10
199.2999999999999
 20
2493.888272625835
 30
0.0
 11
195.7999999999999
 21
2491.888272625835
 31
0.0
  0
ARC
  5
443
330
2
100
AcDbEntity
  8
Bauseitig_Beton
100
AcDbCircle
 10
199.2999999999999
 20
2491.888272625835
 30
0.0
 40
2.0
100
AcDbArc
 50
270.0
 51
90.0
  0
ARC
  5
444
330
2
100
AcDbEntity
  8
Bauseitig_Beton
100
AcDbCircle
 10
195.7999999999999
 20
2489.888272625835
 30
0.0
 40
2.0
100
AcDbArc
 50
90.0
 51
270.0
  0
LINE
  5
445
330
2
100
AcDbEntity
  8
Bauseitig_Beton
100
AcDbLine
 10
195.7999999999999
 20
2491.888272625835
 30
0.0
 11
199.2999999999999
 21
2489.888272625835
 31
0.0
  0
LINE
  5
446
330
2
100
AcDbEntity
  8
Bauseitig_Beton
100
AcDbLine
 10
199.2999999999999
 20
2489.888272625835
 30
0.0
 11
195.7999999999999
 21
2487.888272625835
 31
0.0
  0
ARC
  5
447
330
2
100
AcDbEntity
  8
Bauseitig_Beton
100
AcDbCircle
 10
199.2999999999999
 20
2487.888272625835
 30
0.0
 40
2.0
100
AcDbArc
 50
270.0
 51
90.0
  0
ARC
  5
448
330
2
100
AcDbEntity
  8
Bauseitig_Beton
100
AcDbCircle
 10
195.7999999999999
 20
2485.888272625835
 30
0.0
 40
2.0
100
AcDbArc
 50
90.0
 51
179.8533689496537
  0
LINE
  5
449
330
2
100
AcDbEntity
  8
Bauseitig_Beton
100
AcDbLine
 10
195.7999999999999
 20
2487.888272625835
 30
0.0
 11
199.2999999999999
 21
2485.888272625835
 31
0.0
  0
LINE
  5
44A
330
2
100
AcDbEntity
  8
Bauseitig_Beton
  6
STRICHPUNKT
100
AcDbLine
 10
185.5452236983153
 20
2617.88618379947
 30
0.0
 11
246.1583892191036
 21
2617.88618379947
 31
0.0
  0
LINE
  5
44B
330
2
100
AcDbEntity
  8
Bauseitig_Beton
 62
     5
100
AcDbLine
 10
196.1899999999998
 20
2663.173391009469
 30
0.0
 11
196.1899999999998
 21
2587.173391009469
 31
0.0
  0
LINE
  5
44C
330
2
100
AcDbEntity
  8
Bauseitig_Beton
 62
     5
100
AcDbLine
 10
198.8299999999997
 20
2663.173391009469
 30
0.0
 11
198.8299999999997
 21
2587.173391009469
 31
0.0
  0
LINE
  5
44D
330
2
100
AcDbEntity
  8
Bauseitig_Beton
 62
     5
100
AcDbLine
 10
201.2999999999999
 20
2647.905656409006
 30
0.0
 11
193.7999999999999
 21
2640.405656409007
 31
0.0
  0
LINE
  5
44E
330
2
100
AcDbEntity
  8
Bauseitig_Beton
 62
     5
100
AcDbLine
 10
201.2999999999999
 20
2641.541695389006
 30
0.0
 11
193.7999999999999
 21
2634.041695389007
 31
0.0
  0
LINE
  5
44F
330
2
100
AcDbEntity
  8
Bauseitig_Beton
 62
     5
100
AcDbLine
 10
201.2999999999999
 20
2635.177734333006
 30
0.0
 11
193.7999999999999
 21
2627.677734333007
 31
0.0
  0
LINE
  5
450
330
2
100
AcDbEntity
  8
Bauseitig_Beton
 62
     5
100
AcDbLine
 10
201.2999999999999
 20
2628.813773313006
 30
0.0
 11
193.7999999999999
 21
2621.313773313006
 31
0.0
  0
LINE
  5
451
330
2
100
AcDbEntity
  8
Bauseitig_Beton
 62
     5
100
AcDbLine
 10
201.2999999999999
 20
2609.721890224933
 30
0.0
 11
193.7999999999999
 21
2602.221890224933
 31
0.0
  0
LINE
  5
452
330
2
100
AcDbEntity
  8
Bauseitig_Beton
 62
     5
100
AcDbLine
 10
201.2999999999999
 20
2603.357929204932
 30
0.0
 11
193.7999999999999
 21
2595.857929204933
 31
0.0
  0
LINE
  5
453
330
2
100
AcDbEntity
  8
Bauseitig_Beton
 62
     5
100
AcDbLine
 10
201.2999999999999
 20
2596.993968148933
 30
0.0
 11
193.7999999999999
 21
2589.493968148933
 31
0.0
  0
LINE
  5
454
330
2
100
AcDbEntity
  8
Bauseitig_Beton
 62
     5
100
AcDbLine
 10
201.2999999999999
 20
2590.630007128933
 30
0.0
 11
197.843383880536
 21
2587.173391009469
 31
0.0
  0
LINE
  5
455
330
2
100
AcDbEntity
  8
Bauseitig_Beton
 62
     5
100
AcDbLine
 10
197.4758515123892
 20
2663.173391009469
 30
0.0
 11
193.7999999999995
 21
2659.497539497079
 31
0.0
  0
LWPOLYLINE
  5
456
330
2
100
AcDbEntity
  8
Bauseitig_Beton
 62
     5
100
AcDbPolyline
 90
        4
 70
     1
 43
0.0
 10
193.7999999999999
 20
2663.173391009469
 10
201.2999999999999
 20
2663.173391009469
 10
201.2999999999999
 20
2587.173391009469
 10
193.7999999999999
 20
2587.173391009469
  0
TEXT
  5
457
330
2
100
AcDbEntity
  8
Scherentreppe
 62
     0
100
AcDbText
 10
1313.058683232928
 20
2086.450092806627
 30
0.0
 40
14.19264
  1
EK8B03
  7
TECHNICBOLD
100
AcDbText
  0
ENDSEC
  0
SECTION
  2
OBJECTS
  0
DICTIONARY
  5
9
330
0
100
AcDbDictionary
281
     1
  3
ACAD_COLOR
350
48
  3
ACAD_GROUP
350
35
  3
ACAD_LAYOUT
350
17
  3
ACAD_MATERIAL
350
B
  3
ACAD_MLEADERSTYLE
350
4B
  3
ACAD_MLINESTYLE
350
36
  3
ACAD_PLOTSETTINGS
350
37
  3
ACAD_PLOTSTYLENAME
350
8
  3
ACAD_SCALELIST
350
49
  3
ACAD_TABLESTYLE
350
4A
  3
ACAD_VISUALSTYLE
350
2F
  3
ACDB_RECOMPOSE_DATA
350
465
  3
AcDbVariableDictionary
350
45C
  3
AcDsDecomposeData
350
46B
  0
DICTIONARY
  5
1F
330
1E
100
AcDbDictionary
280
     1
281
     1
  3
ACAD_LAYERFILTERS
360
20
  3
ACAD_LAYERSTATES
360
21
  3
ACLYDICTIONARY
360
22
  0
DICTIONARY
  5
6C
330
6B
100
AcDbDictionary
280
     1
281
     1
  0
DICTIONARY
  5
3
330
2
100
AcDbDictionary
280
     1
281
     1
  3
ACAD_SORTENTS
360
458
  0
DICTIONARY
  5
A9
330
A8
100
AcDbDictionary
280
     1
281
     1
  3
AcDbContextDataManager
360
AA
  0
DICTIONARY
  5
BA
330
B9
100
AcDbDictionary
280
     1
281
     1
  3
AcDbContextDataManager
360
BB
  0
DICTIONARY
  5
28A
330
289
100
AcDbDictionary
280
     1
281
     1
  3
AcDbContextDataManager
360
28B
  0
DICTIONARY
  5
28E
330
28D
100
AcDbDictionary
280
     1
281
     1
  3
AcDbContextDataManager
360
28F
  0
DICTIONARY
  5
292
330
291
100
AcDbDictionary
280
     1
281
     1
  3
AcDbContextDataManager
360
293
  0
DICTIONARY
  5
296
330
295
100
AcDbDictionary
280
     1
281
     1
  3
AcDbContextDataManager
360
297
  0
DICTIONARY
  5
39F
330
39E
100
AcDbDictionary
280
     1
281
     1
  3
AcDbContextDataManager
360
3A0
  0
DICTIONARY
  5
3A6
330
3A5
100
AcDbDictionary
280
     1
281
     1
  3
AcDbContextDataManager
360
3A7
  0
DICTIONARY
  5
48
102
{ACAD_REACTORS
330
9
102
}
330
9
100
AcDbDictionary
281
     1
  0
DICTIONARY
  5
35
102
{ACAD_REACTORS
330
9
102
}
330
9
100
AcDbDictionary
281
     1
  0
DICTIONARY
  5
17
102
{ACAD_REACTORS
330
9
102
}
330
9
100
AcDbDictionary
281
     1
  3
Layout1
350
1D
  3
Model
350
16
  0
DICTIONARY
  5
B
102
{ACAD_REACTORS
330
9
102
}
330
9
100
AcDbDictionary
281
     1
  3
ByBlock
350
40
  3
ByLayer
350
38
  3
Global
350
A
  0
DICTIONARY
  5
4B
102
{ACAD_REACTORS
330
9
102
}
330
9
100
AcDbDictionary
281
     1
  0
DICTIONARY
  5
36
102
{ACAD_REACTORS
330
9
102
}
330
9
100
AcDbDictionary
281
     1
  3
Standard
350
51
  0
DICTIONARY
  5
37
102
{ACAD_REACTORS
330
9
102
}
330
9
100
AcDbDictionary
281
     1
  0
ACDBDICTIONARYWDFLT
  5
8
102
{ACAD_REACTORS
330
9
102
}
330
9
100
AcDbDictionary
281
     1
  3
Normal
350
7
100
AcDbDictionaryWithDefault
340
7
  0
DICTIONARY
  5
49
102
{ACAD_REACTORS
330
9
102
}
330
9
100
AcDbDictionary
281
     1
  3
A0
350
55
  3
A1
350
56
  3
A2
350
57
  3
A3
350
58
  3
A4
350
59
  3
A5
350
5A
  3
A6
350
5B
  3
A7
350
5C
  3
A8
350
5D
  3
A9
350
5E
  3
B0
350
5F
  3
B1
350
60
  3
B2
350
61
  3
B3
350
62
  3
B4
350
63
  3
B5
350
64
  3
B6
350
65
  0
DICTIONARY
  5
4A
102
{ACAD_REACTORS
330
9
102
}
330
9
100
AcDbDictionary
281
     1
  3
Standard
350
52
  0
DICTIONARY
  5
2F
102
{ACAD_REACTORS
330
9
102
}
330
9
100
AcDbDictionary
281
     1
  3
2dWireframe
350
2E
  3
Realistic
350
53
  3
Wireframe
350
54
  0
XRECORD
  5
465
102
{ACAD_REACTORS
330
9
102
}
330
9
100
AcDbXrecord
280
     1
 90
        1
330
52
330
B9
330
3A5
  0
DICTIONARY
  5
45C
102
{ACAD_REACTORS
330
9
102
}
330
9
100
AcDbDictionary
281
     1
  3
CANNOSCALE
350
461
  3
CMLEADERSTYLE
350
45E
  3
CTABLESTYLE
350
45D
  3
CVIEWDETAILSTYLE
350
45F
  3
CVIEWSECTIONSTYLE
350
460
  3
XCLIPFRAME
350
462
  0
DICTIONARY
  5
46B
102
{ACAD_REACTORS
330
9
102
}
330
9
100
AcDbDictionary
281
     1
  3
AcDsRecords
350
46D
  3
AcDsSchemas
350
46C
1001
ACAD
1070
     2
  0
DICTIONARY
  5
20
102
{ACAD_REACTORS
330
1F
102
}
330
1F
100
AcDbDictionary
281
     1
  0
DICTIONARY
  5
21
102
{ACAD_REACTORS
330
1F
102
}
330
1F
100
AcDbDictionary
281
     1
  0
DICTIONARY
  5
22
102
{ACAD_REACTORS
330
1F
102
}
330
1F
100
AcDbDictionary
281
     1
1001
ACAD
1000
<AllUsed
  0
SORTENTSTABLE
  5
458
102
{ACAD_REACTORS
330
3
102
}
330
3
100
AcDbSortentsTable
330
2
  0
DICTIONARY
  5
AA
102
{ACAD_REACTORS
330
A9
102
}
330
A9
100
AcDbDictionary
281
     1
  3
ACDB_ANNOTATIONSCALES
350
AB
  0
DICTIONARY
  5
BB
102
{ACAD_REACTORS
330
BA
102
}
330
BA
100
AcDbDictionary
281
     1
  3
ACDB_ANNOTATIONSCALES
350
BC
  0
DICTIONARY
  5
28B
102
{ACAD_REACTORS
330
28A
102
}
330
28A
100
AcDbDictionary
281
     1
  3
ACDB_ANNOTATIONSCALES
350
28C
  0
DICTIONARY
  5
28F
102
{ACAD_REACTORS
330
28E
102
}
330
28E
100
AcDbDictionary
281
     1
  3
ACDB_ANNOTATIONSCALES
350
290
  0
DICTIONARY
  5
293
102
{ACAD_REACTORS
330
292
102
}
330
292
100
AcDbDictionary
281
     1
  3
ACDB_ANNOTATIONSCALES
350
294
  0
DICTIONARY
  5
297
102
{ACAD_REACTORS
330
296
102
}
330
296
100
AcDbDictionary
281
     1
  3
ACDB_ANNOTATIONSCALES
350
298
  0
DICTIONARY
  5
3A0
102
{ACAD_REACTORS
330
39F
102
}
330
39F
100
AcDbDictionary
281
     1
  3
ACDB_ANNOTATIONSCALES
350
3A1
  0
DICTIONARY
  5
3A7
102
{ACAD_REACTORS
330
3A6
102
}
330
3A6
100
AcDbDictionary
281
     1
  3
ACDB_ANNOTATIONSCALES
350
3A8
  0
LAYOUT
  5
1D
102
{ACAD_REACTORS
330
17
102
}
330
17
100
AcDbPlotSettings
  1

  2
HP Color LaserJet CP2020 Series PCL 6
  4

  6

 40
0.0
 41
0.0
 42
0.0
 43
0.0
 44
0.0
 45
0.0
 46
0.0
 47
0.0
 48
0.0
 49
0.0
140
0.0
141
0.0
142
1.0
143
1.0
 70
   688
 72
     0
 73
     0
 74
     5
  7
monochrome.ctb
 75
    16
147
1.0
 76
     0
 77
     2
 78
   300
148
0.0
149
0.0
100
AcDbLayout
  1
Layout1
 70
     1
 71
     1
 10
0.0
 20
0.0
 11
12.0
 21
9.0
 12
0.0
 22
0.0
 32
0.0
 14
1.000000000000000E+20
 24
1.000000000000000E+20
 34
1.000000000000000E+20
 15
-1.000000000000000E+20
 25
-1.000000000000000E+20
 35
-1.000000000000000E+20
146
0.0
 13
0.0
 23
0.0
 33
0.0
 16
1.0
 26
0.0
 36
0.0
 17
0.0
 27
1.0
 37
0.0
 76
     0
330
1A
  0
LAYOUT
  5
16
102
{ACAD_XDICTIONARY
360
18
102
}
102
{ACAD_REACTORS
330
17
102
}
330
17
100
AcDbPlotSettings
  1

  2
none_device
  4
Letter_(8.50_x_11.00_Inches)
  6

 40
6.349999904632568
 41
6.349999904632568
 42
6.350006103515625
 43
6.350006103515625
 44
215.8999938964844
 45
279.3999938964844
 46
0.0
 47
0.0
 48
0.0
 49
0.0
140
0.0
141
0.0
142
1.0
143
64.78996994265674
 70
 11952
 72
     0
 73
     1
 74
     0
  7
monochrome.ctb
 75
     0
147
0.0154344877900864
 76
     0
 77
     2
 78
   300
148
-2617.719647371877
149
1317.048691221335
100
AcDbLayout
  1
Model
 70
     1
 71
     0
 10
0.0
 20
0.0
 11
12.0
 21
9.0
 12
0.0
 22
0.0
 32
0.0
 14
0.0
 24
0.0
 34
0.0
 15
0.0
 25
0.0
 35
0.0
146
0.0
 13
0.0
 23
0.0
 33
0.0
 16
1.0
 26
0.0
 36
0.0
 17
0.0
 27
1.0
 37
0.0
 76
     0
330
2
331
2D
1001
ACAD_PSEXT
1000
Kein
1000
Kein
1000
Nicht anwendbar
1000
Das Layout wird erst geplottet, wenn ein neuer Plotter-Konfigurationsname ausgewählt wird.
1070
     0
  0
MATERIAL
  5
40
102
{ACAD_XDICTIONARY
360
41
102
}
102
{ACAD_REACTORS
330
B
102
}
330
B
100
AcDbMaterial
  1
ByBlock
 72
     0
 43
0.0208333333333333
 43
0.0
 43
0.0
 43
0.0
 43
0.0
 43
0.0208333333333333
 43
0.0
 43
0.0
 43
0.0
 43
0.0
 43
1.0
 43
0.0
 43
0.0
 43
0.0
 43
0.0
 43
1.0
 77
     0
 47
0.0208333333333333
 47
0.0
 47
0.0
 47
0.0
 47
0.0
 47
0.0208333333333333
 47
0.0
 47
0.0
 47
0.0
 47
0.0
 47
1.0
 47
0.0
 47
0.0
 47
0.0
 47
0.0
 47
1.0
171
     0
 49
0.0208333333333333
 49
0.0
 49
0.0
 49
0.0
 49
0.0
 49
0.0208333333333333
 49
0.0
 49
0.0
 49
0.0
 49
0.0
 49
1.0
 49
0.0
 49
0.0
 49
0.0
 49
0.0
 49
1.0
175
     0
142
0.0208333333333333
142
0.0
142
0.0
142
0.0
142
0.0
142
0.0208333333333333
142
0.0
142
0.0
142
0.0
142
0.0
142
1.0
142
0.0
142
0.0
142
0.0
142
0.0
142
1.0
179
     0
144
0.0208333333333333
144
0.0
144
0.0
144
0.0
144
0.0
144
0.0208333333333333
144
0.0
144
0.0
144
0.0
144
0.0
144
1.0
144
0.0
144
0.0
144
0.0
144
0.0
144
1.0
147
0.0208333333333333
147
0.0
147
0.0
147
0.0
147
0.0
147
0.0208333333333333
147
0.0
147
0.0
147
0.0
147
0.0
147
1.0
147
0.0
147
0.0
147
0.0
147
0.0
147
1.0
  0
MATERIAL
  5
38
102
{ACAD_XDICTIONARY
360
39
102
}
102
{ACAD_REACTORS
330
B
102
}
330
B
100
AcDbMaterial
  1
ByLayer
 72
     0
 43
0.0208333333333333
 43
0.0
 43
0.0
 43
0.0
 43
0.0
 43
0.0208333333333333
 43
0.0
 43
0.0
 43
0.0
 43
0.0
 43
1.0
 43
0.0
 43
0.0
 43
0.0
 43
0.0
 43
1.0
 77
     0
 47
0.0208333333333333
 47
0.0
 47
0.0
 47
0.0
 47
0.0
 47
0.0208333333333333
 47
0.0
 47
0.0
 47
0.0
 47
0.0
 47
1.0
 47
0.0
 47
0.0
 47
0.0
 47
0.0
 47
1.0
171
     0
 49
0.0208333333333333
 49
0.0
 49
0.0
 49
0.0
 49
0.0
 49
0.0208333333333333
 49
0.0
 49
0.0
 49
0.0
 49
0.0
 49
1.0
 49
0.0
 49
0.0
 49
0.0
 49
0.0
 49
1.0
175
     0
142
0.0208333333333333
142
0.0
142
0.0
142
0.0
142
0.0
142
0.0208333333333333
142
0.0
142
0.0
142
0.0
142
0.0
142
1.0
142
0.0
142
0.0
142
0.0
142
0.0
142
1.0
179
     0
144
0.0208333333333333
144
0.0
144
0.0
144
0.0
144
0.0
144
0.0208333333333333
144
0.0
144
0.0
144
0.0
144
0.0
144
1.0
144
0.0
144
0.0
144
0.0
144
0.0
144
1.0
147
0.0208333333333333
147
0.0
147
0.0
147
0.0
147
0.0
147
0.0208333333333333
147
0.0
147
0.0
147
0.0
147
0.0
147
1.0
147
0.0
147
0.0
147
0.0
147
0.0
147
1.0
  0
MATERIAL
  5
A
102
{ACAD_XDICTIONARY
360
C
102
}
102
{ACAD_REACTORS
330
B
102
}
330
B
100
AcDbMaterial
  1
Global
 72
     0
 43
0.0208333333333333
 43
0.0
 43
0.0
 43
0.0
 43
0.0
 43
0.0208333333333333
 43
0.0
 43
0.0
 43
0.0
 43
0.0
 43
1.0
 43
0.0
 43
0.0
 43
0.0
 43
0.0
 43
1.0
 77
     0
 47
0.0208333333333333
 47
0.0
 47
0.0
 47
0.0
 47
0.0
 47
0.0208333333333333
 47
0.0
 47
0.0
 47
0.0
 47
0.0
 47
1.0
 47
0.0
 47
0.0
 47
0.0
 47
0.0
 47
1.0
171
     0
 49
0.0208333333333333
 49
0.0
 49
0.0
 49
0.0
 49
0.0
 49
0.0208333333333333
 49
0.0
 49
0.0
 49
0.0
 49
0.0
 49
1.0
 49
0.0
 49
0.0
 49
0.0
 49
0.0
 49
1.0
175
     0
142
0.0208333333333333
142
0.0
142
0.0
142
0.0
142
0.0
142
0.0208333333333333
142
0.0
142
0.0
142
0.0
142
0.0
142
1.0
142
0.0
142
0.0
142
0.0
142
0.0
142
1.0
179
     0
144
0.0208333333333333
144
0.0
144
0.0
144
0.0
144
0.0
144
0.0208333333333333
144
0.0
144
0.0
144
0.0
144
0.0
144
1.0
144
0.0
144
0.0
144
0.0
144
0.0
144
1.0
147
0.0208333333333333
147
0.0
147
0.0
147
0.0
147
0.0
147
0.0208333333333333
147
0.0
147
0.0
147
0.0
147
0.0
147
1.0
147
0.0
147
0.0
147
0.0
147
0.0
147
1.0
  0
MLINESTYLE
  5
51
102
{ACAD_REACTORS
330
36
102
}
330
36
100
AcDbMlineStyle
  2
STANDARD
 70
     0
  3

 62
   256
 51
90.0
 52
90.0
 71
     2
 49
0.5
 62
   256
  6
BYLAYER
 49
-0.5
 62
   256
  6
BYLAYER
  0
ACDBPLACEHOLDER
  5
7
102
{ACAD_REACTORS
330
8
102
}
330
8
  0
SCALE
  5
55
102
{ACAD_REACTORS
330
49
102
}
330
49
100
AcDbScale
 70
     0
300
1:1
140
1.0
141
1.0
290
     1
  0
SCALE
  5
56
102
{ACAD_REACTORS
330
49
102
}
330
49
100
AcDbScale
 70
     0
300
1/128" = 1'-0"
140
0.0078125
141
12.0
290
     0
  0
SCALE
  5
57
102
{ACAD_REACTORS
330
49
102
}
330
49
100
AcDbScale
 70
     0
300
1/64" = 1'-0"
140
0.015625
141
12.0
290
     0
  0
SCALE
  5
58
102
{ACAD_REACTORS
330
49
102
}
330
49
100
AcDbScale
 70
     0
300
1/32" = 1'-0"
140
0.03125
141
12.0
290
     0
  0
SCALE
  5
59
102
{ACAD_REACTORS
330
49
102
}
330
49
100
AcDbScale
 70
     0
300
1/16" = 1'-0"
140
0.0625
141
12.0
290
     0
  0
SCALE
  5
5A
102
{ACAD_REACTORS
330
49
102
}
330
49
100
AcDbScale
 70
     0
300
3/32" = 1'-0"
140
0.09375
141
12.0
290
     0
  0
SCALE
  5
5B
102
{ACAD_REACTORS
330
49
102
}
330
49
100
AcDbScale
 70
     0
300
1/8" = 1'-0"
140
0.125
141
12.0
290
     0
  0
SCALE
  5
5C
102
{ACAD_REACTORS
330
49
102
}
330
49
100
AcDbScale
 70
     0
300
3/16" = 1'-0"
140
0.1875
141
12.0
290
     0
  0
SCALE
  5
5D
102
{ACAD_REACTORS
330
49
102
}
330
49
100
AcDbScale
 70
     0
300
1/4" = 1'-0"
140
0.25
141
12.0
290
     0
  0
SCALE
  5
5E
102
{ACAD_REACTORS
330
49
102
}
330
49
100
AcDbScale
 70
     0
300
3/8" = 1'-0"
140
0.375
141
12.0
290
     0
  0
SCALE
  5
5F
102
{ACAD_REACTORS
330
49
102
}
330
49
100
AcDbScale
 70
     0
300
1/2" = 1'-0"
140
0.5
141
12.0
290
     0
  0
SCALE
  5
60
102
{ACAD_REACTORS
330
49
102
}
330
49
100
AcDbScale
 70
     0
300
3/4" = 1'-0"
140
0.75
141
12.0
290
     0
  0
SCALE
  5
61
102
{ACAD_REACTORS
330
49
102
}
330
49
100
AcDbScale
 70
     0
300
1" = 1'-0"
140
1.0
141
12.0
290
     0
  0
SCALE
  5
62
102
{ACAD_REACTORS
330
49
102
}
330
49
100
AcDbScale
 70
     0
300
1-1/2" = 1'-0"
140
1.5
141
12.0
290
     0
  0
SCALE
  5
63
102
{ACAD_REACTORS
330
49
102
}
330
49
100
AcDbScale
 70
     0
300
3" = 1'-0"
140
3.0
141
12.0
290
     0
  0
SCALE
  5
64
102
{ACAD_REACTORS
330
49
102
}
330
49
100
AcDbScale
 70
     0
300
6" = 1'-0"
140
6.0
141
12.0
290
     0
  0
SCALE
  5
65
102
{ACAD_REACTORS
330
49
102
}
330
49
100
AcDbScale
 70
     0
300
1'-0" = 1'-0"
140
12.0
141
12.0
290
     0
  0
TABLESTYLE
  5
52
102
{ACAD_XDICTIONARY
360
463
102
}
102
{ACAD_REACTORS
330
4A
102
}
330
4A
100
AcDbTableStyle
  3
Standard
 70
     0
 71
     0
 40
0.06
 41
0.06
280
     0
281
     0
  7
STANDARD
140
0.18
170
     2
 62
     0
 63
     7
283
     0
 90
      512
 91
        0
  1

274
    -2
284
     1
 64
     0
275
    -2
285
     1
 65
     0
276
    -2
286
     1
 66
     0
277
    -2
287
     1
 67
     0
278
    -2
288
     1
 68
     0
279
    -2
289
     1
 69
     0
  7
STANDARD
140
0.25
170
     5
 62
     0
 63
     7
283
     0
 90
      512
 91
        0
  1

274
    -2
284
     1
 64
     0
275
    -2
285
     1
 65
     0
276
    -2
286
     1
 66
     0
277
    -2
287
     1
 67
     0
278
    -2
288
     1
 68
     0
279
    -2
289
     1
 69
     0
  7
STANDARD
140
0.18
170
     5
 62
     0
 63
     7
283
     0
 90
      512
 91
        0
  1

274
    -2
284
     1
 64
     0
275
    -2
285
     1
 65
     0
276
    -2
286
     1
 66
     0
277
    -2
287
     1
 67
     0
278
    -2
288
     1
 68
     0
279
    -2
289
     1
 69
     0
  0
VISUALSTYLE
  5
2E
102
{ACAD_XDICTIONARY
360
46E
102
}
102
{ACAD_REACTORS
330
2F
102
}
330
2F
100
AcDbVisualStyle
  2
2dWireframe
 70
     4
 71
     0
 72
     2
 73
     0
 90
        0
 40
-0.6
 41
-30.0
 62
     5
 63
     7
421
 16777215
 74
     1
 91
        4
 64
     7
 65
   257
 75
     1
175
     1
 42
1.0
 92
        0
 66
   257
 43
1.0
 76
     1
 77
     6
 78
     2
 67
     7
 79
     5
170
     0
171
     0
290
     0
174
     0
 93
        1
 44
0.0
173
     0
291
     0
 45
0.0
1001
ACAD
1000
AcDbSavedByObjectVersion
1070
     0
  0
VISUALSTYLE
  5
53
102
{ACAD_XDICTIONARY
360
470
102
}
102
{ACAD_REACTORS
330
2F
102
}
330
2F
100
AcDbVisualStyle
  2
Realistic
 70
     8
 71
     2
 72
     3
 73
     0
 90
        2
 40
-0.6
 41
30.0
 62
     5
 63
     7
421
 16777215
 74
     0
 91
        0
 64
     7
 65
   257
 75
     1
175
     1
 42
1.0
 92
        8
 66
   257
 43
1.0
 76
     1
 77
     6
 78
     2
 67
     7
 79
     3
170
     0
171
     0
290
     0
174
     0
 93
       13
 44
0.0
173
     0
291
     0
 45
0.0
1001
ACAD
1000
AcDbSavedByObjectVersion
1070
     0
  0
VISUALSTYLE
  5
54
102
{ACAD_XDICTIONARY
360
472
102
}
102
{ACAD_REACTORS
330
2F
102
}
330
2F
100
AcDbVisualStyle
  2
Wireframe
 70
     5
 71
     0
 72
     2
 73
     0
 90
        0
 40
-0.6
 41
-30.0
 62
     5
 63
     7
421
 16777215
 74
     1
 91
        4
 64
     7
 65
   257
 75
     1
175
     1
 42
1.0
 92
        0
 66
   257
 43
1.0
 76
     1
 77
     6
 78
     2
 67
     7
 79
     3
170
     0
171
     0
290
     0
174
     0
 93
        1
 44
0.0
173
     0
291
     0
 45
0.0
1001
ACAD
1000
AcDbSavedByObjectVersion
1070
     0
  0
DICTIONARYVAR
  5
461
102
{ACAD_REACTORS
330
45C
102
}
330
45C
100
DictionaryVariables
280
     0
  1
1:1
  0
DICTIONARYVAR
  5
45E
102
{ACAD_REACTORS
330
45C
102
}
330
45C
100
DictionaryVariables
280
     0
  1
STANDARD
  0
DICTIONARYVAR
  5
45D
102
{ACAD_REACTORS
330
45C
102
}
330
45C
100
DictionaryVariables
280
     0
  1
STANDARD
  0
DICTIONARYVAR
  5
45F
102
{ACAD_REACTORS
330
45C
102
}
330
45C
100
DictionaryVariables
280
     0
  1

  0
DICTIONARYVAR
  5
460
102
{ACAD_REACTORS
330
45C
102
}
330
45C
100
DictionaryVariables
280
     0
  1

  0
DICTIONARYVAR
  5
462
102
{ACAD_REACTORS
330
45C
102
}
330
45C
100
DictionaryVariables
280
     0
  1
2
  0
DICTIONARY
  5
46D
102
{ACAD_REACTORS
330
46B
102
}
330
46B
100
AcDbDictionary
281
     1
  0
DICTIONARY
  5
46C
102
{ACAD_REACTORS
330
46B
102
}
330
46B
100
AcDbDictionary
281
     1
  3
1534249696
350
466
  3
1534249712
350
467
  3
1534249728
350
468
  3
1534249744
350
469
  3
1534249760
350
46A
  0
DICTIONARY
  5
AB
102
{ACAD_REACTORS
330
AA
102
}
330
AA
100
AcDbDictionary
281
     1
  0
DICTIONARY
  5
BC
102
{ACAD_REACTORS
330
BB
102
}
330
BB
100
AcDbDictionary
281
     1
  0
DICTIONARY
  5
28C
102
{ACAD_REACTORS
330
28B
102
}
330
28B
100
AcDbDictionary
281
     1
  0
DICTIONARY
  5
290
102
{ACAD_REACTORS
330
28F
102
}
330
28F
100
AcDbDictionary
281
     1
  0
DICTIONARY
  5
294
102
{ACAD_REACTORS
330
293
102
}
330
293
100
AcDbDictionary
281
     1
  0
DICTIONARY
  5
298
102
{ACAD_REACTORS
330
297
102
}
330
297
100
AcDbDictionary
281
     1
  0
DICTIONARY
  5
3A1
102
{ACAD_REACTORS
330
3A0
102
}
330
3A0
100
AcDbDictionary
281
     1
  0
DICTIONARY
  5
3A8
102
{ACAD_REACTORS
330
3A7
102
}
330
3A7
100
AcDbDictionary
281
     1
  0
DICTIONARY
  5
18
330
16
100
AcDbDictionary
280
     1
281
     1
  0
DICTIONARY
  5
41
330
40
100
AcDbDictionary
280
     1
281
     1
  3
BUMPTILE
360
42
  3
DIFFUSETILE
360
43
  3
OPACITYTILE
360
44
  3
REFLECTIONTILE
360
45
  3
REFRACTIONTILE
360
46
  3
SPECULARTILE
360
47
  0
DICTIONARY
  5
39
330
38
100
AcDbDictionary
280
     1
281
     1
  3
BUMPTILE
360
3A
  3
DIFFUSETILE
360
3B
  3
OPACITYTILE
360
3C
  3
REFLECTIONTILE
360
3D
  3
REFRACTIONTILE
360
3E
  3
SPECULARTILE
360
3F
  0
DICTIONARY
  5
C
330
A
100
AcDbDictionary
280
     1
281
     1
  3
BUMPTILE
360
D
  3
DIFFUSETILE
360
E
  3
FBXASSET
360
F
  3
OPACITYTILE
360
10
  3
REFLECTIONTILE
360
11
  3
REFRACTIONTILE
360
12
  3
SPECULARTILE
360
13
  0
DICTIONARY
  5
463
330
52
100
AcDbDictionary
280
     1
281
     1
  3
ACAD_ROUNDTRIP_2008_TABLESTYLE_CELLSTYLEMAP
360
464
  0
DICTIONARY
  5
46E
330
2E
100
AcDbDictionary
280
     1
281
     1
  3
ACAD_XREC_ROUNDTRIP
360
46F
  0
DICTIONARY
  5
470
330
53
100
AcDbDictionary
280
     1
281
     1
  3
ACAD_XREC_ROUNDTRIP
360
471
  0
DICTIONARY
  5
472
330
54
100
AcDbDictionary
280
     1
281
     1
  3
ACAD_XREC_ROUNDTRIP
360
473
  0
XRECORD
  5
466
102
{ACAD_REACTORS
330
46C
102
}
330
46C
100
AcDbXrecord
280
     1
  1
AcDb_Thumbnail_Schema
102
{ATTRRECORD
341
467
  2
AcDbDs::TreatedAsObjectData
280
     1
291
     1
102
ATTRRECORD}
102
{ATTRRECORD
341
468
  2
AcDbDs::Legacy
280
     1
291
     1
102
ATTRRECORD}
  2
AcDbDs::ID
280
    10
 91
        8
102
{ATTRRECORD
341
469
  2
AcDs:Indexable
280
     1
291
     1
102
ATTRRECORD}
102
{ATTRRECORD
341
46A
  2
AcDbDs::HandleAttribute
280
     7
282
     1
102
ATTRRECORD}
  2
Thumbnail_Data
280
    15
 91
        0
  0
XRECORD
  5
467
102
{ACAD_REACTORS
330
46C
102
}
330
46C
100
AcDbXrecord
280
     1
  1
AcDbDs::TreatedAsObjectDataSchema
  2
AcDbDs::TreatedAsObjectData
280
     1
 91
        0
  0
XRECORD
  5
468
102
{ACAD_REACTORS
330
46C
102
}
330
46C
100
AcDbXrecord
280
     1
  1
AcDbDs::LegacySchema
  2
AcDbDs::Legacy
280
     1
 91
        0
  0
XRECORD
  5
469
102
{ACAD_REACTORS
330
46C
102
}
330
46C
100
AcDbXrecord
280
     1
  1
AcDbDs::IndexedPropertySchema
  2
AcDs:Indexable
280
     1
 91
        0
  0
XRECORD
  5
46A
102
{ACAD_REACTORS
330
46C
102
}
330
46C
100
AcDbXrecord
280
     1
  1
AcDbDs::HandleAttributeSchema
  2
AcDbDs::HandleAttribute
280
     7
 91
        1
284
     1
  0
XRECORD
  5
42
102
{ACAD_REACTORS
330
41
102
}
330
41
100
AcDbXrecord
280
     1
270
     1
271
     1
  0
XRECORD
  5
43
102
{ACAD_REACTORS
330
41
102
}
330
41
100
AcDbXrecord
280
     1
270
     1
271
     1
  0
XRECORD
  5
44
102
{ACAD_REACTORS
330
41
102
}
330
41
100
AcDbXrecord
280
     1
270
     1
271
     1
  0
XRECORD
  5
45
102
{ACAD_REACTORS
330
41
102
}
330
41
100
AcDbXrecord
280
     1
270
     1
271
     1
  0
XRECORD
  5
46
102
{ACAD_REACTORS
330
41
102
}
330
41
100
AcDbXrecord
280
     1
270
     1
271
     1
  0
XRECORD
  5
47
102
{ACAD_REACTORS
330
41
102
}
330
41
100
AcDbXrecord
280
     1
270
     1
271
     1
  0
XRECORD
  5
3A
102
{ACAD_REACTORS
330
39
102
}
330
39
100
AcDbXrecord
280
     1
270
     1
271
     1
  0
XRECORD
  5
3B
102
{ACAD_REACTORS
330
39
102
}
330
39
100
AcDbXrecord
280
     1
270
     1
271
     1
  0
XRECORD
  5
3C
102
{ACAD_REACTORS
330
39
102
}
330
39
100
AcDbXrecord
280
     1
270
     1
271
     1
  0
XRECORD
  5
3D
102
{ACAD_REACTORS
330
39
102
}
330
39
100
AcDbXrecord
280
     1
270
     1
271
     1
  0
XRECORD
  5
3E
102
{ACAD_REACTORS
330
39
102
}
330
39
100
AcDbXrecord
280
     1
270
     1
271
     1
  0
XRECORD
  5
3F
102
{ACAD_REACTORS
330
39
102
}
330
39
100
AcDbXrecord
280
     1
270
     1
271
     1
  0
XRECORD
  5
D
102
{ACAD_REACTORS
330
C
102
}
330
C
100
AcDbXrecord
280
     1
270
     1
271
     1
  0
XRECORD
  5
E
102
{ACAD_REACTORS
330
C
102
}
330
C
100
AcDbXrecord
280
     1
270
     1
271
     1
  0
XRECORD
  5
F
102
{ACAD_REACTORS
330
C
102
}
330
C
100
AcDbXrecord
280
     1
 70
     1
 90
1959938040
 71
     1
  1
F44A0810-B26C-4682-979A-DA08BE24BBD2
311
504B03041400060808005A6C9D44BD36FA00D9000000200100004F00000035443431313144412D313443312D343944382D423034412D3434423737383344373845342F4173736574446174612F446566696E6974696F6E4974657261746F7250726F706572746965732E62696E454E3D6FC23010351D5A75E8D07F80D85DC7
311
8E8BEA08A8680C4C65A15317743807447212142752C78EFDD7AD4F5071D2BB779FEFEE8731F67BB118B241C477F40F915758635BBA8D3B6205EC962ABED981BFBBF66E6248A9C53DF4BEA3ADF73238F41E6A6CFAF0781D1D56D04539F04FB4741FF15F08A470381FA3FBEB087A89188A53F60A21603715FBDD9730726E9559
311
18AE749E729D5BCBE732513C1FDBB1B17A295F166FA2C5D0F4ADC3209448B617E5EDA93E94C56CD295150E6BA8703A722DC69F8AD14C2552F34473653E649AA53A7B569F1341937F504B03041400060808005A6C9D448CF4DB661C010000300200004500000035443431313144412D313443312D343944382D423034412D34
311
34423737383344373845342F4173736574446174612F496E7374616E636550726F706572746965732E62696E6D51BB4E844014BD3E121B35FB09165BACC52430CCB24B050C0F1BB316B4360430BB89A241CCC68ED2CEEFB1F51BFC003F81C65ACFB02CAC616F72EF39F7CC393309BC11D16F5BA07480AE30CF8057599E15AB
311
244A96D9433C86100AE16A735D63929B1E13E69C336B66B9CC872A032EA4F4F9491F541143177EC0A7169B0A6120C2752643E9337D66689EE979961B58B035EFD2E5EDFBE7CFE4CB061E42ABD0DBBD41ECA8DADEB889460E8D1AA91963A7E77B19829BEAC85E1BC4CE501F61ABD06DF4BBC55348C352DFB13FE92E1918D30F
311
67A0FD13865175F564C753DBC7D8D4DF3A4747EBB84C964C16719E66A93AF129A3674AA8A0153D5189F948395D5004BD042E806BE00D989A21DD013DB8EED1C50E7F69B66BA45E71D31F504B03041400060808005A6C9D4428BB58AF800100009E0500003D00000035443431313144412D313443312D343944382D42303441
311
2D3434423737383344373845342F536368656D61732F436F6D6D6F6E536368656D612E786D6CBD544D4FC23018BEFB2B96DE15493C78601010A34B880709DEDFB52FD0D8B54BD70DF6EFED3AC0B12E6442E2716BFB3CEFF3D18E26FB440405EA8C2B1992E1C323095052C5B8DC842437EBFB673219DF8DA659866649B798C0
311
78B48AE6410122242F2A4994AC7F93815DF85C049C8564CA0A901499DD886B2EB9B1E02448F358701A9235880C49A0119892A20C89D1B9FD768815CAD268CB5E0355B40B1E47F3E37A2020464BED06AA57CE8FCC20C3C3446D46761A2632A8C1283D07031EFF2AE7CCB1BFEEE916E406DFAC8E36FFD99A9D60A6944090EEDC
311
3B670C7DC13DE86B6B2C5C240D6E503BB85ACD579D513F1B9F9A69DC9CC22AFA80C426D40AF0B21EA168559156B6276F0F726A6BFF04DCD513A87A62CAD41FB24FCB2858B3952E3D852084DA25B9303C15687973CC8E8AAE11DF2836C38C6A9E765E8C1BA1BFB1DC29CDFE518C8B5A7655A4ED7E77291ABEB80DBD82EC866A
311
DE1B8D05AF9E35CF09D7A061F38A986D9EC412B8F0F65E5D81534D9B231D1E5A8FE577A241F3A5FD01504B03041400060808005A6C9D442CCEBD668A040000E01200003E00000035443431313144412D313443312D343944382D423034412D3434423737383344373845342F536368656D61732F47656E6572696353636865
311
6D612E786D6CD5586D6FDB380CFE7EBF42F0F7A649B70E1B90744856B4970F450FCD7A5F05459613EDE4174872DADCAF3F522F8ED3B88D2F1D06AC4050DBA2493EE4438AF2F8EB73AEC8466823CB62928C06C384888297A92C5693A4B6D9D9E7E4EBD51FE3A931C22EF85AE4EC6AFC38BF261BA626C9AD288496DC3F4FCEAF
311
C63366845F7A10452AF41DB320C0D44EC26EAB20918735565582695670811A6A49643A49A6E9069FA4604A64B29016DC4B48552F95E4932463CA888468C1D2B250DB4962750DF7CE273069CE8363F1FF4EDB00E0A21999574AE4A2B00C353B93F3BD4777B8A61ED8F604ABFEDD79CE56A2B7BDFBDBC50996E0ADDE16FED262
311
23C5D30956C29BDF4A55EA686E5E58B112DA45CE67F76F4FA27EFA3FB672FD7372FC388FAECDCA5209E693CAD167BADCD272F943701B3812F8A3D852008B1D2E32DB927B2F833C6EA95879925356D254582695095A3CE982924720BE5774A3CB9CDCDB350427D2DF20DA1B5532EBE2D5D6288D75D4F7E4FD9890A0EF8E3D93
311
EBB8F8BA4758158EF6FB90A6F9520281C93DE7AAC6D24607DA296BB96018123F821A7D6A5C5884050C475DA4865442732C8B95684A50165CBB3A32F25F783A4A480ED59AD7F924B968AEA50131F46303223E6A397B0E52976030DC1DCA81D7E7C1EDEEA42C19FF27635C505E2BD5198A599020DF50A2330FCB3AAF28CB0124
311
108429553EF1B228802E2265D8F7CC2401042B155BCC7070F1E5C55F13B4A9577362CCCE46C32174E010C3C378C44841A4BDA00FE3A12006CE11EE6AEC59894D3526DDE1CD59D503ECC324017F8061B7F162162FA62EDD81AE3308617770796DCBDAD2B2625C5AE8A63DE20B2C8AA5E95E76E5730823955956E33E705425A2
311
187C185D36489A1B44D3DCEC2172F6BA2105C3546287A7194B2331768EBBE64F6E70A9930ABE0ADEA89E9E2C38523B810287AD67A54A039C1606EAFE68F8304610BB9093DBDDABC0B2AE4E290DCDA15376D7E39F72B556F0B32EAB5D3D498B4C41ABADEC3A1434C422D87E8025A84BDCB2B1417ED750FAE4DA8976863974C5
311
77C7F902D3F156AD354DEA3540DE6BEAE2BEA52F7A2EB4CA43802ECE5BF2CE2EDC9347179FFB023CE412E60BE16DA0BE29B374988A553F561DC04615DD35F7D2C8979F60E5955CE93DF29DED8AFA1EE6642D53418086C03C47C377910F75F7E8F5EF665F70B60FFB22AEDF897D119E8423C773E819A3C1E55E550599EE6EDC
311
A34D0C86FD72057DF2CD46F16A470682471C164E4346D5306BF12D7D12D82CFF673D41636C347443FEB51B50D72EA171A8E4A58623A4A16E0FA2B8B10A0D23268D87C33896EE8FB73305A74BF224EDBADFA0BD674AB354D63DB7BD5D83426761C077DE767728235446A552754EB93B755891C3C4CC6CADE37CF0E912A7BB38
311
DBA010F9DE1282EDF470CA69A9CDA482E334C4A6EA4107987980B17E72F31730EBF88BBD39E7C629F56797A3C0009C2C5AE7951D9A05A02773440F02EEB4DE396A3B6A570C72CCFBCD823B0B8ED3F1D5CEDDFED772FA70236C83FB7D86C385D570B87107535572A60A96035F8F7C6A7192F13007246BBE0521855E6AC46F3E
311
27689CEE7D186A6FD679D98CDCAD13333E04EBE7ED6F55FF01504B03041400060808005A6C9D446180134D5F0100006B0300004500000035443431313144412D313443312D343944382D423034412D3434423737383344373845342F536368656D61732F52656E6465724D6174657269616C536368656D612E786D6CA5934D
311
6FC2300C86EFFB1551EEE343DBA41D1A103009551ADAD40EAE28A4A68D9426284961FCFBE5A340113B2071746D3F765EBF4DC6BFB5407BD0862B49F0B037C0082453059725C18DDD3EBFE3F1E829991803366715D474942CD30FB4A782E00C64017A412D684E454CE3FE28995203B162A6EA5AC94B66997D225E109CD63B01
311
35484BAD1B3C07E9080CA35DB3119C11BCA5C200461A68A1A438126C75E3E230D40FF81FB3F03C91D1E3A3A0AF79FE28E25BC39EC3E17E4C2A2D94A0833A51AF55BCCA7D88572FCBAC529C4140B020FC3AAFA886621DCED7EAD7664CC86024E806DC297DA1BB393E4156543457A4537DB8817349A70F8ACBF09B3EEE2CB2F3
311
3E91B65D60786E4E3B39B77E3FEEEF5650424525DA657FB8B46BE6BF064646F0A0F7327C0BC1BC1B4CBBC1C419FA3CCB23500007872A2580CAAE5461865565294E4EDB4617B62FF579DF9A5B2F54E834076A597573A020912FED777F9B3F504B03041400060808005A6C9D4413AAFB614F0000005700000047000000354434
311
31313144412D313443312D343944382D423034412D3434423737383344373845342F4173736574446174612F41737365745461626C654F66436F6E74656E74732E62696E536160607033317134B03034D075323273D63531B330D2B534B774D475018A3AB91A993839B9180901D5E52696A4166526E6241614A4261625E625
311
A70205C1801748BAA7E601659383933352731301504B03041400060808005A6C9D44F865834058000000680000004500000035443431313144412D313443312D343944382D423034412D3434423737383344373845342F4173736574446174612F53747265616D56657273696F6E5461626C652E696E66558CBD0A80300C06
311
F73E4B117FB66E451741D041DC5BF98480A492E4FDD18EAEC7DD4555D89EF28DF51A0B1BD8340C4DE7DD848B988C0ACF0649566493F2408C508DDEBB99D5129FF8F1AF8CF5B9503E20FAE5A16B5AF702504B03041400060808005A6C9D44D34D23E9350100009A0400003600000035443431313144412D313443312D343944
311
382D423034412D3434423737383344373845342F4173736574446174612F636E782E786D6CCD94314FC3301085FF4AE43D769216092AC71582A51348540C6C57E752AC3A76645F10FC7BEC3603A888A943D7F3BBF3F327BF93EBCFC1161F18A2F1AE6535AF58814EFBCEB87DCB26EACB5B56AC950CDED30F192B1C0CD8B25C
311
664AEE839FC6B9D4610F93CD556BDC612EDEC788B4859DC5A7FEC13B42479115DA428C2D8BFA1D07E03091EF301E780704BCE601A39F82C63489CC80F3241D10083BA69AAA5E96D5B26CEEB6F562B558AE6E9A3729B252C99DF776D69B7459F063A14FB7325549918F959C829935F92D4CFDE591EF8C932229958C141293B9
311
83BEC6D401E3688D064AE884D784542611C220C549ACA4C80C7E9178C4DE38935B36C918900FCFC91E0632787544FEF37A79321B17099CC6EBE571EEF0F2145E8E3FE8F514C86362AE2D27E70EB971FD0552228E6B2485266F15F50D504B03041400060808005A6C9D44E965D292090100004F030000340000003544343131
311
3144412D313443312D343944382D423034412D3434423737383344373845342F536368656D61732F636E782E786D6CCD93BD4E042114855F6542BF30333B26BA61D8C2C2CA46ADEC10EEAE64813BE1C7E8DB0B23C56E62A7C57670F842CE395CF8FED3D9EE034234E86732D09E74E0156AE38F33C9E9B0B925DD5EF08098CE
311
30D279E960265526821F03E6A5491A0E32DBAA5AE34F4DBC47E7D03FAB77709274CACA186712D72D9539A18678A25A2649071A20620E0ACA0DC9386837A80032812662EC8769D34F9BF1EE65D8EEB6D3EE667CE5AC9282BF21DAC61B9F20E0D2292C0B5FECF49CD563C173308DA9198838F7464B1B9C1542F09842E9A091E9
311
6B29A45C166B944CA52AB6823F8CE0AC46BD08FC001E8251D799F8C2DCBF457E02AF213C96570A46DAEB4CFE9BC7BF15C0D6D92F2350BF82F806504B03041400060808005A6C9D44410A3D5871000000A40000002C00000035443431313144412D313443312D343944382D423034412D3434423737383344373845342F636E
311
782E786D6C55CC4D0E82301086E1AB34B31774E7A22D31F1069E60020334B633A63FC6E34B0909B07DDE2F9FEE7EC1AB2FC5E4840DDC9A2B28E25E06C7938192C7CB1D54677514C9871928C640062A83D55394F2D968A0118BAFEA1DBF377CA444F98919176EAB9FEAAB9F2960DA5BBB1E2ED3FA6FFF504B03041400060808
311
005A6C9D44F74C325A7D000000A300000007000000636E782E786D6C4D8C510BC2201446FF8ADC776B976E68A08E2DFB21A3B9216D1A36A39F9FC61E7AFAE0F09DA3DACFBAB0B74B2F1F83063C34C05CB8C7D1875943DE262E81B546A518B7BF1BB030AC4E43C560D49C627EEE6874D390974A171F1E3B3C5B4244DB71A42B
311
72BA58C9FB863A4ED40B214F56C81B15E3589532BF5ED99A375F504B03041400060808005A6C9D4416E99B5DA600000035010000130000005B436F6E74656E745F54797065735D2E786D6C9590410E82301045AFD2740F4517C6180A0BF5065E60AC53688469D30E066F6F91AD9AB89CF9FFFD3F99BA9DC7413C3026E749CB
311
4D59498164FCCD51A7E5C4B6D84BD136F5E5193089ECA5A465CF1C0E4A25D3E308A9F401292BD6C711388FB15301CC1D3A54DBAADA29E38991B8E0254336F5092D4C038BF39CD76B6FC6A538AEBEA54A4B08617006389FA516557DE4AE8E7E70DE30729138228C5F021CD93F02D4FB0DCD0B504B03041400060808005A6C9D
311
443DEE336E64000000790000001B0000006175746F6465736B2D64657369676E2D7061636B6167652E786D6C35CBC10E83200C00D05F21DCA56CA76D41FC96062B120735B69A7DBE268BB7777961F8D5AF396893C2ADB70FE7ADA196782C2DF776D7A97B5933C430F15651E5469C55D70F80A4992A3ADC954792C525AE70A1
311
E4D6AD9816CC044FEFDF01FE3FDE907802504B03041400060808005A6C9D44E7F3CE6AF8000000960100003700000035443431313144412D313443312D343944382D423034412D3434423737383344373845342F4173736574446174612F636F72652E786D6C8550CB6E833010FC15B477F38684C8382A02BEA0A7DE2CDB21
311
56828DFCA8FAF9B50395DA534FBB9A9D99DD1D7CFD5A9FC9A730566AD54391E69008C534976AE9C1BB1B3A437225D868ED7ED1205174153D4418085E8CF6DB0131AD9C5011559A8B03A4D60A07097B86A607CBEE62A529F52E30EC23DD287BD045A445BAF308F65EF2432A79709337290C90A199A6763ECDA83D3739AABBBC
311
46433BB5681CEA7CEABA711E4E0DCEA2986027D79FEDCC08EA040752E6458D82A8ECDE8BEA52D597A6FCC05964126C9D093F1F4BE37740DEE2D523751467FBF48FABDFF8FFAE5E2A579587EBAEB0408A70E46B407016530AE51561A83151F20D504B03041400060808005A6C9D447A155802F6000000940100003500000035
311
443431313144412D313443312D343944382D423034412D3434423737383344373845342F536368656D61732F636F72652E786D6C8550CB6E833010FC15B477F38684C838120AFC407BEACDB21D6225D8C88FAA9F5F1BA8D49E7ADAD5ECCCECEEE0EBD7F24A3E85B152AB1E8A34874428A6B954730FDEDDD119922BC1466BF7
311
8B0689A28BE821C240F06CB45F0F8869E5848AA8D25C1C20B5563848D82B343D58F6100B4DA97781619FE94AD993CE222DD29D47B0F7921F52C9839BBC4B61800CCD38B6D36942EDB9C951DDE5351ADAB145B7A1CEC7AEBB4DC3A9C1591413ECE4F2B39D19419DE040CABCA8511095DD7B515DAAFAD2941F388B4C82AD33E1
311
E76369FC0EC8DB76A7C5D93EFBE3E957FEBFA797CA55E5E1B92B2C90229CB80D08CE6246A16C01861AF324DF504B03041400060808005A6C9D44A70A468100010000D70100002D00000035443431313144412D313443312D343944382D423034412D3434423737383344373845342F636F72652E786D6C95914D6EC3201085
311
AF82D8631B9B284E848992BA37E8AA3B0A131725068B9FAAC72FD4AEDAEEDA15E8F1BD19DE0C3FBDCF77F4063E1867074CAB0623B0CA6963A701A778253D4627C1BD73F107869195330CB8C858F0C9BBB46C927236822DAA751A36518600112375CF970107F50AB3AC648A9908B76A91EA2627A868B5728247337F59950719
311
4163D13694918691F6F044BB63C78EBBF699D785143C191BBB766B06F30B68E496982361B1E3F5FA9AA964F4C6189DFF68AE067C264646291DCF84B2074AD861ECC9A56167C2D865BFEFBB71DF3FB25C249B050FD1E7C96C45CA0CFE6A5F8DBF92A545FF33D9EA0858D0EF507519B3E0F5E70EF25956223E00504B03041400
311
060808005A6C9D442DF2EEBA06010000B201000008000000636F72652E786D6C8D50CB6EC32010FC15B4776CFC4C1C612259B1BFA0A7DEA8210E8A0D9681A8FDFB42E24AEDADA745F3D819969E3F97193DE46695D12D64090124F56884D2530BDE5DF111D099D1CD18F74B0648F345B610616074DA8C5F776834DA491D516D
311
84DC416EAD7480C6393C5AB0E34D2E3CE1DE0585BD272B1FEF7C924996BC748C3AB5FC58C74D722705B09C64252625CE9BB7AC3815E5A9CADF691A958C7AAFC41EA5444857572537605DD5F7F57018707DAC082E9BE0EEEABEC697AE247DD35C86EE50D1349A19B56E0B7FDE97849E0E59FE88B9347D518C7E1833EF82504A
311
20A3E72F6084A691F853DAAFE21FA5957645BE2F7C392CB02C147A1221385E308CE779C38CD766DF504B010214001400060808005A6C9D44BD36FA00D9000000200100004F000000000000000000000000000000000035443431313144412D313443312D343944382D423034412D3434423737383344373845342F41737365
311
74446174612F446566696E6974696F6E4974657261746F7250726F706572746965732E62696E504B010214001400060808005A6C9D448CF4DB661C0100003002000045000000000000000000000000004601000035443431313144412D313443312D343944382D423034412D3434423737383344373845342F417373657444
311
6174612F496E7374616E636550726F706572746965732E62696E504B010214001400060808005A6C9D4428BB58AF800100009E0500003D00000000000000000000000000C502000035443431313144412D313443312D343944382D423034412D3434423737383344373845342F536368656D61732F436F6D6D6F6E53636865
311
6D612E786D6C504B010214001400060808005A6C9D442CCEBD668A040000E01200003E00000000000000000000000000A004000035443431313144412D313443312D343944382D423034412D3434423737383344373845342F536368656D61732F47656E65726963536368656D612E786D6C504B010214001400060808005A
311
6C9D446180134D5F0100006B03000045000000000000000000000000008609000035443431313144412D313443312D343944382D423034412D3434423737383344373845342F536368656D61732F52656E6465724D6174657269616C536368656D612E786D6C504B010214001400060808005A6C9D4413AAFB614F00000057
311
0000004700000000000000000000000000480B000035443431313144412D313443312D343944382D423034412D3434423737383344373845342F4173736574446174612F41737365745461626C654F66436F6E74656E74732E62696E504B010214001400060808005A6C9D44F8658340580000006800000045000000000000
311
00000000000000FC0B000035443431313144412D313443312D343944382D423034412D3434423737383344373845342F4173736574446174612F53747265616D56657273696F6E5461626C652E696E66504B010214001400060808005A6C9D44D34D23E9350100009A0400003600000000000000000000000000B70C000035
311
443431313144412D313443312D343944382D423034412D3434423737383344373845342F4173736574446174612F636E782E786D6C504B010214001400060808005A6C9D44E965D292090100004F0300003400000000000000000000000000400E000035443431313144412D313443312D343944382D423034412D34344237
311
37383344373845342F536368656D61732F636E782E786D6C504B010214001400060808005A6C9D44410A3D5871000000A40000002C000000000000000000000000009B0F000035443431313144412D313443312D343944382D423034412D3434423737383344373845342F636E782E786D6C504B010214001400060808005A
311
6C9D44F74C325A7D000000A3000000070000000000000000000000000056100000636E782E786D6C504B010214001400060808005A6C9D4416E99B5DA6000000350100001300000000000000000000000000F81000005B436F6E74656E745F54797065735D2E786D6C504B010214001400060808005A6C9D443DEE336E6400
311
0000790000001B00000000000000000000000000CF1100006175746F6465736B2D64657369676E2D7061636B6167652E786D6C504B010214001400060808005A6C9D44E7F3CE6AF80000009601000037000000000000000000000000006C12000035443431313144412D313443312D343944382D423034412D343442373738
311
3344373845342F4173736574446174612F636F72652E786D6C504B010214001400060808005A6C9D447A155802F6000000940100003500000000000000000000000000B913000035443431313144412D313443312D343944382D423034412D3434423737383344373845342F536368656D61732F636F72652E786D6C504B01
311
0214001400060808005A6C9D44A70A468100010000D70100002D000000000000000000000000000215000035443431313144412D313443312D343944382D423034412D3434423737383344373845342F636F72652E786D6C504B010214001400060808005A6C9D442DF2EEBA06010000B20100000800000000000000000000
311
0000004D160000636F72652E786D6C504B050600000000110011005A060000791700000000
310
504B03041400060808005A6C9D44000000000000000000000000370000006662782F35363344393546352D313032422D343036372D383739342D4637453330393130443936392F617474726962757465732E62696E504B03041400060808005A6C9D44000000000000000000000000350000006662782F3536334439354635
310
2D313032422D343036372D383739342D4637453330393130443936392F76657274696365732E62696E504B03041400060808005A6C9D44F270F1330600000004000000360000006662782F35363344393546352D313032422D343036372D383739342D4637453330393130443936392F747269616E676C65732E62696E6366
310
60600000504B03041400060808005A6C9D4451464CB48900000043010000360000006662782F35363344393546352D313032422D343036372D383739342D4637453330393130443936392F6469726563746F72792E786D6C9D8F310EC2300C45AF127987122606C71DD918B841D4B851A43646695A717C52A85029031293A5
310
A76FBF6FACEF7DA7264E43906840EF0FA03836E242F406C6DCEE4EA06AC22492573150D1F66C60C640E8938CB705396EEDD86DE9B5042FE27813D640EA63BB001C722AF6E55CB61E4863F58284D5D3F53DD715CE1C3985E63FD7F1B7EBDD617E9F1E504B03041400060808005A6C9D44D2B1F83536070000201C0000340000
310
006662782F35363344393546352D313032422D343036372D383739342D4637453330393130443936392F6F626A656374732E786D6CDD59DB6EDB3810FD1542FBB2FB60DD7CA95D282E7C490AA3485BD4E862DF045AA61D6E74032925CE7EFD0E29529664D956B22D506C0A340E4D0D67CECC9C198EBC0F8728444F84719AC4
310
378663DA062271906C69BCBF31F26CD71B1BE8C314792C49B2CA3E03C5382237865836A6DE9E2579AA96B66487F3B0B97A37FF0BF180C4C440418839BF3178F040226CE23C4BB6843F9A5B9C6173BF3B988E596CAC8BDD339C3E348E4A31237106AAC27A0C5294064EFD4F30C99A7A96D850DBE676DBD6BFB0CD9286D715A5
310
31CF701C9C68D590E376D3AAEF0C96B7EE70D21B0E06FDDE60E43ABDF9DD7CD973DEF5EDC568B198CC6E27069A7A9B24094B07A424DE82175F8CA9E359E29BD27C85429BDE4112C7245068B66DD812259712DEC4A406AC234DAB38A4B0B5B2D0EF68FC996D9D40A9A954435B1BA77F57A337D9FC0D20F02E51CA381151CE33
310
06BE56D817F9607B56B15AF30BE528C21961148728A41B86193808B6160EAA8911D92244218199F4A29657D51502FB7A2EB569B9CBC350E4AF319599E6433E928C4BCDE83F841DB5AF9E063A81B5398DB3B132367B4941C4C4B3E462F15DDF555F1640A25D88F7102D60A6D8D4771B782D0417AC96C6F4D3DDE6B016FCD07E
310
78CA9294B04C449E4C669577DA8395D082E0EB004A816BDD774754BE01F49F01F95217E481E7183D0C0E036D3BC331DF252C02EF201BF56CF8CF46E2E3C927CF2A1F9E2254E3CA739842DAFE204C6B66D4CEAE403AF59E20E813D657C6AD031C424CDFD358E439040A0A135802BEDF6D0EC67405640A8BF0140EC17AF8E759
310
E223825F851CE09B8687DAE8B783A374C234F3ECE8AB8F10338C06A5AB6A369EC377F843F09D2DD79FD639DBE180DCABC45E921D8D6906C5B45DA11AE8B594FFBEFA2C33F2C49EDAAE00CED92782385AFCB2567E41D231A08AA8C3856BE4CA3D85740F431C9324E76ABD8DA882244C98BF79F18B1C6E3DEB4F1D04C56190DF
310
22025AC90CAA7BC0682A4031A6CABC9209CD234E82075500EE0BA7FA1B1C3C0A78FD0018EB2D7A40D462D6149A47A98FA3248F057D9F8677D334B36FCB1FC799B8F6C41D4F46DA582EC5EBECD1D4502A2FCE89707AE69045CD5B8A35B4E4228F06C0966D1604D033E5999FA438A0597B2C348C50190A605F54794B77BB9C03
310
A9B7C2D2D0D8EC3B436457FE2F0FB9ACBD3AC4A711DE137F8745856B3DAF0650295C5BD08ACC3E4C38A731E1B2433961AE062AB6094450C4AD96DA128494FB11C9F05BE24F96BC46F831B20B7DE8A532D1CD5E8F3EADA0AA9EE7248ACE2D897D69FF8BCF7194864597760D03C76D9CD08AAB505A1CF104F1E6E3CCB7B74436
310
DDD7A497BCA0F1ED247DF266F167E061F8A7C3A38FA0D07A438DBCEE59C71C3A13F1330652190D9DFE3BED886B58E9A332D1838439744DC18BFF4CE8FEA11BA1753A879370E7D330CC23BFA8071989A005C359CE3AE5EB68689F385FF14223212A27ED68080D7267D294BD87EE3EC02AD97C9C23CDCA3160148DE18ED6C990
310
132B5A4358FA42DE47C5B5EBBAF75F2FF53FF365F59EF2485E9E13B66DD5B4DE46E80E4C370C822E55852BE3484A9E7AD5E48BE4C5E53A0E032D44F15B714B5011C2C81315830979036ABD3FF0679C0540A46BF9BB37878CD892EDB1A7A88953630E630A876A69BA4FADDE7480EC44F9A8355E2B41A8114C1BB0E0D97BF121
310
FC86C1D5D0F9714B753556B1BE1285CD84C1CA518F0BB2BE7C5C37A4C04AE7A7BF0A8CC87343825A5D8846EE82A8EFAB63BFDA90A02CFABEBAF078F690479B185351194558E06DFAFE83BC4BDE587051B026CE6CE94E6E273D77B080D9C562B9ECCD1CDBED2D46CBD16439B873C6B7738B119EE42C20DC722DDBD7BD531AEF
310
756014D075B951C054E1FAD54FC773D3C1FFE31B45986CF0B958FC552F1465BB271AB2462E76BD50B412F5E675DDBF7342D4ED45EC559D73312BD0017EB96C0119E97ADFBDB5D0A27527D1AE73A522BEB2F09EBDADFCF41A5323F4D6FA50DBD146F9752E86D9534B95D2B75BC96B7783C1CC1E3B766FEE8E1630831DBBBDC9
310
BBC9ACB784D5F9AD3B98CF976513DD64AB6B75E597E0505D042B63349806F324A43094275BB42709DC8060EAD0815F5944B8BCD94003A0CAB87E23D0E1E9A762A69AE14DA89F0E1E300CA6435591F30086A270EBB831D43AFA0DC6A06212298753E623141E15ED06CA19BD312004320AF5C5DCC0384B0E0FA5F4C6B8120217
310
C77B71672A9E2AFF3E3E26D0815839DA55EEE9828BB2AC169D301C48E57B02603BDD90BCDD74AD0EC2197CDCE45969CC71E1688D0241BF10288C83A9DFA382F700C473D92EC7947B6A90749ACC5F8C83426A2FC36C2FC7EB15BC67CBAF96988CAFBEA034CCF7C29D97EA7D4D524FF419615E0CA13C080C65668AC53D7CF1DE
310
FACA1278C514A13B0A41807E3F8C477F588B248A92B858B266EA45155A3FC06BA7ADA5477ED0B8D8CED0927D8F1AEBC3DC8A13136FF9232C806B1915B3D102E25A0094F4540900ED11E10B78ACB67FB544AA08545AD82AC50878E44C1F4122897739226DAA1B2A0348C805D04A7E79FCA0173C8BC1107CFA2F504B03041400
310
060808005A6C9D4469AD3A343F01000046050000300000006662782F35363344393546352D313032422D343036372D383739342D4637453330393130443936392F636E782E786D6CCD944D4EC3301085AF12791FE7A74582CA7125169C800562E738D360EA78227B82E8EDB14B5A40A88845A576678DDF48EF9B791AB17E1F
310
6CF6063E18740DAB78C932701A3BE3FA864DB4C96F59B696C223D23719CB9C1AA061A9CCA4E83D4EE35CEA60A3269BAAD6B8ED5C5444DEB413416099B62A848605FD0283E26A22EC206C79A748F18A7B0838790DB19FCC0073BFF6A0083A26EBB25AE6E532AFEF1EABC56AB15CDDD4CFA2484A295A443BEB8D23F038661AE3
310
C34533A528D2B7149337B3261130F9E58CB7C68922FE4B11A25BD7CF3ADA8D49378ED66845714C056A02CAA308D4208A4FB11445E2FD41FD70FF74709075C68326F4BB0B0DA03A3580A3311E93F03FFEBDF06F6C6C5F23EEA5B67D1276B67536D4435A438CEBEFFDC71429D7DBEB0BFDD1D8F9331F4F09197D7DC8075F6722
310
2EF6272F2E3D5D40F901504B03041400060808005A6C9D44B44C81B57E000000A30000000B0000006662782F636E782E786D6C4D8CD10AC22018465F45FE7B4BDBD409EA20D6DE63343724A761337AFC3476D1D50787EF1CD57F368FDE36BD5C0C1AE88900B2E11E6717560D795F7007A8372AC5B8FFDD008569B31A2A06A3
310
D614F3F340B35DA6EC2BF52E3C0EC878334836324CC9E58A5BC205EE846CF1286E0D91940C92CB629CAB52E6D72B5BF3E60B504B03041400060808005A6C9D44A6D797065F0000008200000007000000636E782E786D6C4DCB3B0E80201045D1AD90E9FD7516806B51190811670C8A61F982B1B0BAC9C97B72CA7B1037C6D3
310
332918DA1E04D2CAC69353902EDB8C20262D23F3F59B81A079470595414B17391D1F19B4730A5583A7ED43BBE4025D9592775E5ADFFA01504B03041400060808005A6C9D444FEB6A7CA0000000F4000000130000005B436F6E74656E745F54797065735D2E786D6C7D8F4B0EC2300C44AF1279DFA6B0400835ED02B8011730
310
C16D239A8F121795DB93D02D6269CFBC19BBED573B8B17C564BC53B0AB1B10E4B47F18372A5878A88E20FAAEBDBD032591BD2E299898C349CAA427B2986A1FC86565F0D122E7318E32A07EE24872DF3407A9BD63725C71C980AEBDD080CBCCE2BAE6F5D69B7110E7CD57AA146008B3D1C8F92C5954F993BB1BF787F39A89AB
310
C491D09600F9FDA2FB00504B03041400060808005A6C9D443DEE336E64000000790000001B0000006175746F6465736B2D64657369676E2D7061636B6167652E786D6C35CBC10E83200C00D05F21DCA56CA76D41FC96062B120735B69A7DBE268BB7777961F8D5AF396893C2ADB70FE7ADA196782C2DF776D7A97B5933C430
310
F15651E5469C55D70F80A4992A3ADC954792C525AE70A1E4D6AD9816CC044FEFDF01FE3FDE907802504B03041400060808005A6C9D44E0264E04FA000000960100003B0000006662782F35363344393546352D313032422D343036372D383739342D4637453330393130443936392F7265736F75726365732F636F72652E78
310
6D6C8550CB6E833010FC15B477430C46249171441E7C414FBD596643AD043BF2A3EAE7D74EA8D49E7ADAD5ECCCECEEF0C3D7722F3ED1796D4D0FB4DC408146D9499BB98718AE640BC54170676DF84583C2C8057BC830083E3B1B1F2BA4AC0968326AEC842B28BDC70085BAA7A607AF3E7091A58C2131FCAD7C4875933396B4
310
7CF1048F514FAB544FC94D5F353A10DB9176ECC4067219DA96B0D3C8C8D07547B23B1F87533B8E97EE7CE655160B1EF4F2B35D3994012710F58632B261A4DEBDD166DFB07D5BBFF32A3305F7C1A59FD7A5F93B100EBD8D4EA1E7D56BFAC7353EA6FF5DA336A1A957D797C283A0E9C8E740F02AA794CA33C25473A2E21B504B
310
03041400060808005A6C9D44B371068AF1000000B1010000310000006662782F35363344393546352D313032422D343036372D383739342D4637453330393130443936392F636F72652E786D6C8D50CB6EC32010FC156BEFD8E0671C61225569BEA0A7DE10100725068B47D5CF2FC4AED4DE725A343BC3CC0E3D7D2F8FE24B
310
39AFAD998094180A658495DACC13C4704507284E8C3A6BC31F1A14862F6A820C03A3B3B371DD21614D5026A3C64AB583DC7B15A0108FF498C08B9B5A78C963480C7F2F572EEE7C562529371EA3412FBF52E1140F4A02AB3169116E513D7E90E6D8B4C7AEFEA45566321AA396BB9596C95D5FB572C0BABE398FDDA54304D76F
310
A8C5FD800EC3D8A2CBF0DEE091E0F3D88FB4CA62467D70E9E6FD937CDDABF24DF82F735CE50B99B5094DBD1B6E0A0F8CA43CCF05A3552E308D67BB69E6B2D90F504B03041400060808005A6C9D44915F53E054010000DD0200000C0000006662782F636F72652E786D6C8D52DB8E832014FC15C33BDE8AB16D90C65EFC827D
310
DA37AAD425553008A69FBFE025AE0FDBDD98209973CECC9909F8F46A1B6F60AAE7526420F243E03151CA8A8B3A03463FE01E7827829594FA471BF0046D59061C0C08AE9534DD0C955268261C2A64C56690F63DD3C02B1B7BC9405F7EB196FAD468DBD13FFD8E964F5A333FF2A73E828DE1D53CCA2BCBC61F9C2940F64594A2
310
0BCAE12D4F12882E0582799A9EE1E17ACE2F4951DCD2EB15076E9860CDDB45BD548C6A5601128711822182F1E123DA1D77E898C49F38709D04F75A59CFB3A87307C8E3FEC2C1846FF84C57FDCD67B8D0BB78E69B267A4022BBDE58203870F9D8DF18DE36432B6CF3D3F4DE2C169E161A58A9A542B65249B39606DA1866A943
310
6FFC7030552DF348F01B4FFC86E73D870D8A8ADAAE46B5BDDE8D76EADB9D3AA6E0A05F9E90AAA5CDBADCB4E27AAE421B4BCB78291BA9FE33BD585DC20CDCC324DF504B03041400060808005A6C9D442DBAA79008010000B201000008000000636F72652E786D6C8D50CB6EC32010FC15B477FCC472126122C78EBFA0A7DEA8
310
210E8A0D96C151FBF785D895DA5B4F8B66667786A1E7CF69444FB95865740569940092BA3742E9A182D5DDF001D099D1C518F74B0648F349561060607458CC3AEF506FB4933AA0DA08B983DC5AE900F5A37F5460FBBB9C78C457E715F611CDBC7FF0414669B4E918756AFA59ED17C99D14C0B224253821383BBEA5F92927A7
310
227BA7715032BAAE4AEC564A78777553720176E8D29234A4C6D7BA2830693A82EBB2BCE0637BA99BA2EBAE65DBD2382C336ADDE2FFBC1FF1391DB2FC197C69BC518C7E1833EE021F4A20A3C72F60098D03F127F43A8B7F8456DAE5D97E70DBB0C0521FE84578E3D0A01FAF7AFD0C6DB36F504B010214001400060808005A6C
310
9D440000000000000000000000003700000000000000000000000000000000006662782F35363344393546352D313032422D343036372D383739342D4637453330393130443936392F617474726962757465732E62696E504B010214001400060808005A6C9D44000000000000000000000000350000000000000000000000
310
0000550000006662782F35363344393546352D313032422D343036372D383739342D4637453330393130443936392F76657274696365732E62696E504B010214001400060808005A6C9D44F270F13306000000040000003600000000000000000000000000A80000006662782F35363344393546352D313032422D34303637
310
2D383739342D4637453330393130443936392F747269616E676C65732E62696E504B010214001400060808005A6C9D4451464CB489000000430100003600000000000000000000000000020100006662782F35363344393546352D313032422D343036372D383739342D4637453330393130443936392F6469726563746F72
310
792E786D6C504B010214001400060808005A6C9D44D2B1F83536070000201C00003400000000000000000000000000DF0100006662782F35363344393546352D313032422D343036372D383739342D4637453330393130443936392F6F626A656374732E786D6C504B010214001400060808005A6C9D4469AD3A343F010000
310
460500003000000000000000000000000000670900006662782F35363344393546352D313032422D343036372D383739342D4637453330393130443936392F636E782E786D6C504B010214001400060808005A6C9D44B44C81B57E000000A30000000B00000000000000000000000000F40A00006662782F636E782E786D6C
310
504B010214001400060808005A6C9D44A6D797065F0000008200000007000000000000000000000000009B0B0000636E782E786D6C504B010214001400060808005A6C9D444FEB6A7CA0000000F400000013000000000000000000000000001F0C00005B436F6E74656E745F54797065735D2E786D6C504B01021400140006
310
0808005A6C9D443DEE336E64000000790000001B00000000000000000000000000F00C00006175746F6465736B2D64657369676E2D7061636B6167652E786D6C504B010214001400060808005A6C9D44E0264E04FA000000960100003B000000000000000000000000008D0D00006662782F35363344393546352D31303242
310
2D343036372D383739342D4637453330393130443936392F7265736F75726365732F636F72652E786D6C504B010214001400060808005A6C9D44B371068AF1000000B10100003100000000000000000000000000E00E00006662782F35363344393546352D313032422D343036372D383739342D4637453330393130443936
310
392F636F72652E786D6C504B010214001400060808005A6C9D44915F53E054010000DD0200000C00000000000000000000000000201000006662782F636F72652E786D6C504B010214001400060808005A6C9D442DBAA79008010000B201000008000000000000000000000000009E110000636F72652E786D6C504B050600
310
0000000E000E0080040000CC1200000000
  0
XRECORD
  5
10
102
{ACAD_REACTORS
330
C
102
}
330
C
100
AcDbXrecord
280
     1
270
     1
271
     1
  0
XRECORD
  5
11
102
{ACAD_REACTORS
330
C
102
}
330
C
100
AcDbXrecord
280
     1
270
     1
271
     1
  0
XRECORD
  5
12
102
{ACAD_REACTORS
330
C
102
}
330
C
100
AcDbXrecord
280
     1
270
     1
271
     1
  0
XRECORD
  5
13
102
{ACAD_REACTORS
330
C
102
}
330
C
100
AcDbXrecord
280
     1
270
     1
271
     1
  0
CELLSTYLEMAP
  5
464
102
{ACAD_REACTORS
330
463
102
}
330
463
100
AcDbCellStyleMap
 90
        3
300
CELLSTYLE
  1
TABLEFORMAT_BEGIN
 90
        5
170
     1
 91
        0
 92
    32768
 62
   257
 93
        1
300
CONTENTFORMAT
  1
CONTENTFORMAT_BEGIN
 90
        0
 91
        0
 92
      512
 93
        0
300

 40
0.0
140
1.0
 94
        5
 62
     0
340
25
144
0.25
309
CONTENTFORMAT_END
171
     0
 94
        0
309
TABLEFORMAT_END
  1
CELLSTYLE_BEGIN
 90
        1
 91
        1
300
_TITLE
309
CELLSTYLE_END
300
CELLSTYLE
  1
TABLEFORMAT_BEGIN
 90
        5
170
     1
 91
        0
 92
        0
 62
   257
 93
        1
300
CONTENTFORMAT
  1
CONTENTFORMAT_BEGIN
 90
        0
 91
        0
 92
      512
 93
        0
300

 40
0.0
140
1.0
 94
        5
 62
     0
340
25
144
0.18
309
CONTENTFORMAT_END
171
     0
 94
        0
309
TABLEFORMAT_END
  1
CELLSTYLE_BEGIN
 90
        2
 91
        1
300
_HEADER
309
CELLSTYLE_END
300
CELLSTYLE
  1
TABLEFORMAT_BEGIN
 90
        5
170
     1
 91
        0
 92
        0
 62
   257
 93
        1
300
CONTENTFORMAT
  1
CONTENTFORMAT_BEGIN
 90
        0
 91
        0
 92
      512
 93
        0
300

 40
0.0
140
1.0
 94
        2
 62
     0
340
25
144
0.18
309
CONTENTFORMAT_END
171
     0
 94
        0
309
TABLEFORMAT_END
  1
CELLSTYLE_BEGIN
 90
        3
 91
        2
300
_DATA
309
CELLSTYLE_END
  0
XRECORD
  5
46F
102
{ACAD_REACTORS
330
46E
102
}
330
46E
100
AcDbXrecord
280
     1
102
RTVSPost2010Prop28
280
     1
102
RTVSPost2010PropOp28
 70
     1
102
RTVSPost2010Prop29
280
     1
102
RTVSPost2010PropOp29
 70
     1
102
RTVSPost2010Prop30
280
     0
102
RTVSPost2010PropOp30
 70
     1
102
RTVSPost2010Prop31
280
     0
102
RTVSPost2010PropOp31
 70
     1
102
RTVSPost2010Prop32
280
     0
102
RTVSPost2010PropOp32
 70
     1
102
RTVSPost2010Prop33
280
     0
102
RTVSPost2010PropOp33
 70
     1
102
RTVSPost2010Prop34
280
     0
102
RTVSPost2010PropOp34
 70
     1
102
RTVSPost2010Prop35
280
     0
102
RTVSPost2010PropOp35
 70
     1
102
RTVSPost2010Prop36
280
     0
102
RTVSPost2010PropOp36
 70
     1
102
RTVSPost2010Prop37
 90
       50
102
RTVSPost2010PropOp37
 70
     1
102
RTVSPost2010Prop38
140
0.0
102
RTVSPost2010PropOp38
 70
     1
102
RTVSPost2010Prop39
140
1.0
102
RTVSPost2010PropOp39
 70
     1
102
RTVSPost2010Prop40
 90
        0
102
RTVSPost2010PropOp40
 70
     1
102
RTVSPost2010Prop41ColorIndex
 90
       18
102
RTVSPost2010Prop41ColorRGB
 90
        0
102
RTVSPost2010PropOp41
 70
     1
102
RTVSPost2010Prop42
 90
       50
102
RTVSPost2010PropOp42
 70
     1
102
RTVSPost2010Prop43
 90
        3
102
RTVSPost2010PropOp43
 70
     1
102
RTVSPost2010Prop44ColorIndex
 90
        5
102
RTVSPost2010Prop44ColorRGB
 90
      255
102
RTVSPost2010PropOp44
 70
     1
102
RTVSPost2010Prop45
280
     0
102
RTVSPost2010PropOp45
 70
     1
102
RTVSPost2010Prop46
 90
       50
102
RTVSPost2010PropOp46
 70
     1
102
RTVSPost2010Prop47
 90
       50
102
RTVSPost2010PropOp47
 70
     1
102
RTVSPost2010Prop48
 90
       50
102
RTVSPost2010PropOp48
 70
     1
102
RTVSPost2010Prop49
280
     0
102
RTVSPost2010PropOp49
 70
     1
102
RTVSPost2010Prop50
 90
       50
102
RTVSPost2010PropOp50
 70
     1
102
RTVSPost2010Prop51ColorIndex
 90
      256
102
RTVSPost2010Prop51ColorRGB
 90
-16777216
102
RTVSPost2010PropOp51
 70
     0
102
RTVSPost2010Prop52
140
1.0
102
RTVSPost2010PropOp52
 70
     0
102
RTVSPost2010Prop53
 90
        2
102
RTVSPost2010PropOp53
 70
     1
102
RTVSPost2010Prop54
  1
strokes_ogs.tif
102
RTVSPost2010PropOp54
 70
     1
102
RTVSPost2010Prop55
280
     0
102
RTVSPost2010PropOp55
 70
     1
102
RTVSPost2010Prop56
140
1.0
102
RTVSPost2010PropOp56
 70
     1
102
RTVSPost2010Prop57
140
1.0
102
RTVSPost2010PropOp57
 70
     1
102
RTVSPropertyOp0
 70
     1
102
RTVSPropertyOp1
 70
     1
102
RTVSPropertyOp2
 70
     1
102
RTVSPropertyOp3
 70
     1
102
RTVSPropertyOp4
 70
     1
102
RTVSPropertyOp5
 70
     1
102
RTVSPropertyOp6
 70
     1
102
RTVSPropertyOp7
 70
     1
102
RTVSPropertyOp8
 70
     1
102
RTVSPropertyOp9
 70
     1
102
RTVSPropertyOp10
 70
     1
102
RTVSPropertyOp11
 70
     1
102
RTVSPropertyOp12
 70
     1
102
RTVSPropertyOp13
 70
     1
102
RTVSPropertyOp14
 70
     1
102
RTVSPropertyOp15
 70
     1
102
RTVSPropertyOp16
 70
     1
102
RTVSPropertyOp17
 70
     1
102
RTVSPropertyOp18
 70
     1
102
RTVSPropertyOp19
 70
     1
102
RTVSPropertyOp20
 70
     1
102
RTVSPropertyOp21
 70
     1
102
RTVSPropertyOp22
 70
     1
102
RTVSPropertyOp23
 70
     1
102
RTVSPropertyOp24
 70
     1
102
RTVSPropertyOp25
 70
     1
102
RTVSPropertyOp26
 70
     1
102
RTVSPropertyOp27
 70
     1
102
RTVSPropertyOp28
 70
     1
102
RTVSPropertyOp29
 70
     1
102
RTVSPropertyOp30
 70
     1
102
RTVSPropertyOp31
 70
     1
102
RTVSPropertyOp32
 70
     1
102
RTVSPropertyOp33
 70
     1
102
RTVSPropertyOp34
 70
     1
102
RTVSPropertyOp35
 70
     1
102
RTVSPropertyOp36
 70
     1
102
RTVSPropertyOp37
 70
     1
102
RTVSPropertyOp38
 70
     1
102
RTVSPropertyOp39
 70
     1
102
RTVSPropertyOp40
 70
     1
102
RTVSPropertyOp41
 70
     1
102
RTVSPropertyOp42
 70
     1
102
RTVSPropertyOp43
 70
     1
102
RTVSPropertyOp44
 70
     1
102
RTVSPropertyOp45
 70
     1
102
RTVSPropertyOp46
 70
     1
102
RTVSPropertyOp47
 70
     1
102
RTVSPropertyOp48
 70
     1
102
RTVSPropertyOp49
 70
     1
102
RTVSPropertyOp50
 70
     1
102
RTVSPropertyOp51
 70
     0
102
RTVSPropertyOp52
 70
     0
102
RTVSPropertyOp53
 70
     1
102
RTVSPropertyOp54
 70
     1
102
RTVSPropertyOp55
 70
     1
102
RTVSPropertyOp56
 70
     1
102
RTVSPropertyOp57
 70
     1
102
RTVSPropertyOp58
 70
     1
102
RTVSPropertyOp59
 70
     1
102
RTVSPropertyOp60
 70
     1
102
RTVSPropertyOp61
 70
     1
102
RTVSPropertyOp62
 70
     1
  0
XRECORD
  5
471
102
{ACAD_REACTORS
330
470
102
}
330
470
100
AcDbXrecord
280
     1
102
RTVSPost2010Prop28
280
     0
102
RTVSPost2010PropOp28
 70
     1
102
RTVSPost2010Prop29
280
     1
102
RTVSPost2010PropOp29
 70
     1
102
RTVSPost2010Prop30
280
     1
102
RTVSPost2010PropOp30
 70
     1
102
RTVSPost2010Prop31
280
     0
102
RTVSPost2010PropOp31
 70
     1
102
RTVSPost2010Prop32
280
     0
102
RTVSPost2010PropOp32
 70
     1
102
RTVSPost2010Prop33
280
     0
102
RTVSPost2010PropOp33
 70
     1
102
RTVSPost2010Prop34
280
     0
102
RTVSPost2010PropOp34
 70
     1
102
RTVSPost2010Prop35
280
     0
102
RTVSPost2010PropOp35
 70
     1
102
RTVSPost2010Prop36
280
     0
102
RTVSPost2010PropOp36
 70
     1
102
RTVSPost2010Prop37
 90
       50
102
RTVSPost2010PropOp37
 70
     1
102
RTVSPost2010Prop38
140
0.0
102
RTVSPost2010PropOp38
 70
     1
102
RTVSPost2010Prop39
140
1.0
102
RTVSPost2010PropOp39
 70
     1
102
RTVSPost2010Prop40
 90
        0
102
RTVSPost2010PropOp40
 70
     1
102
RTVSPost2010Prop41ColorIndex
 90
       18
102
RTVSPost2010Prop41ColorRGB
 90
        0
102
RTVSPost2010PropOp41
 70
     1
102
RTVSPost2010Prop42
 90
       50
102
RTVSPost2010PropOp42
 70
     1
102
RTVSPost2010Prop43
 90
        3
102
RTVSPost2010PropOp43
 70
     1
102
RTVSPost2010Prop44ColorIndex
 90
        5
102
RTVSPost2010Prop44ColorRGB
 90
      255
102
RTVSPost2010PropOp44
 70
     1
102
RTVSPost2010Prop45
280
     0
102
RTVSPost2010PropOp45
 70
     1
102
RTVSPost2010Prop46
 90
       50
102
RTVSPost2010PropOp46
 70
     1
102
RTVSPost2010Prop47
 90
       50
102
RTVSPost2010PropOp47
 70
     1
102
RTVSPost2010Prop48
 90
       50
102
RTVSPost2010PropOp48
 70
     1
102
RTVSPost2010Prop49
280
     0
102
RTVSPost2010PropOp49
 70
     1
102
RTVSPost2010Prop50
 90
       50
102
RTVSPost2010PropOp50
 70
     1
102
RTVSPost2010Prop51ColorIndex
 90
      256
102
RTVSPost2010Prop51ColorRGB
 90
-16777216
102
RTVSPost2010PropOp51
 70
     0
102
RTVSPost2010Prop52
140
1.0
102
RTVSPost2010PropOp52
 70
     0
102
RTVSPost2010Prop53
 90
        2
102
RTVSPost2010PropOp53
 70
     1
102
RTVSPost2010Prop54
  1
strokes_ogs.tif
102
RTVSPost2010PropOp54
 70
     1
102
RTVSPost2010Prop55
280
     0
102
RTVSPost2010PropOp55
 70
     1
102
RTVSPost2010Prop56
140
1.0
102
RTVSPost2010PropOp56
 70
     1
102
RTVSPost2010Prop57
140
1.0
102
RTVSPost2010PropOp57
 70
     1
102
RTVSPropertyOp0
 70
     1
102
RTVSPropertyOp1
 70
     1
102
RTVSPropertyOp2
 70
     1
102
RTVSPropertyOp3
 70
     1
102
RTVSPropertyOp4
 70
     1
102
RTVSPropertyOp5
 70
     1
102
RTVSPropertyOp6
 70
     1
102
RTVSPropertyOp7
 70
     1
102
RTVSPropertyOp8
 70
     1
102
RTVSPropertyOp9
 70
     1
102
RTVSPropertyOp10
 70
     1
102
RTVSPropertyOp11
 70
     1
102
RTVSPropertyOp12
 70
     1
102
RTVSPropertyOp13
 70
     1
102
RTVSPropertyOp14
 70
     1
102
RTVSPropertyOp15
 70
     1
102
RTVSPropertyOp16
 70
     1
102
RTVSPropertyOp17
 70
     1
102
RTVSPropertyOp18
 70
     1
102
RTVSPropertyOp19
 70
     1
102
RTVSPropertyOp20
 70
     1
102
RTVSPropertyOp21
 70
     1
102
RTVSPropertyOp22
 70
     1
102
RTVSPropertyOp23
 70
     1
102
RTVSPropertyOp24
 70
     1
102
RTVSPropertyOp25
 70
     1
102
RTVSPropertyOp26
 70
     1
102
RTVSPropertyOp27
 70
     1
102
RTVSPropertyOp28
 70
     1
102
RTVSPropertyOp29
 70
     1
102
RTVSPropertyOp30
 70
     1
102
RTVSPropertyOp31
 70
     1
102
RTVSPropertyOp32
 70
     1
102
RTVSPropertyOp33
 70
     1
102
RTVSPropertyOp34
 70
     1
102
RTVSPropertyOp35
 70
     1
102
RTVSPropertyOp36
 70
     1
102
RTVSPropertyOp37
 70
     1
102
RTVSPropertyOp38
 70
     1
102
RTVSPropertyOp39
 70
     1
102
RTVSPropertyOp40
 70
     1
102
RTVSPropertyOp41
 70
     1
102
RTVSPropertyOp42
 70
     1
102
RTVSPropertyOp43
 70
     1
102
RTVSPropertyOp44
 70
     1
102
RTVSPropertyOp45
 70
     1
102
RTVSPropertyOp46
 70
     1
102
RTVSPropertyOp47
 70
     1
102
RTVSPropertyOp48
 70
     1
102
RTVSPropertyOp49
 70
     1
102
RTVSPropertyOp50
 70
     1
102
RTVSPropertyOp51
 70
     0
102
RTVSPropertyOp52
 70
     0
102
RTVSPropertyOp53
 70
     1
102
RTVSPropertyOp54
 70
     1
102
RTVSPropertyOp55
 70
     1
102
RTVSPropertyOp56
 70
     1
102
RTVSPropertyOp57
 70
     1
102
RTVSPropertyOp58
 70
     1
102
RTVSPropertyOp59
 70
     1
102
RTVSPropertyOp60
 70
     1
102
RTVSPropertyOp61
 70
     1
102
RTVSPropertyOp62
 70
     1
  0
XRECORD
  5
473
102
{ACAD_REACTORS
330
472
102
}
330
472
100
AcDbXrecord
280
     1
102
RTVSPost2010Prop28
280
     0
102
RTVSPost2010PropOp28
 70
     1
102
RTVSPost2010Prop29
280
     1
102
RTVSPost2010PropOp29
 70
     1
102
RTVSPost2010Prop30
280
     1
102
RTVSPost2010PropOp30
 70
     1
102
RTVSPost2010Prop31
280
     0
102
RTVSPost2010PropOp31
 70
     1
102
RTVSPost2010Prop32
280
     0
102
RTVSPost2010PropOp32
 70
     1
102
RTVSPost2010Prop33
280
     0
102
RTVSPost2010PropOp33
 70
     1
102
RTVSPost2010Prop34
280
     0
102
RTVSPost2010PropOp34
 70
     1
102
RTVSPost2010Prop35
280
     0
102
RTVSPost2010PropOp35
 70
     1
102
RTVSPost2010Prop36
280
     0
102
RTVSPost2010PropOp36
 70
     1
102
RTVSPost2010Prop37
 90
       50
102
RTVSPost2010PropOp37
 70
     1
102
RTVSPost2010Prop38
140
0.0
102
RTVSPost2010PropOp38
 70
     1
102
RTVSPost2010Prop39
140
1.0
102
RTVSPost2010PropOp39
 70
     1
102
RTVSPost2010Prop40
 90
        0
102
RTVSPost2010PropOp40
 70
     1
102
RTVSPost2010Prop41ColorIndex
 90
       18
102
RTVSPost2010Prop41ColorRGB
 90
        0
102
RTVSPost2010PropOp41
 70
     1
102
RTVSPost2010Prop42
 90
       50
102
RTVSPost2010PropOp42
 70
     1
102
RTVSPost2010Prop43
 90
        3
102
RTVSPost2010PropOp43
 70
     1
102
RTVSPost2010Prop44ColorIndex
 90
        5
102
RTVSPost2010Prop44ColorRGB
 90
      255
102
RTVSPost2010PropOp44
 70
     1
102
RTVSPost2010Prop45
280
     0
102
RTVSPost2010PropOp45
 70
     1
102
RTVSPost2010Prop46
 90
       50
102
RTVSPost2010PropOp46
 70
     1
102
RTVSPost2010Prop47
 90
       50
102
RTVSPost2010PropOp47
 70
     1
102
RTVSPost2010Prop48
 90
       50
102
RTVSPost2010PropOp48
 70
     1
102
RTVSPost2010Prop49
280
     0
102
RTVSPost2010PropOp49
 70
     1
102
RTVSPost2010Prop50
 90
       50
102
RTVSPost2010PropOp50
 70
     1
102
RTVSPost2010Prop51ColorIndex
 90
      256
102
RTVSPost2010Prop51ColorRGB
 90
-16777216
102
RTVSPost2010PropOp51
 70
     0
102
RTVSPost2010Prop52
140
1.0
102
RTVSPost2010PropOp52
 70
     0
102
RTVSPost2010Prop53
 90
        2
102
RTVSPost2010PropOp53
 70
     1
102
RTVSPost2010Prop54
  1
strokes_ogs.tif
102
RTVSPost2010PropOp54
 70
     1
102
RTVSPost2010Prop55
280
     0
102
RTVSPost2010PropOp55
 70
     1
102
RTVSPost2010Prop56
140
1.0
102
RTVSPost2010PropOp56
 70
     1
102
RTVSPost2010Prop57
140
1.0
102
RTVSPost2010PropOp57
 70
     1
102
RTVSPropertyOp0
 70
     1
102
RTVSPropertyOp1
 70
     1
102
RTVSPropertyOp2
 70
     1
102
RTVSPropertyOp3
 70
     1
102
RTVSPropertyOp4
 70
     1
102
RTVSPropertyOp5
 70
     1
102
RTVSPropertyOp6
 70
     1
102
RTVSPropertyOp7
 70
     1
102
RTVSPropertyOp8
 70
     1
102
RTVSPropertyOp9
 70
     1
102
RTVSPropertyOp10
 70
     1
102
RTVSPropertyOp11
 70
     1
102
RTVSPropertyOp12
 70
     1
102
RTVSPropertyOp13
 70
     1
102
RTVSPropertyOp14
 70
     1
102
RTVSPropertyOp15
 70
     1
102
RTVSPropertyOp16
 70
     1
102
RTVSPropertyOp17
 70
     1
102
RTVSPropertyOp18
 70
     1
102
RTVSPropertyOp19
 70
     1
102
RTVSPropertyOp20
 70
     1
102
RTVSPropertyOp21
 70
     1
102
RTVSPropertyOp22
 70
     1
102
RTVSPropertyOp23
 70
     1
102
RTVSPropertyOp24
 70
     1
102
RTVSPropertyOp25
 70
     1
102
RTVSPropertyOp26
 70
     1
102
RTVSPropertyOp27
 70
     1
102
RTVSPropertyOp28
 70
     1
102
RTVSPropertyOp29
 70
     1
102
RTVSPropertyOp30
 70
     1
102
RTVSPropertyOp31
 70
     1
102
RTVSPropertyOp32
 70
     1
102
RTVSPropertyOp33
 70
     1
102
RTVSPropertyOp34
 70
     1
102
RTVSPropertyOp35
 70
     1
102
RTVSPropertyOp36
 70
     1
102
RTVSPropertyOp37
 70
     1
102
RTVSPropertyOp38
 70
     1
102
RTVSPropertyOp39
 70
     1
102
RTVSPropertyOp40
 70
     1
102
RTVSPropertyOp41
 70
     1
102
RTVSPropertyOp42
 70
     1
102
RTVSPropertyOp43
 70
     1
102
RTVSPropertyOp44
 70
     1
102
RTVSPropertyOp45
 70
     1
102
RTVSPropertyOp46
 70
     1
102
RTVSPropertyOp47
 70
     1
102
RTVSPropertyOp48
 70
     1
102
RTVSPropertyOp49
 70
     1
102
RTVSPropertyOp50
 70
     1
102
RTVSPropertyOp51
 70
     0
102
RTVSPropertyOp52
 70
     0
102
RTVSPropertyOp53
 70
     1
102
RTVSPropertyOp54
 70
     1
102
RTVSPropertyOp55
 70
     1
102
RTVSPropertyOp56
 70
     1
102
RTVSPropertyOp57
 70
     1
102
RTVSPropertyOp58
 70
     1
102
RTVSPropertyOp59
 70
     1
102
RTVSPropertyOp60
 70
     1
102
RTVSPropertyOp61
 70
     1
102
RTVSPropertyOp62
 70
     1
  0
ENDSEC
  0
EOF
