  0
SECTION
  2
HEADER
  9
$ACADVER
  1
AC1021
  9
$ACADMAINTVER
 70
    50
  9
$DWGCODEPAGE
  3
ANSI_1252
  9
$INSBASE
 10
0.0000000000000675
 20
2082.0
 30
0.0
  9
$EXTMIN
 10
-20.64000804026
 20
-118.8948860770469
 30
-0.0000000000009873
  9
$EXTMAX
 10
8932.653686002288
 20
4775.145773728325
 30
0.0000000000004264
  9
$LIMMIN
 10
0.0
 20
0.0
  9
$LIMMAX
 10
297.0
 20
210.0
  9
$ORTHOMODE
 70
     0
  9
$REGENMODE
 70
     1
  9
$FILLMODE
 70
     1
  9
$QTEXTMODE
 70
     0
  9
$MIRRTEXT
 70
     1
  9
$LTSCALE
 40
10.0
  9
$ATTMODE
 70
     1
  9
$TEXTSIZE
 40
3.5
  9
$TRACEWID
 40
0.05
  9
$TEXTSTYLE
  7
SIMPLEX
  9
$CLAYER
  8
Kasten
  9
$CELTYPE
  6
ByLayer
  9
$CECOLOR
 62
   256
  9
$CELTSCALE
 40
1.0
  9
$DISPSILH
 70
     0
  9
$DIMSCALE
 40
1.0
  9
$DIMASZ
 40
3.5
  9
$DIMEXO
 40
0.1
  9
$DIMDLI
 40
0.4
  9
$DIMRND
 40
0.0
  9
$DIMDLE
 40
0.0
  9
$DIMEXE
 40
1.8
  9
$DIMTP
 40
0.0
  9
$DIMTM
 40
0.0
  9
$DIMTXT
 40
3.5
  9
$DIMCEN
 40
5.0
  9
$DIMTSZ
 40
0.0
  9
$DIMTOL
 70
     0
  9
$DIMLIM
 70
     0
  9
$DIMTIH
 70
     0
  9
$DIMTOH
 70
     0
  9
$DIMSE1
 70
     0
  9
$DIMSE2
 70
     0
  9
$DIMTAD
 70
     1
  9
$DIMZIN
 70
     8
  9
$DIMBLK
  1

  9
$DIMASO
 70
     1
  9
$DIMSHO
 70
     1
  9
$DIMPOST
  1

  9
$DIMAPOST
  1

  9
$DIMALT
 70
     0
  9
$DIMALTD
 70
     2
  9
$DIMALTF
 40
25.4
  9
$DIMLFAC
 40
1.0
  9
$DIMTOFL
 70
     1
  9
$DIMTVP
 40
0.0
  9
$DIMTIX
 70
     0
  9
$DIMSOXD
 70
     0
  9
$DIMSAH
 70
     1
  9
$DIMBLK1
  1

  9
$DIMBLK2
  1

  9
$DIMSTYLE
  2
BEMASSUNG
  9
$DIMCLRD
 70
     1
  9
$DIMCLRE
 70
     1
  9
$DIMCLRT
 70
     1
  9
$DIMTFAC
 40
0.5714285714285714
  9
$DIMGAP
 40
0.1
  9
$DIMJUST
 70
     0
  9
$DIMSD1
 70
     0
  9
$DIMSD2
 70
     0
  9
$DIMTOLJ
 70
     1
  9
$DIMTZIN
 70
     8
  9
$DIMALTZ
 70
     8
  9
$DIMALTTZ
 70
     8
  9
$DIMUPT
 70
     0
  9
$DIMDEC
 70
     1
  9
$DIMTDEC
 70
     1
  9
$DIMALTU
 70
     2
  9
$DIMALTTD
 70
     2
  9
$DIMTXSTY
  7
STANDARD
  9
$DIMAUNIT
 70
     0
  9
$DIMADEC
 70
     0
  9
$DIMALTRND
 40
0.0
  9
$DIMAZIN
 70
     0
  9
$DIMDSEP
 70
    46
  9
$DIMATFIT
 70
     3
  9
$DIMFRAC
 70
     0
  9
$DIMLDRBLK
  1

  9
$DIMLUNIT
 70
     2
  9
$DIMLWD
 70
    -2
  9
$DIMLWE
 70
    -2
  9
$DIMTMOVE
 70
     2
  9
$DIMFXL
 40
1.0
  9
$DIMFXLON
 70
     0
  9
$DIMJOGANG
 40
0.7853981633974483
  9
$DIMTFILL
 70
     0
  9
$DIMTFILLCLR
 70
     0
  9
$DIMARCSYM
 70
     0
  9
$DIMLTYPE
  6

  9
$DIMLTEX1
  6

  9
$DIMLTEX2
  6

  9
$LUNITS
 70
     2
  9
$LUPREC
 70
     1
  9
$SKETCHINC
 40
12.0
  9
$FILLETRAD
 40
0.0
  9
$AUNITS
 70
     0
  9
$AUPREC
 70
     0
  9
$MENU
  1
acad
  9
$ELEVATION
 40
0.0
  9
$PELEVATION
 40
0.0
  9
$THICKNESS
 40
0.0
  9
$LIMCHECK
 70
     0
  9
$CHAMFERA
 40
0.0
  9
$CHAMFERB
 40
0.0
  9
$CHAMFERC
 40
0.0
  9
$CHAMFERD
 40
0.0
  9
$SKPOLY
 70
     0
  9
$TDCREATE
 40
2449974.465972223
  9
$TDUCREATE
 40
2449974.382643287
  9
$TDUPDATE
 40
2457462.642418982
  9
$TDUUPDATE
 40
2457462.600763669
  9
$TDINDWG
 40
2.6479949537
  9
$TDUSRTIMER
 40
2.6479949537
  9
$USRTIMER
 70
     1
  9
$ANGBASE
 50
0.0
  9
$ANGDIR
 70
     0
  9
$PDMODE
 70
     1
  9
$PDSIZE
 40
0.0
  9
$PLINEWID
 40
0.0
  9
$SPLFRAME
 70
     0
  9
$SPLINETYPE
 70
     6
  9
$SPLINESEGS
 70
     8
  9
$HANDSEED
  5
3E0
  9
$SURFTAB1
 70
     6
  9
$SURFTAB2
 70
     6
  9
$SURFTYPE
 70
     6
  9
$SURFU
 70
     6
  9
$SURFV
 70
     6
  9
$UCSBASE
  2

  9
$UCSNAME
  2

  9
$UCSORG
 10
0.0
 20
0.0
 30
0.0
  9
$UCSXDIR
 10
1.0
 20
0.0
 30
0.0
  9
$UCSYDIR
 10
0.0
 20
1.0
 30
0.0
  9
$UCSORTHOREF
  2

  9
$UCSORTHOVIEW
 70
     0
  9
$UCSORGTOP
 10
0.0
 20
0.0
 30
0.0
  9
$UCSORGBOTTOM
 10
0.0
 20
0.0
 30
0.0
  9
$UCSORGLEFT
 10
0.0
 20
0.0
 30
0.0
  9
$UCSORGRIGHT
 10
0.0
 20
0.0
 30
0.0
  9
$UCSORGFRONT
 10
0.0
 20
0.0
 30
0.0
  9
$UCSORGBACK
 10
0.0
 20
0.0
 30
0.0
  9
$PUCSBASE
  2

  9
$PUCSNAME
  2

  9
$PUCSORG
 10
0.0
 20
0.0
 30
0.0
  9
$PUCSXDIR
 10
1.0
 20
0.0
 30
0.0
  9
$PUCSYDIR
 10
0.0
 20
1.0
 30
0.0
  9
$PUCSORTHOREF
  2

  9
$PUCSORTHOVIEW
 70
     0
  9
$PUCSORGTOP
 10
0.0
 20
0.0
 30
0.0
  9
$PUCSORGBOTTOM
 10
0.0
 20
0.0
 30
0.0
  9
$PUCSORGLEFT
 10
0.0
 20
0.0
 30
0.0
  9
$PUCSORGRIGHT
 10
0.0
 20
0.0
 30
0.0
  9
$PUCSORGFRONT
 10
0.0
 20
0.0
 30
0.0
  9
$PUCSORGBACK
 10
0.0
 20
0.0
 30
0.0
  9
$USERI1
 70
     0
  9
$USERI2
 70
     0
  9
$USERI3
 70
     0
  9
$USERI4
 70
     0
  9
$USERI5
 70
     0
  9
$USERR1
 40
0.0
  9
$USERR2
 40
0.0
  9
$USERR3
 40
0.0
  9
$USERR4
 40
0.0
  9
$USERR5
 40
0.0
  9
$WORLDVIEW
 70
     1
  9
$SHADEDGE
 70
     3
  9
$SHADEDIF
 70
    70
  9
$TILEMODE
 70
     1
  9
$MAXACTVP
 70
    16
  9
$PINSBASE
 10
0.0
 20
0.0
 30
0.0
  9
$PLIMCHECK
 70
     0
  9
$PEXTMIN
 10
1.000000000000000E+20
 20
1.000000000000000E+20
 30
1.000000000000000E+20
  9
$PEXTMAX
 10
-1.000000000000000E+20
 20
-1.000000000000000E+20
 30
-1.000000000000000E+20
  9
$PLIMMIN
 10
0.0
 20
0.0
  9
$PLIMMAX
 10
12.0
 20
9.0
  9
$UNITMODE
 70
     0
  9
$VISRETAIN
 70
     0
  9
$PLINEGEN
 70
     0
  9
$PSLTSCALE
 70
     1
  9
$TREEDEPTH
 70
  3020
  9
$CMLSTYLE
  2
Standard
  9
$CMLJUST
 70
     0
  9
$CMLSCALE
 40
1.0
  9
$PROXYGRAPHICS
 70
     1
  9
$MEASUREMENT
 70
     0
  9
$CELWEIGHT
370
    -1
  9
$ENDCAPS
280
     0
  9
$JOINSTYLE
280
     0
  9
$LWDISPLAY
290
     0
  9
$INSUNITS
 70
     0
  9
$HYPERLINKBASE
  1

  9
$STYLESHEET
  1

  9
$XEDIT
290
     1
  9
$CEPSNTYPE
380
     0
  9
$PSTYLEMODE
290
     1
  9
$FINGERPRINTGUID
  2
{D10A2D39-B90D-8A47-9405-785AD2F7B7E3}
  9
$VERSIONGUID
  2
{D0F81545-CB35-3743-8D7A-4795430976EA}
  9
$EXTNAMES
290
     1
  9
$PSVPSCALE
 40
0.0
  9
$OLESTARTUP
290
     0
  9
$SORTENTS
280
   127
  9
$INDEXCTL
280
     0
  9
$HIDETEXT
280
     1
  9
$XCLIPFRAME
290
     0
  9
$HALOGAP
280
     0
  9
$OBSCOLOR
 70
   257
  9
$OBSLTYPE
280
     0
  9
$INTERSECTIONDISPLAY
280
     0
  9
$INTERSECTIONCOLOR
 70
   257
  9
$DIMASSOC
280
     2
  9
$PROJECTNAME
  1

  9
$CAMERADISPLAY
290
     0
  9
$LENSLENGTH
 40
50.0
  9
$CAMERAHEIGHT
 40
0.0
  9
$STEPSPERSEC
 40
2.0
  9
$STEPSIZE
 40
6.0
  9
$3DDWFPREC
 40
2.0
  9
$PSOLWIDTH
 40
0.25
  9
$PSOLHEIGHT
 40
4.0
  9
$LOFTANG1
 40
1.570796326794896
  9
$LOFTANG2
 40
1.570796326794896
  9
$LOFTMAG1
 40
0.0
  9
$LOFTMAG2
 40
0.0
  9
$LOFTPARAM
 70
     7
  9
$LOFTNORMALS
280
     1
  9
$LATITUDE
 40
37.795
  9
$LONGITUDE
 40
-122.394
  9
$NORTHDIRECTION
 40
0.0
  9
$TIMEZONE
 70
 -8000
  9
$LIGHTGLYPHDISPLAY
280
     1
  9
$TILEMODELIGHTSYNCH
280
     1
  9
$CMATERIAL
347
38
  9
$SOLIDHIST
280
     0
  9
$SHOWHIST
280
     1
  9
$DWFFRAME
280
     2
  9
$DGNFRAME
280
     0
  9
$REALWORLDSCALE
290
     1
  9
$INTERFERECOLOR
 62
     1
  9
$INTERFEREOBJVS
345
53
  9
$INTERFEREVPVS
346
54
  9
$CSHADOW
280
     0
  9
$SHADOWPLANELOCATION
 40
0.0
  0
ENDSEC
  0
SECTION
  2
CLASSES
  0
CLASS
  1
ACDBDICTIONARYWDFLT
  2
AcDbDictionaryWithDefault
  3
ObjectDBX Classes
 90
        0
 91
        1
280
     0
281
     0
  0
CLASS
  1
MATERIAL
  2
AcDbMaterial
  3
ObjectDBX Classes
 90
     1153
 91
        3
280
     0
281
     0
  0
CLASS
  1
VISUALSTYLE
  2
AcDbVisualStyle
  3
ObjectDBX Classes
 90
     4095
 91
        3
280
     0
281
     0
  0
CLASS
  1
SCALE
  2
AcDbScale
  3
ObjectDBX Classes
 90
     1153
 91
       17
280
     0
281
     0
  0
CLASS
  1
TABLESTYLE
  2
AcDbTableStyle
  3
ObjectDBX Classes
 90
     4095
 91
        1
280
     0
281
     0
  0
CLASS
  1
MLEADERSTYLE
  2
AcDbMLeaderStyle
  3
ACDB_MLEADERSTYLE_CLASS
 90
     4095
 91
        0
280
     0
281
     0
  0
CLASS
  1
ACDB_TEXTOBJECTCONTEXTDATA_CLASS
  2
AcDbTextObjectContextData
  3
ObjectDBX Classes
 90
     1153
 91
        0
280
     0
281
     0
  0
CLASS
  1
SORTENTSTABLE
  2
AcDbSortentsTable
  3
ObjectDBX Classes
 90
        0
 91
        2
280
     0
281
     0
  0
CLASS
  1
DICTIONARYVAR
  2
AcDbDictionaryVar
  3
ObjectDBX Classes
 90
        0
 91
        6
280
     0
281
     0
  0
CLASS
  1
ACDBSECTIONVIEWSTYLE
  2
AcDbSectionViewStyle
  3
ObjectDBX Classes
 90
     1025
 91
        0
280
     0
281
     0
  0
CLASS
  1
ACDBDETAILVIEWSTYLE
  2
AcDbDetailViewStyle
  3
ObjectDBX Classes
 90
     1025
 91
        0
280
     0
281
     0
  0
CLASS
  1
DIMASSOC
  2
AcDbDimAssoc
  3
"AcDbDimAssoc|Product Desc:     AcDim ARX App For Dimension|Company:          Autodesk, Inc.|WEB Address:      www.autodesk.com"
 90
        0
 91
        0
280
     0
281
     0
  0
CLASS
  1
MULTILEADER
  2
AcDbMLeader
  3
ACDB_MLEADER_CLASS
 90
     1025
 91
        0
280
     0
281
     1
  0
CLASS
  1
ACDB_MLEADEROBJECTCONTEXTDATA_CLASS
  2
AcDbMLeaderObjectContextData
  3
ObjectDBX Classes
 90
     1153
 91
        0
280
     0
281
     0
  0
CLASS
  1
ACDB_MTEXTOBJECTCONTEXTDATA_CLASS
  2
AcDbMTextObjectContextData
  3
ObjectDBX Classes
 90
     1153
 91
        0
280
     0
281
     0
  0
CLASS
  1
SOLID_BACKGROUND
  2
AcDbSolidBackground
  3
SCENEOE
 90
     4095
 91
        0
280
     0
281
     0
  0
CLASS
  1
NPOCOLLECTION
  2
AcDbImpNonPersistentObjectsCollection
  3
ObjectDBX Classes
 90
     1153
 91
        0
280
     0
281
     0
  0
CLASS
  1
LSDEFINITION
  2
AcDbLSDefinition
  3
AcDgnLS
 90
        0
 91
        0
280
     0
281
     0
  0
CLASS
  1
LSCOMPOUNDCOMPONENT
  2
AcDbLSCompoundComponent
  3
AcDgnLS
 90
        0
 91
        0
280
     0
281
     0
  0
CLASS
  1
LSSTROKEPATTERNCOMPONENT
  2
AcDbLSStrokePatternComponent
  3
AcDgnLS
 90
        0
 91
        0
280
     0
281
     0
  0
CLASS
  1
CELLSTYLEMAP
  2
AcDbCellStyleMap
  3
ObjectDBX Classes
 90
     1152
 91
        1
280
     0
281
     0
  0
ENDSEC
  0
SECTION
  2
TABLES
  0
TABLE
  2
VPORT
  5
2C
330
0
100
AcDbSymbolTable
 70
     1
  0
VPORT
  5
2D
330
2C
100
AcDbSymbolTableRecord
100
AcDbViewportTableRecord
  2
*ACTIVE
 70
     0
 10
0.0
 20
0.0
 11
1.0
 21
1.0
 12
996.6793268858019
 22
2583.601095953219
 13
0.0
 23
0.0
 14
1.0
 24
1.0
 15
10.0
 25
10.0
 16
0.0
 26
0.0
 36
1.0
 17
0.0
 27
0.0
 37
0.0
 40
1694.197002336808
 41
2.300498753117206
 42
50.0
 43
0.0
 44
0.0
 50
0.0
 51
0.0
 71
     0
 72
  2000
 73
     1
 74
     0
 75
     0
 76
     0
 77
     0
 78
     0
281
     0
 65
     1
110
0.0
120
0.0
130
0.0
111
1.0
121
0.0
131
0.0
112
0.0
122
1.0
132
0.0
 79
     0
146
0.0
348
2E
 60
     3
 61
     5
292
     1
282
     0
141
0.0
142
0.0
 63
   250
421
  3355443
1001
ACAD_NAV_VCDISPLAY
1070
     3
  0
ENDTAB
  0
TABLE
  2
LTYPE
  5
27
330
0
100
AcDbSymbolTable
 70
     3
  0
LTYPE
  5
28
330
27
100
AcDbSymbolTableRecord
100
AcDbLinetypeTableRecord
  2
ByBlock
 70
     0
  3

 72
    65
 73
     0
 40
0.0
  0
LTYPE
  5
29
330
27
100
AcDbSymbolTableRecord
100
AcDbLinetypeTableRecord
  2
ByLayer
 70
     0
  3

 72
    65
 73
     0
 40
0.0
  0
LTYPE
  5
14
330
27
100
AcDbSymbolTableRecord
100
AcDbLinetypeTableRecord
  2
CONTINUOUS
 70
     0
  3
Durchgezogene Linie
 72
    65
 73
     0
 40
0.0
  0
LTYPE
  5
1E8
330
27
100
AcDbSymbolTableRecord
100
AcDbLinetypeTableRecord
  2
STRICHPUNKT2
 70
     0
  3
_._._._._._._._._._._._._._._._._._._._._._._._
 72
    65
 73
     4
 40
0.5
 49
0.25
 74
     0
 49
-0.125
 74
     0
 49
0.0
 74
     0
 49
-0.125
 74
     0
  0
LTYPE
  5
199
330
27
100
AcDbSymbolTableRecord
100
AcDbLinetypeTableRecord
  2
STRICHPUNKT
 70
     0
  3
__ . __ . __ . __ . __ . __ . __ . __ . __ . __
 72
    65
 73
     4
 40
1.0
 49
0.5
 74
     0
 49
-0.25
 74
     0
 49
0.0
 74
     0
 49
-0.25
 74
     0
  0
ENDTAB
  0
TABLE
  2
LAYER
  5
1E
102
{ACAD_XDICTIONARY
360
1F
102
}
330
0
100
AcDbSymbolTable
 70
     7
  0
LAYER
  5
6
330
1E
100
AcDbSymbolTableRecord
100
AcDbLayerTableRecord
  2
0
 70
     0
 62
     7
  6
CONTINUOUS
370
    -3
390
7
347
A
  0
LAYER
  5
305
330
1E
100
AcDbSymbolTableRecord
100
AcDbLayerTableRecord
  2
Beschriftung
 70
     0
 62
     1
  6
CONTINUOUS
370
    -3
390
7
347
A
  0
LAYER
  5
6B
102
{ACAD_XDICTIONARY
360
6C
102
}
330
1E
100
AcDbSymbolTableRecord
100
AcDbLayerTableRecord
  2
Plankopf
 70
     0
 62
     7
  6
CONTINUOUS
370
     9
390
7
347
A
1001
AcAecLayerStandard
1000

1000

  0
LAYER
  5
4C
330
1E
100
AcDbSymbolTableRecord
100
AcDbLayerTableRecord
  2
Kasten
 70
     0
 62
     7
  6
CONTINUOUS
370
    30
390
7
347
A
1001
AcAecLayerStandard
1000

1000

1001
AcCmTransparency
1071
        0
  0
LAYER
  5
67
330
1E
100
AcDbSymbolTableRecord
100
AcDbLayerTableRecord
  2
Bauseitig_Beton
 70
     0
 62
     3
  6
CONTINUOUS
370
     5
390
7
347
A
1001
AcAecLayerStandard
1000

1000

1001
AcCmTransparency
1071
        0
  0
LAYER
  5
1CE
330
1E
100
AcDbSymbolTableRecord
100
AcDbLayerTableRecord
  2
Zeichnung
 70
     0
 62
     7
  6
CONTINUOUS
370
    30
390
7
347
A
1001
AcAecLayerStandard
1000

1000

1001
AcCmTransparency
1071
        0
  0
LAYER
  5
AD
330
1E
100
AcDbSymbolTableRecord
100
AcDbLayerTableRecord
  2
2-t. Schiebtreppe
 70
     0
 62
     7
  6
CONTINUOUS
370
    20
390
7
347
A
1001
AcAecLayerStandard
1000

1000

1001
AcCmTransparency
1071
        0
  0
ENDTAB
  0
TABLE
  2
STYLE
  5
24
330
0
100
AcDbSymbolTable
 70
     4
  0
STYLE
  5
25
330
24
100
AcDbSymbolTableRecord
100
AcDbTextStyleTableRecord
  2
STANDARD
 70
     0
 40
0.0
 41
1.0
 50
0.0
 71
     0
 42
3.5
  3
txt
  4

  0
STYLE
  5
4F
330
24
100
AcDbSymbolTableRecord
100
AcDbTextStyleTableRecord
  2
SIMPLEX
 70
     0
 40
0.0
 41
1.0
 50
0.0
 71
     0
 42
3.5
  3
C:\ACADWIN\FONTS\ISO.SHX
  4

1001
AcadAnnotative
1000
AnnotativeData
1002
{
1070
     1
1070
     1
1002
}
  0
STYLE
  5
83
330
24
100
AcDbSymbolTableRecord
100
AcDbTextStyleTableRecord
  2
TECHNICBOLD
 70
     0
 40
0.0
 41
1.0
 50
0.0
 71
     0
 42
3.5
  3
teb_____.pfb
  4

  0
STYLE
  5
307
330
24
100
AcDbSymbolTableRecord
100
AcDbTextStyleTableRecord
  2
Arial
 70
     0
 40
25.0
 41
1.0
 50
0.0
 71
     0
 42
25.0
  3
arial.ttf
  4

1001
ACAD
1000
Arial
1071
       34
  0
ENDTAB
  0
TABLE
  2
VIEW
  5
2A
330
0
100
AcDbSymbolTable
 70
     0
  0
ENDTAB
  0
TABLE
  2
UCS
  5
2B
330
0
100
AcDbSymbolTable
 70
     0
  0
ENDTAB
  0
TABLE
  2
APPID
  5
31
330
0
100
AcDbSymbolTable
 70
     8
  0
APPID
  5
23
330
31
100
AcDbSymbolTableRecord
100
AcDbRegAppTableRecord
  2
ACAD
 70
     0
  0
APPID
  5
50
330
31
100
AcDbSymbolTableRecord
100
AcDbRegAppTableRecord
  2
AcadAnnotative
 70
     0
  0
APPID
  5
30
330
31
100
AcDbSymbolTableRecord
100
AcDbRegAppTableRecord
  2
ACAD_NAV_VCDISPLAY
 70
     0
  0
APPID
  5
68
330
31
100
AcDbSymbolTableRecord
100
AcDbRegAppTableRecord
  2
GradientColor1ACI
 70
     0
  0
APPID
  5
69
330
31
100
AcDbSymbolTableRecord
100
AcDbRegAppTableRecord
  2
GradientColor2ACI
 70
     0
  0
APPID
  5
19
330
31
100
AcDbSymbolTableRecord
100
AcDbRegAppTableRecord
  2
ACAD_PSEXT
 70
     0
  0
APPID
  5
4D
330
31
100
AcDbSymbolTableRecord
100
AcDbRegAppTableRecord
  2
AcAecLayerStandard
 70
     0
  0
APPID
  5
4E
330
31
100
AcDbSymbolTableRecord
100
AcDbRegAppTableRecord
  2
AcCmTransparency
 70
     0
  0
ENDTAB
  0
TABLE
  2
DIMSTYLE
  5
32
330
0
100
AcDbSymbolTable
 70
     1
100
AcDbDimStyleTable
 71
     1
340
33
  0
DIMSTYLE
105
33
330
32
100
AcDbSymbolTableRecord
100
AcDbDimStyleTableRecord
  2
BEMASSUNG
 70
     0
 41
3.5
 42
0.1
 43
0.4
 44
1.8
 73
     0
 74
     0
 77
     1
 78
     8
140
3.5
141
5.0
146
0.5714285714285714
147
0.1
172
     1
176
     1
177
     1
178
     1
271
     1
272
     1
279
     2
284
     8
285
     8
286
     8
340
25
  0
ENDTAB
  0
TABLE
  2
BLOCK_RECORD
  5
1
330
0
100
AcDbSymbolTable
 70
     0
  0
BLOCK_RECORD
  5
2
102
{ACAD_XDICTIONARY
360
3
102
}
330
1
100
AcDbSymbolTableRecord
100
AcDbBlockTableRecord
  2
*Model_Space
340
16
 70
     0
280
     1
281
     0
  0
BLOCK_RECORD
  5
1A
330
1
100
AcDbSymbolTableRecord
100
AcDbBlockTableRecord
  2
*Paper_Space
340
1D
 70
     0
280
     1
281
     0
  0
ENDTAB
  0
ENDSEC
  0
SECTION
  2
BLOCKS
  0
BLOCK
  5
5
330
2
100
AcDbEntity
  8
0
100
AcDbBlockBegin
  2
*Model_Space
 70
     0
 10
0.0
 20
0.0
 30
0.0
  3
*Model_Space
  1

  0
ENDBLK
  5
15
330
2
100
AcDbEntity
  8
0
100
AcDbBlockEnd
  0
BLOCK
  5
1B
330
1A
100
AcDbEntity
 67
     1
  8
0
100
AcDbBlockBegin
  2
*Paper_Space
 70
     0
 10
0.0
 20
0.0
 30
0.0
  3
*Paper_Space
  1

  0
ENDBLK
  5
1C
330
1A
100
AcDbEntity
 67
     1
  8
0
100
AcDbBlockEnd
  0
ENDSEC
  0
SECTION
  2
ENTITIES
  0
HATCH
  5
66
330
2
100
AcDbEntity
  8
Bauseitig_Beton
100
AcDbHatch
 10
0.0
 20
0.0
 30
0.0
210
0.0
220
0.0
230
1.0
  2
ANSI33
 70
     0
 71
     1
 91
        1
 92
        1
 93
        4
 72
     1
 10
193.7999999999999
 20
2485.893391009476
 11
94.60336926743616
 21
2485.893391009476
 72
     1
 10
94.60336926743616
 20
2485.893391009476
 11
94.60336926743616
 21
2717.893391009476
 72
     1
 10
94.60336926743616
 20
2717.893391009476
 11
193.7999999999999
 21
2717.893391009476
 72
     1
 10
193.7999999999999
 20
2717.893391009476
 11
193.7999999999999
 21
2485.893391009476
 97
        1
330
310
 75
     1
 76
     1
 52
90.0
 41
40.0
 77
     0
 78
     2
 53
135.0
 43
2.500000000000682
 44
2042.000000000001
 45
-7.071067811865475
 46
-7.071067811865475
 79
     0
 53
135.0
 43
2.500000000000682
 44
2049.071067800001
 45
-7.071067811865475
 46
-7.071067811865475
 79
     2
 49
5.0
 49
-2.5
 98
        1
 10
2.500000000000682
 20
2042.000000000001
1001
GradientColor1ACI
1070
     5
1001
GradientColor2ACI
1070
     2
1001
ACAD
1010
0.0
1020
0.0
1030
0.0
  0
LWPOLYLINE
  5
6A
330
2
100
AcDbEntity
  8
Plankopf
100
AcDbPolyline
 90
        4
 70
     1
 43
0.0
 10
0.0000000000000675
 20
2082.0
 10
1397.6
 20
2082.0
 10
1397.6
 20
3057.0
 10
0.0000000000000675
 20
3057.0
  0
LINE
  5
6D
330
2
100
AcDbEntity
  8
Plankopf
 62
     0
100
AcDbLine
 10
1144.159999999999
 20
2129.684265728
 30
0.0
 11
1310.303999999999
 21
2129.684265728
 31
0.0
  0
LINE
  5
6E
330
2
100
AcDbEntity
  8
Plankopf
 62
     0
100
AcDbLine
 10
1144.159999999999
 20
2141.60531456
 30
0.0
 11
1397.6
 21
2141.60531456
 31
0.0
  0
LINE
  5
6F
330
2
100
AcDbEntity
  8
Plankopf
 62
     0
100
AcDbLine
 10
1003.359999999999
 20
2117.7632
 30
0.0
 11
1397.6
 21
2117.7632
 31
0.0
  0
LINE
  5
70
330
2
100
AcDbEntity
  8
Plankopf
 62
     0
100
AcDbLine
 10
862.5599999999993
 20
2153.5264
 30
0.0
 11
1353.952
 21
2153.5264
 31
0.0
  0
LINE
  5
71
330
2
100
AcDbEntity
  8
Plankopf
 62
     0
100
AcDbLine
 10
862.5599999999991
 20
2177.4624
 30
0.0
 11
1397.6
 21
2177.4624
 31
0.0
  0
LINE
  5
72
330
2
100
AcDbEntity
  8
Plankopf
 62
     0
100
AcDbLine
 10
862.5599999999989
 20
2177.4624
 30
0.0
 11
862.5599999999991
 21
2153.5264
 31
0.0
  0
LINE
  5
73
330
2
100
AcDbEntity
  8
Plankopf
 62
     0
100
AcDbLine
 10
862.5599999999991
 20
2153.5264
 30
0.0
 11
862.5599999999993
 21
2082.0
 31
0.0
  0
LINE
  5
74
330
2
100
AcDbEntity
  8
Plankopf
 62
     0
100
AcDbLine
 10
948.4479999999994
 20
2153.5264
 30
0.0
 11
948.4479999999996
 21
2177.4624
 31
0.0
  0
LINE
  5
75
330
2
100
AcDbEntity
  8
Plankopf
 62
     0
100
AcDbLine
 10
1062.495999999999
 20
2153.5264
 30
0.0
 11
1062.495999999999
 21
2177.4624
 31
0.0
  0
LINE
  5
76
330
2
100
AcDbEntity
  8
Plankopf
 62
     0
100
AcDbLine
 10
890.7199999999992
 20
2153.5264
 30
0.0
 11
890.7199999999994
 21
2177.4624
 31
0.0
  0
LINE
  5
77
330
2
100
AcDbEntity
  8
Plankopf
 62
     0
100
AcDbLine
 10
925.9199999999994
 20
2153.5264
 30
0.0
 11
925.9199999999994
 21
2177.4624
 31
0.0
  0
LINE
  5
78
330
2
100
AcDbEntity
  8
Plankopf
 62
     0
100
AcDbLine
 10
1003.359999999999
 20
2129.684265728
 30
0.0
 11
1144.159999999999
 21
2129.684265728
 31
0.0
  0
LINE
  5
79
330
2
100
AcDbEntity
  8
Plankopf
 62
     0
100
AcDbLine
 10
1025.888
 20
2141.5584
 30
0.0
 11
1144.159999999999
 21
2141.5584
 31
0.0
  0
LINE
  5
7A
330
2
100
AcDbEntity
  8
Plankopf
 62
     0
100
AcDbLine
 10
1003.359999999999
 20
2082.0
 30
0.0
 11
1003.359999999999
 21
2153.5264
 31
0.0
  0
LINE
  5
7B
330
2
100
AcDbEntity
  8
Plankopf
 62
     0
100
AcDbLine
 10
1039.968
 20
2117.7632
 30
0.0
 11
1039.968
 21
2129.684265728
 31
0.0
  0
LINE
  5
7C
330
2
100
AcDbEntity
  8
Plankopf
 62
     0
100
AcDbLine
 10
1197.067143682837
 20
2117.7632
 30
0.0
 11
1197.067143682837
 21
2153.5264
 31
0.0
  0
LINE
  5
7D
330
2
100
AcDbEntity
  8
Plankopf
 62
     0
100
AcDbLine
 10
1144.159999999999
 20
2117.7632
 30
0.0
 11
1144.159999999999
 21
2153.5264
 31
0.0
  0
LINE
  5
7E
330
2
100
AcDbEntity
  8
Plankopf
 62
     0
100
AcDbLine
 10
1353.952
 20
2117.7632
 30
0.0
 11
1353.952
 21
2153.5264
 31
0.0
  0
LINE
  5
7F
330
2
100
AcDbEntity
  8
Plankopf
 62
     0
100
AcDbLine
 10
1353.952
 20
2153.5264
 30
0.0
 11
1353.952
 21
2177.4624
 31
0.0
  0
LINE
  5
80
330
2
100
AcDbEntity
  8
Plankopf
 62
     0
100
AcDbLine
 10
1259.0528
 20
2153.5264
 30
0.0
 11
1259.0528
 21
2141.60531456
 31
0.0
  0
LINE
  5
81
330
2
100
AcDbEntity
  8
Plankopf
 62
     0
100
AcDbLine
 10
1310.303999999999
 20
2117.7632
 30
0.0
 11
1310.303999999999
 21
2141.60531456
 31
0.0
  0
TEXT
  5
82
330
2
100
AcDbEntity
  8
Plankopf
 62
     0
100
AcDbText
 10
915.4192174273019
 20
2125.286359070174
 30
0.0
 40
5.588351999999999
  1
Columbus Treppen AG
  7
TECHNICBOLD
100
AcDbText
  0
TEXT
  5
84
330
2
100
AcDbEntity
  8
Plankopf
 62
     0
100
AcDbText
 10
915.4192174273019
 20
2116.903831070174
 30
0.0
 40
5.588351999999999
  1
Industriestrasse 12
  7
TECHNICBOLD
100
AcDbText
  0
TEXT
  5
85
330
2
100
AcDbEntity
  8
Plankopf
 62
     0
100
AcDbText
 10
915.4192174273019
 20
2108.521303070174
 30
0.0
 40
5.588351999999999
  1
9245 Oberbüren
  7
TECHNICBOLD
100
AcDbText
  0
TEXT
  5
86
330
2
100
AcDbEntity
  8
Plankopf
 62
     0
100
AcDbText
 10
914.8296937720649
 20
2100.138775070174
 30
0.0
 40
5.588351999999999
  1
Tel. 071 - 955 96 00
  7
TECHNICBOLD
100
AcDbText
  0
TEXT
  5
87
330
2
100
AcDbEntity
  8
Plankopf
 62
     0
100
AcDbText
 10
915.4192174273019
 20
2091.756247070174
 30
0.0
 40
5.588351999999999
  1
Fax 071 - 955 96 60
  7
TECHNICBOLD
100
AcDbText
  0
TEXT
  5
88
330
2
100
AcDbEntity
  8
Plankopf
 62
     0
100
AcDbText
 10
873.4612291465452
 20
2139.679837904296
 30
0.0
 40
8.0256
  1
COLUMBUS TREPPEN
  7
TECHNICBOLD
100
AcDbText
  0
ARC
  5
89
330
2
100
AcDbEntity
  8
Plankopf
 62
     0
100
AcDbCircle
 10
888.2564556567038
 20
2109.160313296623
 30
0.0
 40
7.73696
100
AcDbArc
 50
27.00000000000166
 51
332.9999999999983
  0
ARC
  5
8A
330
2
100
AcDbEntity
  8
Plankopf
 62
     0
100
AcDbCircle
 10
888.2564556567038
 20
2109.160313296623
 30
0.0
 40
13.11552
100
AcDbArc
 50
27.00000000000166
 51
332.9999999999983
  0
ARC
  5
8B
330
2
100
AcDbEntity
  8
Plankopf
 62
     0
100
AcDbCircle
 10
888.2564556567038
 20
2109.160313296623
 30
0.0
 40
20.33856
100
AcDbArc
 50
207.0000000000016
 51
152.9999999999983
  0
ARC
  5
8C
330
2
100
AcDbEntity
  8
Plankopf
 62
     0
100
AcDbCircle
 10
888.2564556567038
 20
2109.160313296623
 30
0.0
 40
14.96
100
AcDbArc
 50
207.0000000000016
 51
152.9999999999983
  0
LWPOLYLINE
  5
8D
330
2
100
AcDbEntity
  8
Plankopf
 62
     0
100
AcDbPolyline
 90
        2
 70
     0
 43
5.378559999999999
 10
877.830215656704
 20
2109.160313296623
 42
0.7883364345850938
 10
897.5463035194577
 20
2104.426899388619
 42
1.0
  0
LWPOLYLINE
  5
8E
330
2
100
AcDbEntity
  8
Plankopf
 62
     0
100
AcDbPolyline
 90
        2
 70
     0
 43
5.378559999999999
 10
897.5463035194577
 20
2113.893727204628
 42
0.7883364345850913
 10
877.830215656704
 20
2109.160313296623
 42
1.0
  0
LWPOLYLINE
  5
8F
330
2
100
AcDbEntity
  8
Plankopf
 62
     0
100
AcDbPolyline
 90
        3
 70
     0
 43
5.378560000000001
 10
872.5308320294768
 20
2101.14770784938
 42
0.7883364345850931
 10
905.9057356567043
 20
2109.160313296623
 42
0.7883364345850921
 10
872.5308320294768
 20
2117.172918743866
 42
1.0
  0
LINE
  5
90
330
2
100
AcDbEntity
  8
Plankopf
 62
     0
100
AcDbLine
 10
874.9269980548458
 20
2102.36861542052
 30
0.0
 11
870.1346660041069
 21
2099.92680027824
 31
0.0
  0
LINE
  5
91
330
2
100
AcDbEntity
  8
Plankopf
 62
     0
100
AcDbLine
 10
874.9269980548458
 20
2115.952011172727
 30
0.0
 11
870.1346660041069
 21
2118.393826315006
 31
0.0
  0
CIRCLE
  5
92
330
2
100
AcDbEntity
  8
Plankopf
 62
     0
100
AcDbCircle
 10
888.2564556567038
 20
2109.160313296623
 30
0.0
 40
5.892480000000001
  0
LWPOLYLINE
  5
93
330
2
100
AcDbEntity
  8
Plankopf
 62
     0
100
AcDbPolyline
 90
        2
 70
     1
 43
5.892480000000001
 10
885.3102156567036
 20
2109.160313296623
 42
1.0
 10
891.2026956567039
 20
2109.160313296623
 42
1.0
  0
LINE
  5
94
330
2
100
AcDbEntity
  8
Plankopf
 62
     0
100
AcDbLine
 10
895.1501374940887
 20
2105.647806959758
 30
0.0
 11
899.9424695448267
 21
2103.205991817479
 31
0.0
  0
LINE
  5
95
330
2
100
AcDbEntity
  8
Plankopf
 62
     0
100
AcDbLine
 10
895.1501374940887
 20
2112.672819633488
 30
0.0
 11
899.9424695448267
 21
2115.114634775767
 31
0.0
  0
CIRCLE
  5
96
330
2
100
AcDbEntity
  8
Plankopf
 62
     0
100
AcDbCircle
 10
996.2238317771232
 20
2144.321588139085
 30
0.0
 40
3.223971823094429
  0
TEXT
  5
97
330
2
100
AcDbEntity
  8
Plankopf
 62
     0
100
AcDbText
 10
994.558454369864
 20
2142.699851632732
 30
0.0
 40
4.35950592
  1
c
  7
TECHNICBOLD
100
AcDbText
  0
TEXT
  5
98
330
2
100
AcDbEntity
  8
Plankopf
 62
     0
100
AcDbText
 10
1006.158304045347
 20
2120.90771456
 30
0.0
 40
5.632
  1
Sach-Nr.
  7
TECHNICBOLD
100
AcDbText
  0
TEXT
  5
99
330
2
100
AcDbEntity
  8
Plankopf
 62
     0
100
AcDbText
 10
1007.865599999998
 20
2108.986666666669
 30
0.0
 40
5.632
  1
Benennung
  7
TECHNICBOLD
100
AcDbText
  0
TEXT
  5
9A
330
2
100
AcDbEntity
  8
Plankopf
 62
     0
100
AcDbText
 10
1146.068742732146
 20
2132.828780288
 30
0.0
 40
5.632
  1
Ursprung
  7
TECHNICBOLD
100
AcDbText
  0
TEXT
  5
9B
330
2
100
AcDbEntity
  8
Plankopf
 62
     0
100
AcDbText
 10
1146.068742732146
 20
2120.90771456
 30
0.0
 40
5.632
  1
Ersatz für
  7
TECHNICBOLD
100
AcDbText
  0
TEXT
  5
9C
330
2
100
AcDbEntity
  8
Plankopf
 62
     0
100
AcDbText
 10
1146.068742732146
 20
2144.74982912
 30
0.0
 40
5.632
  1
Gezeichnet
  7
TECHNICBOLD
100
AcDbText
  0
TEXT
  5
9D
330
2
100
AcDbEntity
  8
Plankopf
 62
     0
100
AcDbText
 10
1311.804732345299
 20
2133.485838553405
 30
0.0
 40
4.5056
  1
Anzahl Blatt
  7
TECHNICBOLD
100
AcDbText
  0
TEXT
  5
9E
330
2
100
AcDbEntity
  8
Plankopf
 62
     0
100
AcDbText
 10
1362.532152321873
 20
2133.485838553405
 30
0.0
 40
4.5056
  1
Blatt-Nr.
  7
TECHNICBOLD
100
AcDbText
  0
TEXT
  5
9F
330
2
100
AcDbEntity
  8
Plankopf
 62
     0
100
AcDbText
 10
1358.457599999997
 20
2168.685866666669
 30
0.0
 40
5.632
  1
Massstab
  7
TECHNICBOLD
100
AcDbText
  0
TEXT
  5
A0
330
2
100
AcDbEntity
  8
Plankopf
 62
     0
100
AcDbText
 10
874.4497777777759
 20
2161.789649839667
 30
0.0
 40
5.632
  1
*
  7
TECHNICBOLD
 72
     1
 11
876.6399999999981
 21
2161.789649839667
 31
0.0
100
AcDbText
  0
TEXT
  5
A1
330
2
100
AcDbEntity
  8
Plankopf
 62
     0
100
AcDbText
 10
906.1297777777758
 20
2161.789649839667
 30
0.0
 40
5.632
  1
*
  7
TECHNICBOLD
 72
     1
 11
908.319999999998
 21
2161.789649839667
 31
0.0
100
AcDbText
  0
TEXT
  5
A2
330
2
100
AcDbEntity
  8
Plankopf
 62
     0
100
AcDbText
 10
1366.44607233358
 20
2148.776242037114
 30
0.0
 40
12.672
  1
1:1
  7
TECHNICBOLD
100
AcDbText
  0
TEXT
  5
A3
330
2
100
AcDbEntity
  8
Plankopf
 62
     0
100
AcDbText
 10
1326.794390702388
 20
2124.193875544901
 30
0.0
 40
4.5056
  1
1
  7
TECHNICBOLD
100
AcDbText
  0
TEXT
  5
A4
330
2
100
AcDbEntity
  8
Plankopf
 62
     0
100
AcDbText
 10
1377.521810678961
 20
2124.193875544901
 30
0.0
 40
4.5056
  1
1
  7
TECHNICBOLD
100
AcDbText
  0
LINE
  5
A5
330
2
100
AcDbEntity
  8
Plankopf
 62
     0
100
AcDbLine
 10
1039.968
 20
2129.5904
 30
0.0
 11
1039.968
 21
2153.5264
 31
0.0
  0
LINE
  5
A6
330
2
100
AcDbEntity
  8
Plankopf
 62
     0
100
AcDbLine
 10
1025.888
 20
2129.5904
 30
0.0
 11
1025.888
 21
2153.5264
 31
0.0
  0
TEXT
  5
A7
330
2
100
AcDbEntity
  8
Plankopf
 62
     0
100
AcDbText
 10
1005.905951342074
 20
2139.600120536971
 30
0.0
 40
5.632
  1
änd.
  7
TECHNICBOLD
 72
     1
 11
1013.917553681255
 21
2139.600120536971
 31
0.0
100
AcDbText
  0
TEXT
  5
A8
102
{ACAD_XDICTIONARY
360
A9
102
}
330
2
100
AcDbEntity
  8
Plankopf
 62
     0
100
AcDbText
 10
1125.604206366644
 20
2164.480007550543
 30
0.0
 40
7.601428799999998
  1
Deckenanschluss 8 Schnitt längs
  7
TECHNICBOLD
100
AcDbText
1001
AcadAnnotative
1000
AnnotativeData
1002
{
1070
     1
1070
     0
1002
}
  0
CIRCLE
  5
AC
330
2
100
AcDbEntity
  8
2-t. Schiebtreppe
100
AcDbCircle
 10
442.3469332214586
 20
2746.430820473688
 30
0.0
 40
2.599999999999999
  0
CIRCLE
  5
AE
330
2
100
AcDbEntity
  8
2-t. Schiebtreppe
100
AcDbCircle
 10
462.9224115959806
 20
2740.055109559634
 30
0.0
 40
2.599999999999999
  0
CIRCLE
  5
AF
330
2
100
AcDbEntity
  8
2-t. Schiebtreppe
100
AcDbCircle
 10
550.7773918000232
 20
2657.814593672713
 30
0.0
 40
3.099999999999999
  0
CIRCLE
  5
B0
330
2
100
AcDbEntity
  8
2-t. Schiebtreppe
100
AcDbCircle
 10
548.3793567537881
 20
2687.718597216001
 30
0.0
 40
3.099999999999999
  0
CIRCLE
  5
B1
330
2
100
AcDbEntity
  8
2-t. Schiebtreppe
100
AcDbCircle
 10
905.6710576443562
 20
2723.392684096047
 30
0.0
 40
3.099999999999999
  0
CIRCLE
  5
B2
330
2
100
AcDbEntity
  8
2-t. Schiebtreppe
100
AcDbCircle
 10
908.4687651982973
 20
2688.50467996221
 30
0.0
 40
3.099999999999999
  0
CIRCLE
  5
B3
330
2
100
AcDbEntity
  8
2-t. Schiebtreppe
100
AcDbCircle
 10
970.463065321482
 20
2728.588426696223
 30
0.0
 40
3.099999999999999
  0
CIRCLE
  5
B4
330
2
100
AcDbEntity
  8
2-t. Schiebtreppe
100
AcDbCircle
 10
1067.996241314913
 20
2676.217110476639
 30
0.0
 40
3.099999999999999
  0
CIRCLE
  5
B5
330
2
100
AcDbEntity
  8
2-t. Schiebtreppe
100
AcDbCircle
 10
1042.792215336164
 20
2727.366109980419
 30
0.0
 40
3.099999999999999
  0
CIRCLE
  5
B6
330
2
100
AcDbEntity
  8
2-t. Schiebtreppe
100
AcDbCircle
 10
1045.190250382398
 20
2697.462106437131
 30
0.0
 40
3.099999999999999
  0
CIRCLE
  5
B7
330
2
100
AcDbEntity
  8
2-t. Schiebtreppe
100
AcDbCircle
 10
621.6986429923
 20
2683.56605015469
 30
0.0
 40
3.099999999999999
  0
CIRCLE
  5
B8
330
2
100
AcDbEntity
  8
2-t. Schiebtreppe
100
AcDbCircle
 10
661.5706477166841
 20
2686.763430216337
 30
0.0
 40
3.099999999999999
  0
CIRCLE
  5
B9
330
2
100
AcDbEntity
  8
2-t. Schiebtreppe
100
AcDbCircle
 10
645.2316979238449
 20
2640.30873487058
 30
0.0
 40
3.099999999999999
  0
CIRCLE
  5
BA
330
2
100
AcDbEntity
  8
2-t. Schiebtreppe
100
AcDbCircle
 10
303.9658727142318
 20
2658.086708655778
 30
0.0
 40
3.099999999999999
  0
CIRCLE
  5
BB
330
2
100
AcDbEntity
  8
2-t. Schiebtreppe
100
AcDbCircle
 10
327.4989276457767
 20
2614.829393371669
 30
0.0
 40
3.099999999999999
  0
CIRCLE
  5
BC
330
2
100
AcDbEntity
  8
2-t. Schiebtreppe
100
AcDbCircle
 10
343.8378774386157
 20
2661.284088717425
 30
0.0
 40
3.099999999999999
  0
LINE
  5
BD
330
2
100
AcDbEntity
  8
2-t. Schiebtreppe
100
AcDbLine
 10
647.8997229614226
 20
2763.415930608275
 30
0.0
 11
653.0954655615983
 21
2698.62392293115
 31
0.0
  0
LINE
  5
BE
330
2
100
AcDbEntity
  8
2-t. Schiebtreppe
100
AcDbLine
 10
622.9797200086821
 20
2761.417568069745
 30
0.0
 11
628.1754626088577
 21
2696.625560392619
 31
0.0
  0
LINE
  5
BF
330
2
100
AcDbEntity
  8
2-t. Schiebtreppe
100
AcDbLine
 10
622.9797200086821
 20
2761.417568069745
 30
0.0
 11
647.8997229614226
 21
2763.415930608275
 31
0.0
  0
ARC
  5
C0
330
2
100
AcDbEntity
  8
2-t. Schiebtreppe
100
AcDbCircle
 10
645.2316979238449
 20
2640.30873487058
 30
0.0
 40
12.5
100
AcDbArc
 50
184.5848008935842
 51
4.584800893584302
  0
LINE
  5
C1
330
2
100
AcDbEntity
  8
2-t. Schiebtreppe
100
AcDbLine
 10
620.6994617230356
 20
2696.026051631061
 30
0.0
 11
628.1754626088577
 21
2696.625560392619
 31
0.0
  0
LINE
  5
C2
330
2
100
AcDbEntity
  8
2-t. Schiebtreppe
100
AcDbLine
 10
622.6978242615647
 20
2671.10604867832
 30
0.0
 11
630.1738251473865
 21
2671.705557439879
 31
0.0
  0
LINE
  5
C3
330
2
100
AcDbEntity
  8
2-t. Schiebtreppe
100
AcDbLine
 10
655.0938281001273
 20
2673.703919978408
 30
0.0
 11
657.6916994002154
 21
2641.307916139845
 31
0.0
  0
LINE
  5
C4
330
2
100
AcDbEntity
  8
2-t. Schiebtreppe
100
AcDbLine
 10
630.1738251473865
 20
2671.705557439879
 30
0.0
 11
632.7716964474745
 21
2639.309553601317
 31
0.0
  0
LINE
  5
C5
330
2
100
AcDbEntity
  8
2-t. Schiebtreppe
100
AcDbLine
 10
653.0954655615983
 20
2698.623922931149
 30
0.0
 11
660.5714664474206
 21
2699.223431692707
 31
0.0
  0
LINE
  5
C6
330
2
100
AcDbEntity
  8
2-t. Schiebtreppe
100
AcDbLine
 10
655.0938281001273
 20
2673.703919978408
 30
0.0
 11
662.5698289859497
 21
2674.303428739967
 31
0.0
  0
ARC
  5
C7
330
2
100
AcDbEntity
  8
2-t. Schiebtreppe
100
AcDbCircle
 10
661.570647716685
 20
2686.763430216338
 30
0.0
 40
12.49999999999994
100
AcDbArc
 50
274.5848008935837
 51
94.58480089358369
  0
ARC
  5
C8
330
2
100
AcDbEntity
  8
2-t. Schiebtreppe
100
AcDbCircle
 10
621.6986429923
 20
2683.56605015469
 30
0.0
 40
12.49999999999994
100
AcDbArc
 50
94.58480089358369
 51
274.5848008935837
  0
CIRCLE
  5
C9
330
2
100
AcDbEntity
  8
2-t. Schiebtreppe
100
AcDbCircle
 10
621.6986429923
 20
2683.56605015469
 30
0.0
 40
3.249999999999999
  0
CIRCLE
  5
CA
330
2
100
AcDbEntity
  8
2-t. Schiebtreppe
100
AcDbCircle
 10
661.570647716685
 20
2686.763430216338
 30
0.0
 40
3.249999999999999
  0
CIRCLE
  5
CB
330
2
100
AcDbEntity
  8
2-t. Schiebtreppe
100
AcDbCircle
 10
645.2316979238449
 20
2640.30873487058
 30
0.0
 40
3.249999999999999
  0
LINE
  5
CC
330
2
100
AcDbEntity
  8
2-t. Schiebtreppe
100
AcDbLine
 10
623.7790650240936
 20
2751.449566888649
 30
0.0
 11
648.6990679768344
 21
2753.447929427177
 31
0.0
  0
POINT
  5
CD
330
2
100
AcDbEntity
  8
2-t. Schiebtreppe
  6
ByBlock
100
AcDbPoint
 10
645.491485053854
 20
2637.069134486724
 30
0.0
 50
4.584800893589713
  0
LINE
  5
CE
330
2
100
AcDbEntity
  8
2-t. Schiebtreppe
100
AcDbLine
 10
330.1669526833545
 20
2737.936589109362
 30
0.0
 11
335.3626952835299
 21
2673.144581432237
 31
0.0
  0
LINE
  5
CF
330
2
100
AcDbEntity
  8
2-t. Schiebtreppe
100
AcDbLine
 10
305.2469497306137
 20
2735.938226570833
 30
0.0
 11
310.4426923307898
 21
2671.146218893707
 31
0.0
  0
LINE
  5
D0
330
2
100
AcDbEntity
  8
2-t. Schiebtreppe
100
AcDbLine
 10
305.2469497306137
 20
2735.938226570833
 30
0.0
 11
312.2245505573811
 21
2736.497768081621
 31
0.0
  0
ARC
  5
D1
330
2
100
AcDbEntity
  8
2-t. Schiebtreppe
100
AcDbCircle
 10
329.0976176766003
 20
2594.893391009476
 30
0.0
 40
12.5
100
AcDbArc
 50
184.5848008935845
 51
4.584800893584507
  0
LINE
  5
D2
330
2
100
AcDbEntity
  8
2-t. Schiebtreppe
100
AcDbLine
 10
302.9666914449671
 20
2670.546710132149
 30
0.0
 11
310.4426923307898
 21
2671.146218893707
 31
0.0
  0
LINE
  5
D3
330
2
100
AcDbEntity
  8
2-t. Schiebtreppe
100
AcDbLine
 10
304.9650539834963
 20
2645.626707179408
 30
0.0
 11
312.4410548693187
 21
2646.226215940967
 31
0.0
  0
LINE
  5
D4
330
2
100
AcDbEntity
  8
2-t. Schiebtreppe
100
AcDbLine
 10
337.3610578220592
 20
2648.224578479496
 30
0.0
 11
341.5576191529703
 21
2595.89257227874
 31
0.0
  0
LINE
  5
D5
330
2
100
AcDbEntity
  8
2-t. Schiebtreppe
100
AcDbLine
 10
312.4410548693187
 20
2646.226215940967
 30
0.0
 11
316.6376162002298
 21
2593.894209740211
 31
0.0
  0
LINE
  5
D6
330
2
100
AcDbEntity
  8
2-t. Schiebtreppe
100
AcDbLine
 10
335.3626952835297
 20
2673.144581432237
 30
0.0
 11
342.8386961693521
 21
2673.744090193795
 31
0.0
  0
LINE
  5
D7
330
2
100
AcDbEntity
  8
2-t. Schiebtreppe
100
AcDbLine
 10
337.3610578220592
 20
2648.224578479496
 30
0.0
 11
344.8370587078815
 21
2648.824087241055
 31
0.0
  0
ARC
  5
D8
330
2
100
AcDbEntity
  8
2-t. Schiebtreppe
100
AcDbCircle
 10
343.837877438617
 20
2661.284088717425
 30
0.0
 40
12.49999999999994
100
AcDbArc
 50
274.5848008935837
 51
94.58480089358369
  0
ARC
  5
D9
330
2
100
AcDbEntity
  8
2-t. Schiebtreppe
100
AcDbCircle
 10
303.9658727142318
 20
2658.086708655778
 30
0.0
 40
12.49999999999994
100
AcDbArc
 50
94.58480089358369
 51
274.5848008935837
  0
CIRCLE
  5
DA
330
2
100
AcDbEntity
  8
2-t. Schiebtreppe
100
AcDbCircle
 10
303.9658727142318
 20
2658.086708655778
 30
0.0
 40
3.249999999999999
  0
CIRCLE
  5
DB
330
2
100
AcDbEntity
  8
2-t. Schiebtreppe
100
AcDbCircle
 10
343.837877438617
 20
2661.284088717425
 30
0.0
 40
3.249999999999999
  0
CIRCLE
  5
DC
330
2
100
AcDbEntity
  8
2-t. Schiebtreppe
100
AcDbCircle
 10
327.4989276457767
 20
2614.829393371669
 30
0.0
 40
3.249999999999999
  0
POINT
  5
DD
330
2
100
AcDbEntity
  8
2-t. Schiebtreppe
  6
ByBlock
100
AcDbPoint
 10
328.1583872834911
 20
2606.605792397264
 30
0.0
 50
4.584800893589713
  0
POINT
  5
DE
330
2
100
AcDbEntity
  8
2-t. Schiebtreppe
  6
ByBlock
100
AcDbPoint
 10
327.638813023474
 20
2613.084993164977
 30
0.0
 50
4.584800893589713
  0
LINE
  5
DF
330
2
100
AcDbEntity
  8
2-t. Schiebtreppe
100
AcDbLine
 10
321.3508583211403
 20
2760.303450315095
 30
0.0
 11
310.3860570219338
 21
2759.424170798142
 31
0.0
  0
LINE
  5
E0
330
2
100
AcDbEntity
  8
2-t. Schiebtreppe
100
AcDbLine
 10
321.35085832114
 20
2760.303450315095
 30
0.0
 11
323.1893518565869
 21
2737.377047598574
 31
0.0
  0
LINE
  5
E1
330
2
100
AcDbEntity
  8
2-t. Schiebtreppe
100
AcDbLine
 10
306.206163749108
 20
2723.976625153517
 30
0.0
 11
331.1261667018483
 21
2725.974987692046
 31
0.0
  0
LINE
  5
E2
330
2
100
AcDbEntity
  8
2-t. Schiebtreppe
100
AcDbLine
 10
323.1893518565869
 20
2737.377047598574
 30
0.0
 11
330.1669526833545
 21
2737.936589109362
 31
0.0
  0
CIRCLE
  5
E3
330
2
100
AcDbEntity
  8
2-t. Schiebtreppe
100
AcDbCircle
 10
329.0976176766003
 20
2594.893391009476
 30
0.0
 40
4.999999999999878
  0
LWPOLYLINE
  5
E4
330
2
100
AcDbEntity
  8
2-t. Schiebtreppe
100
AcDbPolyline
 90
        3
 70
     0
 43
0.0
 10
1383.731864993815
 20
2798.847683524102
 10
1376.034244450152
 20
2778.16619975752
 10
1262.363316784698
 20
2769.050802620638
  0
LWPOLYLINE
  5
E5
330
2
100
AcDbEntity
  8
2-t. Schiebtreppe
100
AcDbPolyline
 90
        5
 70
     0
 43
0.0
 10
1231.504633784478
 20
2766.576210775166
 10
286.2960978901888
 20
2690.778895148388
 10
245.4526998172442
 20
2762.720707278695
 10
253.1594022080977
 20
2783.426591582323
 10
1223.910856138067
 20
2861.272221995582
  0
LWPOLYLINE
  5
E6
330
2
100
AcDbEntity
  8
2-t. Schiebtreppe
100
AcDbPolyline
 90
        3
 70
     0
 43
0.0
 10
1254.769539138287
 20
2863.746813841054
 10
1342.875612723904
 20
2870.812137115865
 10
1383.731864993815
 20
2798.847683524102
  0
LWPOLYLINE
  5
E7
330
2
100
AcDbEntity
  8
2-t. Schiebtreppe
100
AcDbPolyline
 90
        5
 70
     1
 43
0.0
 10
1089.41872305456
 20
2755.182184787531
 10
260.753179854508
 20
2688.730580361908
 10
253.046477463654
 20
2668.024696058282
 10
293.8898755365987
 20
2596.082883927973
 10
1141.16997592978
 20
2664.027210237965
  0
LINE
  5
E8
330
2
100
AcDbEntity
  8
2-t. Schiebtreppe
100
AcDbLine
 10
299.0976176766003
 20
2571.893391009476
 30
0.0
 11
359.0976176766003
 21
2571.893391009477
 31
0.0
  0
CIRCLE
  5
E9
330
2
100
AcDbEntity
  8
2-t. Schiebtreppe
100
AcDbCircle
 10
329.0976176766003
 20
2594.893391009476
 30
0.0
 40
4.999999999999997
  0
LINE
  5
EA
330
2
100
AcDbEntity
  8
2-t. Schiebtreppe
100
AcDbLine
 10
299.0976176766003
 20
2571.893391009476
 30
0.0
 11
325.3728654423799
 21
2601.23408434793
 31
0.0
  0
LINE
  5
EB
330
2
100
AcDbEntity
  8
2-t. Schiebtreppe
100
AcDbLine
 10
332.8223699108208
 20
2601.23408434793
 30
0.0
 11
359.0976176766003
 21
2571.893391009477
 31
0.0
  0
ARC
  5
EC
330
2
100
AcDbEntity
  8
2-t. Schiebtreppe
100
AcDbCircle
 10
329.0976176766003
 20
2597.89848533221
 30
0.0
 40
4.999999999999997
100
AcDbArc
 50
41.84515713520911
 51
138.1548428647906
  0
LINE
  5
ED
330
2
100
AcDbEntity
  8
2-t. Schiebtreppe
100
AcDbLine
 10
1158.3
 20
2653.624611066403
 30
0.0
 11
1158.3
 21
2713.624611066403
 31
0.0
  0
CIRCLE
  5
EE
330
2
100
AcDbEntity
  8
2-t. Schiebtreppe
100
AcDbCircle
 10
1135.3
 20
2683.624611066403
 30
0.0
 40
4.999999999999998
  0
LINE
  5
EF
330
2
100
AcDbEntity
  8
2-t. Schiebtreppe
100
AcDbLine
 10
1158.3
 20
2653.624611066403
 30
0.0
 11
1128.959306661546
 21
2679.899858832183
 31
0.0
  0
LINE
  5
F0
330
2
100
AcDbEntity
  8
2-t. Schiebtreppe
100
AcDbLine
 10
1128.959306661545
 20
2687.349363300624
 30
0.0
 11
1158.3
 21
2713.624611066403
 31
0.0
  0
ARC
  5
F1
330
2
100
AcDbEntity
  8
2-t. Schiebtreppe
100
AcDbCircle
 10
1132.294905677265
 20
2683.624611066404
 30
0.0
 40
4.999999999999998
100
AcDbArc
 50
131.8451571352142
 51
228.154842864787
  0
LWPOLYLINE
  5
F2
330
2
100
AcDbEntity
  8
2-t. Schiebtreppe
100
AcDbPolyline
 90
        4
 70
     1
 43
0.0
 10
878.1192084861586
 20
2672.579554629243
 10
1144.839776678296
 20
2665.915321873666
 10
1145.592595824793
 20
2700.907224698929
 10
878.8720276326561
 20
2707.571457454506
  0
LINE
  5
F3
330
2
100
AcDbEntity
  8
2-t. Schiebtreppe
100
AcDbLine
 10
1231.504633784478
 20
2766.576210775166
 30
0.0
 11
1229.606189372875
 21
2790.25021358027
 31
0.0
  0
LINE
  5
F4
330
2
100
AcDbEntity
  8
2-t. Schiebtreppe
100
AcDbLine
 10
1225.80930054967
 20
2837.598219190477
 30
0.0
 11
1223.910856138067
 21
2861.272221995582
 31
0.0
  0
LINE
  5
F5
330
2
100
AcDbEntity
  8
2-t. Schiebtreppe
100
AcDbLine
 10
1225.80930054967
 20
2837.598219190477
 30
0.0
 11
1233.240748804444
 21
2844.289525254066
 31
0.0
  0
LINE
  5
F6
330
2
100
AcDbEntity
  8
2-t. Schiebtreppe
100
AcDbLine
 10
1229.606189372875
 20
2790.25021358027
 30
0.0
 11
1222.174741118101
 21
2783.558907516681
 31
0.0
  0
LINE
  5
F7
330
2
100
AcDbEntity
  8
2-t. Schiebtreppe
100
AcDbLine
 10
1222.174741118101
 20
2783.558907516681
 30
0.0
 11
1233.240748804444
 21
2844.289525254066
 31
0.0
  0
LINE
  5
F8
330
2
100
AcDbEntity
  8
2-t. Schiebtreppe
100
AcDbLine
 10
1262.363316784698
 20
2769.050802620638
 30
0.0
 11
1260.464872373095
 21
2792.724805425742
 31
0.0
  0
LINE
  5
F9
330
2
100
AcDbEntity
  8
2-t. Schiebtreppe
100
AcDbLine
 10
1256.66798354989
 20
2840.072811035949
 30
0.0
 11
1254.769539138287
 21
2863.746813841054
 31
0.0
  0
LINE
  5
FA
330
2
100
AcDbEntity
  8
2-t. Schiebtreppe
100
AcDbLine
 10
1256.66798354989
 20
2840.072811035949
 30
0.0
 11
1264.099431804664
 21
2846.764117099537
 31
0.0
  0
LINE
  5
FB
330
2
100
AcDbEntity
  8
2-t. Schiebtreppe
100
AcDbLine
 10
1260.464872373095
 20
2792.724805425742
 30
0.0
 11
1253.033424118321
 21
2786.033499362153
 31
0.0
  0
LINE
  5
FC
330
2
100
AcDbEntity
  8
2-t. Schiebtreppe
100
AcDbLine
 10
1253.033424118321
 20
2786.033499362153
 30
0.0
 11
1264.099431804664
 21
2846.764117099537
 31
0.0
  0
LWPOLYLINE
  5
FD
330
2
100
AcDbEntity
  8
2-t. Schiebtreppe
100
AcDbPolyline
 90
        4
 70
     1
 43
0.0
 10
287.4237794551904
 20
2715.678765348345
 10
473.8914379520624
 20
2730.631812669168
 10
471.6938362901155
 20
2758.036369574531
 10
285.2261777932432
 20
2743.083322253707
  0
LINE
  5
FE
330
2
100
AcDbEntity
  8
2-t. Schiebtreppe
100
AcDbLine
 10
310.3860570219338
 20
2759.424170798142
 30
0.0
 11
312.2245505573807
 21
2736.497768081621
 31
0.0
  0
TEXT
  5
FF
330
2
100
AcDbEntity
  8
Plankopf
 62
     0
100
AcDbText
 10
1031.716376303638
 20
2144.70291456
 30
0.0
 40
5.632
  1
1
  7
TECHNICBOLD
100
AcDbText
  0
TEXT
  5
100
330
2
100
AcDbEntity
  8
Plankopf
 62
     0
100
AcDbText
 10
1043.100412597007
 20
2144.524608079728
 30
0.0
 40
4.5056
  1
20.11.12 Neue Ausführung EI 30 
  7
TECHNICBOLD
100
AcDbText
  0
TEXT
  5
101
330
2
100
AcDbEntity
  8
Plankopf
 62
     0
100
AcDbText
 10
1200.613235401876
 20
2144.702914560001
 30
0.0
 40
5.632
  1
02.03.12 TE
  7
TECHNICBOLD
100
AcDbText
  0
TEXT
  5
102
330
2
100
AcDbEntity
  8
Plankopf
 62
     0
100
AcDbText
 10
1262.598891719038
 20
2144.70291456
 30
0.0
 40
5.632
  1
EN 1363-1 ,EN 1634-1
  7
TECHNICBOLD
100
AcDbText
  0
TEXT
  5
103
330
2
100
AcDbEntity
  8
Plankopf
 62
     0
100
AcDbText
 10
1200.613235401876
 20
2132.78182912
 30
0.0
 40
5.632
  1
E8630
  7
TECHNICBOLD
100
AcDbText
  0
TEXT
  5
104
330
2
100
AcDbEntity
  8
Plankopf
 62
     0
100
AcDbText
 10
1200.613235401876
 20
2120.860780288
 30
0.0
 40
5.632
  1
E8630A
  7
TECHNICBOLD
100
AcDbText
  0
TEXT
  5
105
330
2
100
AcDbEntity
  8
Plankopf
 62
     0
100
AcDbText
 10
1031.716376303638
 20
2132.73491456
 30
0.0
 40
5.632
  1
2
  7
TECHNICBOLD
100
AcDbText
  0
TEXT
  5
106
330
2
100
AcDbEntity
  8
Plankopf
 62
     0
100
AcDbText
 10
1043.100412597007
 20
2132.556608079728
 30
0.0
 40
4.5056
  1
16.05.14 EK aktualisiert
  7
TECHNICBOLD
100
AcDbText
  0
LWPOLYLINE
  5
107
330
2
100
AcDbEntity
  8
Kasten
100
AcDbPolyline
 90
        4
 70
     1
 43
0.0
 10
201.2999999999999
 20
2547.893391009476
 10
239.3
 20
2547.893391009476
 10
239.3
 20
2717.893391009476
 10
201.2999999999999
 20
2717.893391009476
  0
HATCH
  5
108
330
2
100
AcDbEntity
  8
Bauseitig_Beton
100
AcDbHatch
 10
0.0
 20
0.0
 30
0.0
210
0.0
220
0.0
230
1.0
  2
ANSI33
 70
     0
 71
     1
 91
        1
 92
        1
 93
        4
 72
     1
 10
1302.996220898765
 20
2485.893391009474
 11
1203.799590166201
 21
2485.893391009474
 72
     1
 10
1203.799590166201
 20
2485.893391009474
 11
1203.799590166201
 21
2717.893391009476
 72
     1
 10
1203.799590166201
 20
2717.893391009476
 11
1302.996220898765
 21
2717.893391009476
 72
     1
 10
1302.996220898765
 20
2717.893391009476
 11
1302.996220898765
 21
2485.893391009474
 97
        1
330
10B
 75
     1
 76
     1
 52
90.0
 41
40.0
 77
     0
 78
     2
 53
135.0
 43
1111.696220898766
 44
2042.000000000001
 45
-7.071067811865475
 46
-7.071067811865475
 79
     0
 53
135.0
 43
1111.696220898766
 44
2049.071067800001
 45
-7.071067811865475
 46
-7.071067811865475
 79
     2
 49
5.0
 49
-2.5
 98
        1
 10
1111.696220898766
 20
2042.000000000001
1001
GradientColor1ACI
1070
     5
1001
GradientColor2ACI
1070
     2
1001
ACAD
1010
0.0
1020
0.0
1030
0.0
  0
HATCH
  5
109
330
2
100
AcDbEntity
  8
Bauseitig_Beton
100
AcDbHatch
 10
0.0
 20
0.0
 30
0.0
210
0.0
220
0.0
230
1.0
  2
ANSI31
 70
     0
 71
     1
 91
        1
 92
        7
 72
     0
 73
     1
 93
        4
 10
1203.8
 20
2485.893391009475
 10
1203.8
 20
2477.893391009475
 10
1302.996630732563
 20
2477.893391009475
 10
1302.996630732563
 20
2485.893391009475
 97
        1
330
10A
 75
     1
 76
     1
 52
0.0
 41
50.0
 77
     0
 78
     1
 53
45.0
 43
1111.696630732564
 44
2050.0
 45
-4.419417382415921
 46
4.419417382415922
 79
     0
 47
0.2285218501967519
 98
        1
 10
1264.385090153101
 20
2483.606751253734
1001
GradientColor1ACI
1070
     5
1001
GradientColor2ACI
1070
     2
1001
ACAD
1010
0.0
1020
0.0
1030
0.0
  0
LWPOLYLINE
  5
10A
102
{ACAD_REACTORS
330
109
102
}
330
2
100
AcDbEntity
  8
Bauseitig_Beton
100
AcDbPolyline
 90
        4
 70
     1
 43
0.0
 10
1203.8
 20
2485.893391009475
 10
1302.996630732563
 20
2485.893391009475
 10
1302.996630732563
 20
2477.893391009475
 10
1203.8
 20
2477.893391009475
  0
LWPOLYLINE
  5
10B
102
{ACAD_REACTORS
330
108
102
}
330
2
100
AcDbEntity
  8
Bauseitig_Beton
100
AcDbPolyline
 90
        4
 70
     1
 43
0.0
 10
1302.996220898765
 20
2485.893391009474
 10
1203.799590166201
 20
2485.893391009474
 10
1203.799590166201
 20
2717.893391009476
 10
1302.996220898765
 20
2717.893391009476
  0
MTEXT
  5
10C
102
{ACAD_XDICTIONARY
360
10D
102
}
330
2
100
AcDbEntity
  8
Bauseitig_Beton
 62
     1
100
AcDbMText
 10
1250.238926180658
 20
2567.657454298599
 30
0.0
 40
10.0
 41
37.77744553950834
 46
0.0
 71
     1
 72
     5
  1
Beton
  7
TECHNICBOLD
 11
0.0000000000000001
 21
1.0
 31
0.0
 73
     1
 44
1.0
 90
        3
 63
   256
 45
1.199999999999999
441
        0
1001
AcadAnnotative
1000
AnnotativeData
1002
{
1070
     1
1070
     0
1002
}
1001
ACAD
1000
ACAD_MTEXT_COLUMN_INFO_BEGIN
1070
    75
1070
     2
1070
    79
1070
     0
1070
    76
1070
     1
1070
    78
1070
     0
1070
    48
1040
37.77744553950834
1070
    49
1040
17.5
1070
    50
1070
     1
1040
0.0
1000
ACAD_MTEXT_COLUMN_INFO_END
  0
LWPOLYLINE
  5
110
330
2
100
AcDbEntity
  8
Bauseitig_Beton
100
AcDbPolyline
 90
        4
 70
     1
 43
0.0
 10
1196.3
 20
2717.893391009476
 10
1203.8
 20
2717.893391009476
 10
1203.8
 20
2485.893391009474
 10
1196.3
 20
2485.893391009475
  0
ARC
  5
111
330
2
100
AcDbEntity
  8
Bauseitig_Beton
100
AcDbCircle
 10
1198.3
 20
2717.888272625835
 30
0.0
 40
2.0
100
AcDbArc
 50
179.8533689496797
 51
270.0
  0
LINE
  5
112
330
2
100
AcDbEntity
  8
Bauseitig_Beton
100
AcDbLine
 10
1201.8
 20
2717.888272625835
 30
0.0
 11
1198.3
 21
2715.888272625835
 31
0.0
  0
ARC
  5
113
330
2
100
AcDbEntity
  8
Bauseitig_Beton
100
AcDbCircle
 10
1201.8
 20
2715.888272625835
 30
0.0
 40
2.0
100
AcDbArc
 50
270.0
 51
90.0
  0
ARC
  5
114
330
2
100
AcDbEntity
  8
Bauseitig_Beton
100
AcDbCircle
 10
1198.3
 20
2713.888272625835
 30
0.0
 40
2.0
100
AcDbArc
 50
90.0
 51
270.0
  0
LINE
  5
115
330
2
100
AcDbEntity
  8
Bauseitig_Beton
100
AcDbLine
 10
1198.3
 20
2715.888272625835
 30
0.0
 11
1201.8
 21
2713.888272625835
 31
0.0
  0
LINE
  5
116
330
2
100
AcDbEntity
  8
Bauseitig_Beton
100
AcDbLine
 10
1201.8
 20
2713.888272625835
 30
0.0
 11
1198.3
 21
2711.888272625835
 31
0.0
  0
ARC
  5
117
330
2
100
AcDbEntity
  8
Bauseitig_Beton
100
AcDbCircle
 10
1201.8
 20
2711.888272625835
 30
0.0
 40
2.0
100
AcDbArc
 50
270.0
 51
90.0
  0
ARC
  5
118
330
2
100
AcDbEntity
  8
Bauseitig_Beton
100
AcDbCircle
 10
1198.3
 20
2709.888272625835
 30
0.0
 40
2.0
100
AcDbArc
 50
90.0
 51
270.0
  0
LINE
  5
119
330
2
100
AcDbEntity
  8
Bauseitig_Beton
100
AcDbLine
 10
1198.3
 20
2711.888272625835
 30
0.0
 11
1201.8
 21
2709.888272625835
 31
0.0
  0
LINE
  5
11A
330
2
100
AcDbEntity
  8
Bauseitig_Beton
100
AcDbLine
 10
1201.8
 20
2709.888272625835
 30
0.0
 11
1198.3
 21
2707.888272625835
 31
0.0
  0
ARC
  5
11B
330
2
100
AcDbEntity
  8
Bauseitig_Beton
100
AcDbCircle
 10
1201.8
 20
2707.888272625835
 30
0.0
 40
2.0
100
AcDbArc
 50
270.0
 51
90.0
  0
ARC
  5
11C
330
2
100
AcDbEntity
  8
Bauseitig_Beton
100
AcDbCircle
 10
1198.3
 20
2705.888272625835
 30
0.0
 40
2.0
100
AcDbArc
 50
90.0
 51
270.0
  0
LINE
  5
11D
330
2
100
AcDbEntity
  8
Bauseitig_Beton
100
AcDbLine
 10
1198.3
 20
2707.888272625835
 30
0.0
 11
1201.8
 21
2705.888272625835
 31
0.0
  0
LINE
  5
11E
330
2
100
AcDbEntity
  8
Bauseitig_Beton
100
AcDbLine
 10
1201.8
 20
2705.888272625835
 30
0.0
 11
1198.3
 21
2703.888272625835
 31
0.0
  0
ARC
  5
11F
330
2
100
AcDbEntity
  8
Bauseitig_Beton
100
AcDbCircle
 10
1201.8
 20
2703.888272625835
 30
0.0
 40
2.0
100
AcDbArc
 50
270.0
 51
90.0
  0
ARC
  5
120
330
2
100
AcDbEntity
  8
Bauseitig_Beton
100
AcDbCircle
 10
1198.3
 20
2701.888272625835
 30
0.0
 40
2.0
100
AcDbArc
 50
90.0
 51
270.0
  0
LINE
  5
121
330
2
100
AcDbEntity
  8
Bauseitig_Beton
100
AcDbLine
 10
1198.3
 20
2703.888272625835
 30
0.0
 11
1201.8
 21
2701.888272625835
 31
0.0
  0
LINE
  5
122
330
2
100
AcDbEntity
  8
Bauseitig_Beton
100
AcDbLine
 10
1201.8
 20
2701.888272625835
 30
0.0
 11
1198.3
 21
2699.888272625835
 31
0.0
  0
ARC
  5
123
330
2
100
AcDbEntity
  8
Bauseitig_Beton
100
AcDbCircle
 10
1201.8
 20
2699.888272625835
 30
0.0
 40
2.0
100
AcDbArc
 50
270.0
 51
90.0
  0
ARC
  5
124
330
2
100
AcDbEntity
  8
Bauseitig_Beton
100
AcDbCircle
 10
1198.3
 20
2697.888272625835
 30
0.0
 40
2.0
100
AcDbArc
 50
90.0
 51
270.0
  0
LINE
  5
125
330
2
100
AcDbEntity
  8
Bauseitig_Beton
100
AcDbLine
 10
1198.3
 20
2699.888272625835
 30
0.0
 11
1201.8
 21
2697.888272625835
 31
0.0
  0
LINE
  5
126
330
2
100
AcDbEntity
  8
Bauseitig_Beton
100
AcDbLine
 10
1201.8
 20
2697.888272625835
 30
0.0
 11
1198.3
 21
2695.888272625835
 31
0.0
  0
ARC
  5
127
330
2
100
AcDbEntity
  8
Bauseitig_Beton
100
AcDbCircle
 10
1201.8
 20
2695.888272625835
 30
0.0
 40
2.0
100
AcDbArc
 50
270.0
 51
90.0
  0
ARC
  5
128
330
2
100
AcDbEntity
  8
Bauseitig_Beton
100
AcDbCircle
 10
1198.3
 20
2693.888272625835
 30
0.0
 40
2.0
100
AcDbArc
 50
90.0
 51
270.0
  0
LINE
  5
129
330
2
100
AcDbEntity
  8
Bauseitig_Beton
100
AcDbLine
 10
1198.3
 20
2695.888272625835
 30
0.0
 11
1201.8
 21
2693.888272625835
 31
0.0
  0
LINE
  5
12A
330
2
100
AcDbEntity
  8
Bauseitig_Beton
100
AcDbLine
 10
1201.8
 20
2693.888272625835
 30
0.0
 11
1198.3
 21
2691.888272625835
 31
0.0
  0
ARC
  5
12B
330
2
100
AcDbEntity
  8
Bauseitig_Beton
100
AcDbCircle
 10
1201.8
 20
2691.888272625835
 30
0.0
 40
2.0
100
AcDbArc
 50
270.0
 51
90.0
  0
ARC
  5
12C
330
2
100
AcDbEntity
  8
Bauseitig_Beton
100
AcDbCircle
 10
1198.3
 20
2689.888272625835
 30
0.0
 40
2.0
100
AcDbArc
 50
90.0
 51
270.0
  0
LINE
  5
12D
330
2
100
AcDbEntity
  8
Bauseitig_Beton
100
AcDbLine
 10
1198.3
 20
2691.888272625835
 30
0.0
 11
1201.8
 21
2689.888272625835
 31
0.0
  0
LINE
  5
12E
330
2
100
AcDbEntity
  8
Bauseitig_Beton
100
AcDbLine
 10
1201.8
 20
2689.888272625835
 30
0.0
 11
1198.3
 21
2687.888272625835
 31
0.0
  0
ARC
  5
12F
330
2
100
AcDbEntity
  8
Bauseitig_Beton
100
AcDbCircle
 10
1201.8
 20
2687.888272625835
 30
0.0
 40
2.0
100
AcDbArc
 50
270.0
 51
90.0
  0
ARC
  5
130
330
2
100
AcDbEntity
  8
Bauseitig_Beton
100
AcDbCircle
 10
1198.3
 20
2685.888272625835
 30
0.0
 40
2.0
100
AcDbArc
 50
90.0
 51
270.0
  0
LINE
  5
131
330
2
100
AcDbEntity
  8
Bauseitig_Beton
100
AcDbLine
 10
1198.3
 20
2687.888272625835
 30
0.0
 11
1201.8
 21
2685.888272625835
 31
0.0
  0
LINE
  5
132
330
2
100
AcDbEntity
  8
Bauseitig_Beton
100
AcDbLine
 10
1201.8
 20
2685.888272625835
 30
0.0
 11
1198.3
 21
2683.888272625835
 31
0.0
  0
ARC
  5
133
330
2
100
AcDbEntity
  8
Bauseitig_Beton
100
AcDbCircle
 10
1201.8
 20
2683.888272625835
 30
0.0
 40
2.0
100
AcDbArc
 50
270.0
 51
90.0
  0
ARC
  5
134
330
2
100
AcDbEntity
  8
Bauseitig_Beton
100
AcDbCircle
 10
1198.3
 20
2681.888272625835
 30
0.0
 40
2.0
100
AcDbArc
 50
90.0
 51
270.0
  0
LINE
  5
135
330
2
100
AcDbEntity
  8
Bauseitig_Beton
100
AcDbLine
 10
1198.3
 20
2683.888272625835
 30
0.0
 11
1201.8
 21
2681.888272625835
 31
0.0
  0
LINE
  5
136
330
2
100
AcDbEntity
  8
Bauseitig_Beton
100
AcDbLine
 10
1201.8
 20
2681.888272625835
 30
0.0
 11
1198.3
 21
2679.888272625835
 31
0.0
  0
ARC
  5
137
330
2
100
AcDbEntity
  8
Bauseitig_Beton
100
AcDbCircle
 10
1201.8
 20
2679.888272625835
 30
0.0
 40
2.0
100
AcDbArc
 50
270.0
 51
90.0
  0
ARC
  5
138
330
2
100
AcDbEntity
  8
Bauseitig_Beton
100
AcDbCircle
 10
1198.3
 20
2677.888272625835
 30
0.0
 40
2.0
100
AcDbArc
 50
90.0
 51
270.0
  0
LINE
  5
139
330
2
100
AcDbEntity
  8
Bauseitig_Beton
100
AcDbLine
 10
1198.3
 20
2679.888272625835
 30
0.0
 11
1201.8
 21
2677.888272625835
 31
0.0
  0
LINE
  5
13A
330
2
100
AcDbEntity
  8
Bauseitig_Beton
100
AcDbLine
 10
1201.8
 20
2677.888272625835
 30
0.0
 11
1198.3
 21
2675.888272625835
 31
0.0
  0
ARC
  5
13B
330
2
100
AcDbEntity
  8
Bauseitig_Beton
100
AcDbCircle
 10
1201.8
 20
2675.888272625835
 30
0.0
 40
2.0
100
AcDbArc
 50
270.0
 51
90.0
  0
ARC
  5
13C
330
2
100
AcDbEntity
  8
Bauseitig_Beton
100
AcDbCircle
 10
1198.3
 20
2673.888272625835
 30
0.0
 40
2.0
100
AcDbArc
 50
90.0
 51
270.0
  0
LINE
  5
13D
330
2
100
AcDbEntity
  8
Bauseitig_Beton
100
AcDbLine
 10
1198.3
 20
2675.888272625835
 30
0.0
 11
1201.8
 21
2673.888272625835
 31
0.0
  0
LINE
  5
13E
330
2
100
AcDbEntity
  8
Bauseitig_Beton
100
AcDbLine
 10
1201.8
 20
2673.888272625835
 30
0.0
 11
1198.3
 21
2671.888272625835
 31
0.0
  0
ARC
  5
13F
330
2
100
AcDbEntity
  8
Bauseitig_Beton
100
AcDbCircle
 10
1201.8
 20
2671.888272625835
 30
0.0
 40
2.0
100
AcDbArc
 50
270.0
 51
90.0
  0
ARC
  5
140
330
2
100
AcDbEntity
  8
Bauseitig_Beton
100
AcDbCircle
 10
1198.3
 20
2669.888272625835
 30
0.0
 40
2.0
100
AcDbArc
 50
90.0
 51
270.0
  0
LINE
  5
141
330
2
100
AcDbEntity
  8
Bauseitig_Beton
100
AcDbLine
 10
1198.3
 20
2671.888272625835
 30
0.0
 11
1201.8
 21
2669.888272625835
 31
0.0
  0
LINE
  5
142
330
2
100
AcDbEntity
  8
Bauseitig_Beton
100
AcDbLine
 10
1201.8
 20
2669.888272625835
 30
0.0
 11
1198.3
 21
2667.888272625835
 31
0.0
  0
ARC
  5
143
330
2
100
AcDbEntity
  8
Bauseitig_Beton
100
AcDbCircle
 10
1201.8
 20
2667.888272625835
 30
0.0
 40
2.0
100
AcDbArc
 50
270.0
 51
90.0
  0
ARC
  5
144
330
2
100
AcDbEntity
  8
Bauseitig_Beton
100
AcDbCircle
 10
1198.3
 20
2665.888272625835
 30
0.0
 40
2.0
100
AcDbArc
 50
90.0
 51
270.0
  0
LINE
  5
145
330
2
100
AcDbEntity
  8
Bauseitig_Beton
100
AcDbLine
 10
1198.3
 20
2667.888272625835
 30
0.0
 11
1201.8
 21
2665.888272625835
 31
0.0
  0
LINE
  5
146
330
2
100
AcDbEntity
  8
Bauseitig_Beton
100
AcDbLine
 10
1201.8
 20
2665.888272625835
 30
0.0
 11
1198.3
 21
2663.888272625835
 31
0.0
  0
ARC
  5
147
330
2
100
AcDbEntity
  8
Bauseitig_Beton
100
AcDbCircle
 10
1201.8
 20
2663.888272625835
 30
0.0
 40
2.0
100
AcDbArc
 50
339.0568897684515
 51
90.0
  0
ARC
  5
148
330
2
100
AcDbEntity
  8
Bauseitig_Beton
100
AcDbCircle
 10
1198.3
 20
2661.888272625835
 30
0.0
 40
2.0
100
AcDbArc
 50
90.0
 51
140.0170822246424
  0
LINE
  5
149
330
2
100
AcDbEntity
  8
Bauseitig_Beton
100
AcDbLine
 10
1198.3
 20
2663.888272625835
 30
0.0
 11
1199.551042828641
 21
2663.173391009469
 31
0.0
  0
ARC
  5
14A
330
2
100
AcDbEntity
  8
Bauseitig_Beton
100
AcDbCircle
 10
1201.8
 20
2587.888272625835
 30
0.0
 40
2.0
100
AcDbArc
 50
270.0
 51
339.0568897684515
  0
LINE
  5
14B
330
2
100
AcDbEntity
  8
Bauseitig_Beton
100
AcDbLine
 10
1201.3
 20
2586.173986911549
 30
0.0
 11
1201.8
 21
2585.888272625835
 31
0.0
  0
LINE
  5
14C
330
2
100
AcDbEntity
  8
Bauseitig_Beton
100
AcDbLine
 10
1201.8
 20
2585.888272625835
 30
0.0
 11
1201.3
 21
2585.60255834012
 31
0.0
  0
ARC
  5
14D
330
2
100
AcDbEntity
  8
Bauseitig_Beton
100
AcDbCircle
 10
1201.8
 20
2583.888272625835
 30
0.0
 40
2.0
100
AcDbArc
 50
270.0
 51
90.0
  0
LINE
  5
14E
330
2
100
AcDbEntity
  8
Bauseitig_Beton
100
AcDbLine
 10
1201.3
 20
2582.173986911549
 30
0.0
 11
1201.8
 21
2581.888272625835
 31
0.0
  0
LINE
  5
14F
330
2
100
AcDbEntity
  8
Bauseitig_Beton
100
AcDbLine
 10
1201.8
 20
2581.888272625835
 30
0.0
 11
1201.3
 21
2581.60255834012
 31
0.0
  0
ARC
  5
150
330
2
100
AcDbEntity
  8
Bauseitig_Beton
100
AcDbCircle
 10
1201.8
 20
2579.888272625835
 30
0.0
 40
2.0
100
AcDbArc
 50
270.0
 51
90.0
  0
LINE
  5
151
330
2
100
AcDbEntity
  8
Bauseitig_Beton
100
AcDbLine
 10
1201.3
 20
2578.173986911549
 30
0.0
 11
1201.8
 21
2577.888272625835
 31
0.0
  0
LINE
  5
152
330
2
100
AcDbEntity
  8
Bauseitig_Beton
100
AcDbLine
 10
1201.8
 20
2577.888272625835
 30
0.0
 11
1201.3
 21
2577.60255834012
 31
0.0
  0
ARC
  5
153
330
2
100
AcDbEntity
  8
Bauseitig_Beton
100
AcDbCircle
 10
1201.8
 20
2575.888272625835
 30
0.0
 40
2.0
100
AcDbArc
 50
270.0
 51
90.0
  0
LINE
  5
154
330
2
100
AcDbEntity
  8
Bauseitig_Beton
100
AcDbLine
 10
1201.3
 20
2574.173986911549
 30
0.0
 11
1201.8
 21
2573.888272625835
 31
0.0
  0
LINE
  5
155
330
2
100
AcDbEntity
  8
Bauseitig_Beton
100
AcDbLine
 10
1201.8
 20
2573.888272625835
 30
0.0
 11
1201.3
 21
2573.60255834012
 31
0.0
  0
ARC
  5
156
330
2
100
AcDbEntity
  8
Bauseitig_Beton
100
AcDbCircle
 10
1201.8
 20
2571.888272625835
 30
0.0
 40
2.0
100
AcDbArc
 50
270.0
 51
90.0
  0
LINE
  5
157
330
2
100
AcDbEntity
  8
Bauseitig_Beton
100
AcDbLine
 10
1201.3
 20
2570.173986911549
 30
0.0
 11
1201.8
 21
2569.888272625835
 31
0.0
  0
LINE
  5
158
330
2
100
AcDbEntity
  8
Bauseitig_Beton
100
AcDbLine
 10
1201.8
 20
2569.888272625835
 30
0.0
 11
1201.3
 21
2569.60255834012
 31
0.0
  0
ARC
  5
159
330
2
100
AcDbEntity
  8
Bauseitig_Beton
100
AcDbCircle
 10
1201.8
 20
2567.888272625835
 30
0.0
 40
2.0
100
AcDbArc
 50
270.0
 51
90.0
  0
LINE
  5
15A
330
2
100
AcDbEntity
  8
Bauseitig_Beton
100
AcDbLine
 10
1201.3
 20
2566.173986911549
 30
0.0
 11
1201.8
 21
2565.888272625835
 31
0.0
  0
LINE
  5
15B
330
2
100
AcDbEntity
  8
Bauseitig_Beton
100
AcDbLine
 10
1201.8
 20
2565.888272625835
 30
0.0
 11
1201.3
 21
2565.60255834012
 31
0.0
  0
ARC
  5
15C
330
2
100
AcDbEntity
  8
Bauseitig_Beton
100
AcDbCircle
 10
1201.8
 20
2563.888272625835
 30
0.0
 40
2.0
100
AcDbArc
 50
270.0
 51
90.0
  0
LINE
  5
15D
330
2
100
AcDbEntity
  8
Bauseitig_Beton
100
AcDbLine
 10
1201.3
 20
2562.173986911549
 30
0.0
 11
1201.8
 21
2561.888272625835
 31
0.0
  0
LINE
  5
15E
330
2
100
AcDbEntity
  8
Bauseitig_Beton
100
AcDbLine
 10
1201.8
 20
2561.888272625835
 30
0.0
 11
1201.3
 21
2561.60255834012
 31
0.0
  0
ARC
  5
15F
330
2
100
AcDbEntity
  8
Bauseitig_Beton
100
AcDbCircle
 10
1201.8
 20
2559.888272625835
 30
0.0
 40
2.0
100
AcDbArc
 50
270.0
 51
90.0
  0
LINE
  5
160
330
2
100
AcDbEntity
  8
Bauseitig_Beton
100
AcDbLine
 10
1201.3
 20
2558.173986911549
 30
0.0
 11
1201.8
 21
2557.888272625835
 31
0.0
  0
LINE
  5
161
330
2
100
AcDbEntity
  8
Bauseitig_Beton
100
AcDbLine
 10
1201.8
 20
2557.888272625835
 30
0.0
 11
1201.3
 21
2557.60255834012
 31
0.0
  0
ARC
  5
162
330
2
100
AcDbEntity
  8
Bauseitig_Beton
100
AcDbCircle
 10
1201.8
 20
2555.888272625835
 30
0.0
 40
2.0
100
AcDbArc
 50
270.0
 51
90.0
  0
LINE
  5
163
330
2
100
AcDbEntity
  8
Bauseitig_Beton
100
AcDbLine
 10
1201.3
 20
2554.173986911548
 30
0.0
 11
1201.8
 21
2553.888272625834
 31
0.0
  0
LINE
  5
164
330
2
100
AcDbEntity
  8
Bauseitig_Beton
100
AcDbLine
 10
1201.8
 20
2553.888272625834
 30
0.0
 11
1201.3
 21
2553.60255834012
 31
0.0
  0
ARC
  5
165
330
2
100
AcDbEntity
  8
Bauseitig_Beton
100
AcDbCircle
 10
1201.8
 20
2551.888272625835
 30
0.0
 40
2.0
100
AcDbArc
 50
270.0
 51
90.0
  0
LINE
  5
166
330
2
100
AcDbEntity
  8
Bauseitig_Beton
100
AcDbLine
 10
1201.3
 20
2550.173986911549
 30
0.0
 11
1201.8
 21
2549.888272625834
 31
0.0
  0
LINE
  5
167
330
2
100
AcDbEntity
  8
Bauseitig_Beton
100
AcDbLine
 10
1201.8
 20
2549.888272625834
 30
0.0
 11
1201.3
 21
2549.60255834012
 31
0.0
  0
ARC
  5
168
330
2
100
AcDbEntity
  8
Bauseitig_Beton
100
AcDbCircle
 10
1201.8
 20
2547.888272625835
 30
0.0
 40
2.0
100
AcDbArc
 50
270.0
 51
90.0
  0
LINE
  5
169
330
2
100
AcDbEntity
  8
Bauseitig_Beton
100
AcDbLine
 10
1201.3
 20
2546.173986911549
 30
0.0
 11
1201.8
 21
2545.888272625834
 31
0.0
  0
LINE
  5
16A
330
2
100
AcDbEntity
  8
Bauseitig_Beton
100
AcDbLine
 10
1201.8
 20
2545.888272625834
 30
0.0
 11
1201.3
 21
2545.60255834012
 31
0.0
  0
ARC
  5
16B
330
2
100
AcDbEntity
  8
Bauseitig_Beton
100
AcDbCircle
 10
1201.8
 20
2543.888272625835
 30
0.0
 40
2.0
100
AcDbArc
 50
270.0
 51
90.0
  0
LINE
  5
16C
330
2
100
AcDbEntity
  8
Bauseitig_Beton
100
AcDbLine
 10
1201.3
 20
2542.173986911549
 30
0.0
 11
1201.8
 21
2541.888272625835
 31
0.0
  0
LINE
  5
16D
330
2
100
AcDbEntity
  8
Bauseitig_Beton
100
AcDbLine
 10
1201.8
 20
2541.888272625835
 30
0.0
 11
1201.3
 21
2541.60255834012
 31
0.0
  0
ARC
  5
16E
330
2
100
AcDbEntity
  8
Bauseitig_Beton
100
AcDbCircle
 10
1201.8
 20
2539.888272625834
 30
0.0
 40
2.0
100
AcDbArc
 50
270.0
 51
90.0
  0
LINE
  5
16F
330
2
100
AcDbEntity
  8
Bauseitig_Beton
100
AcDbLine
 10
1201.3
 20
2538.173986911548
 30
0.0
 11
1201.8
 21
2537.888272625834
 31
0.0
  0
LINE
  5
170
330
2
100
AcDbEntity
  8
Bauseitig_Beton
100
AcDbLine
 10
1201.8
 20
2537.888272625834
 30
0.0
 11
1201.3
 21
2537.60255834012
 31
0.0
  0
ARC
  5
171
330
2
100
AcDbEntity
  8
Bauseitig_Beton
100
AcDbCircle
 10
1201.8
 20
2535.888272625835
 30
0.0
 40
2.0
100
AcDbArc
 50
270.0
 51
90.0
  0
LINE
  5
172
330
2
100
AcDbEntity
  8
Bauseitig_Beton
100
AcDbLine
 10
1201.3
 20
2534.173986911549
 30
0.0
 11
1201.8
 21
2533.888272625834
 31
0.0
  0
LINE
  5
173
330
2
100
AcDbEntity
  8
Bauseitig_Beton
100
AcDbLine
 10
1201.8
 20
2533.888272625834
 30
0.0
 11
1201.3
 21
2533.60255834012
 31
0.0
  0
ARC
  5
174
330
2
100
AcDbEntity
  8
Bauseitig_Beton
100
AcDbCircle
 10
1201.8
 20
2531.888272625835
 30
0.0
 40
2.0
100
AcDbArc
 50
270.0
 51
90.0
  0
LINE
  5
175
330
2
100
AcDbEntity
  8
Bauseitig_Beton
100
AcDbLine
 10
1201.3
 20
2530.173986911549
 30
0.0
 11
1201.8
 21
2529.888272625834
 31
0.0
  0
LINE
  5
176
330
2
100
AcDbEntity
  8
Bauseitig_Beton
100
AcDbLine
 10
1201.8
 20
2529.888272625834
 30
0.0
 11
1201.3
 21
2529.60255834012
 31
0.0
  0
ARC
  5
177
330
2
100
AcDbEntity
  8
Bauseitig_Beton
100
AcDbCircle
 10
1201.8
 20
2527.888272625835
 30
0.0
 40
2.0
100
AcDbArc
 50
270.0
 51
90.0
  0
LINE
  5
178
330
2
100
AcDbEntity
  8
Bauseitig_Beton
100
AcDbLine
 10
1201.3
 20
2526.173986911549
 30
0.0
 11
1201.8
 21
2525.888272625835
 31
0.0
  0
LINE
  5
179
330
2
100
AcDbEntity
  8
Bauseitig_Beton
100
AcDbLine
 10
1201.8
 20
2525.888272625835
 30
0.0
 11
1201.3
 21
2525.60255834012
 31
0.0
  0
ARC
  5
17A
330
2
100
AcDbEntity
  8
Bauseitig_Beton
100
AcDbCircle
 10
1201.8
 20
2523.888272625834
 30
0.0
 40
2.0
100
AcDbArc
 50
270.0
 51
90.0
  0
LINE
  5
17B
330
2
100
AcDbEntity
  8
Bauseitig_Beton
100
AcDbLine
 10
1201.3
 20
2522.173986911548
 30
0.0
 11
1201.8
 21
2521.888272625834
 31
0.0
  0
LINE
  5
17C
330
2
100
AcDbEntity
  8
Bauseitig_Beton
100
AcDbLine
 10
1201.8
 20
2521.888272625834
 30
0.0
 11
1201.3
 21
2521.60255834012
 31
0.0
  0
ARC
  5
17D
330
2
100
AcDbEntity
  8
Bauseitig_Beton
100
AcDbCircle
 10
1201.8
 20
2519.888272625835
 30
0.0
 40
2.0
100
AcDbArc
 50
270.0
 51
90.0
  0
LINE
  5
17E
330
2
100
AcDbEntity
  8
Bauseitig_Beton
100
AcDbLine
 10
1201.3
 20
2518.173986911549
 30
0.0
 11
1201.8
 21
2517.888272625834
 31
0.0
  0
LINE
  5
17F
330
2
100
AcDbEntity
  8
Bauseitig_Beton
100
AcDbLine
 10
1201.8
 20
2517.888272625834
 30
0.0
 11
1201.3
 21
2517.60255834012
 31
0.0
  0
ARC
  5
180
330
2
100
AcDbEntity
  8
Bauseitig_Beton
100
AcDbCircle
 10
1201.8
 20
2515.888272625835
 30
0.0
 40
2.0
100
AcDbArc
 50
270.0
 51
90.0
  0
LINE
  5
181
330
2
100
AcDbEntity
  8
Bauseitig_Beton
100
AcDbLine
 10
1201.3
 20
2514.173986911549
 30
0.0
 11
1201.8
 21
2513.888272625834
 31
0.0
  0
LINE
  5
182
330
2
100
AcDbEntity
  8
Bauseitig_Beton
100
AcDbLine
 10
1201.8
 20
2513.888272625834
 30
0.0
 11
1201.3
 21
2513.60255834012
 31
0.0
  0
ARC
  5
183
330
2
100
AcDbEntity
  8
Bauseitig_Beton
100
AcDbCircle
 10
1201.8
 20
2511.888272625835
 30
0.0
 40
2.0
100
AcDbArc
 50
270.0
 51
90.0
  0
LINE
  5
184
330
2
100
AcDbEntity
  8
Bauseitig_Beton
100
AcDbLine
 10
1201.3
 20
2510.173986911549
 30
0.0
 11
1201.8
 21
2509.888272625835
 31
0.0
  0
LINE
  5
185
330
2
100
AcDbEntity
  8
Bauseitig_Beton
100
AcDbLine
 10
1201.8
 20
2509.888272625835
 30
0.0
 11
1201.3
 21
2509.60255834012
 31
0.0
  0
ARC
  5
186
330
2
100
AcDbEntity
  8
Bauseitig_Beton
100
AcDbCircle
 10
1201.8
 20
2507.888272625834
 30
0.0
 40
2.0
100
AcDbArc
 50
270.0
 51
90.0
  0
LINE
  5
187
330
2
100
AcDbEntity
  8
Bauseitig_Beton
100
AcDbLine
 10
1201.3
 20
2506.173986911548
 30
0.0
 11
1201.8
 21
2505.888272625834
 31
0.0
  0
LINE
  5
188
330
2
100
AcDbEntity
  8
Bauseitig_Beton
100
AcDbLine
 10
1201.8
 20
2505.888272625834
 30
0.0
 11
1201.3
 21
2505.60255834012
 31
0.0
  0
ARC
  5
189
330
2
100
AcDbEntity
  8
Bauseitig_Beton
100
AcDbCircle
 10
1201.8
 20
2503.888272625835
 30
0.0
 40
2.0
100
AcDbArc
 50
270.0
 51
90.0
  0
LINE
  5
18A
330
2
100
AcDbEntity
  8
Bauseitig_Beton
100
AcDbLine
 10
1201.3
 20
2502.173986911549
 30
0.0
 11
1201.8
 21
2501.888272625834
 31
0.0
  0
LINE
  5
18B
330
2
100
AcDbEntity
  8
Bauseitig_Beton
100
AcDbLine
 10
1201.8
 20
2501.888272625834
 30
0.0
 11
1201.3
 21
2501.60255834012
 31
0.0
  0
ARC
  5
18C
330
2
100
AcDbEntity
  8
Bauseitig_Beton
100
AcDbCircle
 10
1201.8
 20
2499.888272625835
 30
0.0
 40
2.0
100
AcDbArc
 50
270.0
 51
90.0
  0
LINE
  5
18D
330
2
100
AcDbEntity
  8
Bauseitig_Beton
100
AcDbLine
 10
1201.3
 20
2498.173986911549
 30
0.0
 11
1201.8
 21
2497.888272625834
 31
0.0
  0
LINE
  5
18E
330
2
100
AcDbEntity
  8
Bauseitig_Beton
100
AcDbLine
 10
1201.8
 20
2497.888272625834
 30
0.0
 11
1201.3
 21
2497.60255834012
 31
0.0
  0
ARC
  5
18F
330
2
100
AcDbEntity
  8
Bauseitig_Beton
100
AcDbCircle
 10
1201.8
 20
2495.888272625835
 30
0.0
 40
2.0
100
AcDbArc
 50
270.0
 51
90.0
  0
LINE
  5
190
330
2
100
AcDbEntity
  8
Bauseitig_Beton
100
AcDbLine
 10
1201.3
 20
2494.173986911549
 30
0.0
 11
1201.8
 21
2493.888272625835
 31
0.0
  0
LINE
  5
191
330
2
100
AcDbEntity
  8
Bauseitig_Beton
100
AcDbLine
 10
1201.8
 20
2493.888272625835
 30
0.0
 11
1201.3
 21
2493.60255834012
 31
0.0
  0
ARC
  5
192
330
2
100
AcDbEntity
  8
Bauseitig_Beton
100
AcDbCircle
 10
1201.8
 20
2491.888272625835
 30
0.0
 40
2.0
100
AcDbArc
 50
270.0
 51
90.0
  0
LINE
  5
193
330
2
100
AcDbEntity
  8
Bauseitig_Beton
100
AcDbLine
 10
1201.3
 20
2490.173986911549
 30
0.0
 11
1201.8
 21
2489.888272625834
 31
0.0
  0
LINE
  5
194
330
2
100
AcDbEntity
  8
Bauseitig_Beton
100
AcDbLine
 10
1201.8
 20
2489.888272625834
 30
0.0
 11
1201.3
 21
2489.60255834012
 31
0.0
  0
ARC
  5
195
330
2
100
AcDbEntity
  8
Bauseitig_Beton
100
AcDbCircle
 10
1201.8
 20
2487.888272625835
 30
0.0
 40
2.0
100
AcDbArc
 50
270.0
 51
90.0
  0
ARC
  5
196
330
2
100
AcDbEntity
  8
Bauseitig_Beton
100
AcDbCircle
 10
1198.3
 20
2485.888272625834
 30
0.0
 40
2.0
100
AcDbArc
 50
90.0
 51
179.8533689496797
  0
LINE
  5
197
330
2
100
AcDbEntity
  8
Bauseitig_Beton
100
AcDbLine
 10
1198.3
 20
2487.888272625835
 30
0.0
 11
1201.8
 21
2485.888272625834
 31
0.0
  0
LINE
  5
198
330
2
100
AcDbEntity
  8
Bauseitig_Beton
  6
STRICHPUNKT
100
AcDbLine
 10
1212.054776301684
 20
2617.88618379947
 30
0.0
 11
1151.441610780896
 21
2617.88618379947
 31
0.0
  0
LINE
  5
19A
330
2
100
AcDbEntity
  8
Bauseitig_Beton
 62
     5
100
AcDbLine
 10
1201.41
 20
2663.173391009469
 30
0.0
 11
1201.41
 21
2587.173391009469
 31
0.0
  0
LINE
  5
19B
330
2
100
AcDbEntity
  8
Bauseitig_Beton
 62
     5
100
AcDbLine
 10
1198.77
 20
2663.173391009469
 30
0.0
 11
1198.77
 21
2587.173391009469
 31
0.0
  0
LINE
  5
19C
330
2
100
AcDbEntity
  8
Bauseitig_Beton
 62
     5
100
AcDbLine
 10
1196.3
 20
2647.905656409006
 30
0.0
 11
1203.8
 21
2640.405656409007
 31
0.0
  0
LINE
  5
19D
330
2
100
AcDbEntity
  8
Bauseitig_Beton
 62
     5
100
AcDbLine
 10
1196.3
 20
2641.541695389006
 30
0.0
 11
1203.8
 21
2634.041695389007
 31
0.0
  0
LINE
  5
19E
330
2
100
AcDbEntity
  8
Bauseitig_Beton
 62
     5
100
AcDbLine
 10
1196.3
 20
2635.177734333006
 30
0.0
 11
1203.8
 21
2627.677734333007
 31
0.0
  0
LINE
  5
19F
330
2
100
AcDbEntity
  8
Bauseitig_Beton
 62
     5
100
AcDbLine
 10
1196.3
 20
2628.813773313006
 30
0.0
 11
1203.8
 21
2621.313773313006
 31
0.0
  0
LINE
  5
1A0
330
2
100
AcDbEntity
  8
Bauseitig_Beton
 62
     5
100
AcDbLine
 10
1196.3
 20
2609.721890224933
 30
0.0
 11
1203.8
 21
2602.221890224933
 31
0.0
  0
LINE
  5
1A1
330
2
100
AcDbEntity
  8
Bauseitig_Beton
 62
     5
100
AcDbLine
 10
1196.3
 20
2603.357929204932
 30
0.0
 11
1203.8
 21
2595.857929204933
 31
0.0
  0
LINE
  5
1A2
330
2
100
AcDbEntity
  8
Bauseitig_Beton
 62
     5
100
AcDbLine
 10
1196.3
 20
2596.993968148933
 30
0.0
 11
1203.8
 21
2589.493968148933
 31
0.0
  0
LINE
  5
1A3
330
2
100
AcDbEntity
  8
Bauseitig_Beton
 62
     5
100
AcDbLine
 10
1196.3
 20
2590.630007128933
 30
0.0
 11
1199.756616119464
 21
2587.173391009469
 31
0.0
  0
LINE
  5
1A4
330
2
100
AcDbEntity
  8
Bauseitig_Beton
 62
     5
100
AcDbLine
 10
1200.124148487611
 20
2663.173391009469
 30
0.0
 11
1203.8
 21
2659.497539497079
 31
0.0
  0
LWPOLYLINE
  5
1A5
330
2
100
AcDbEntity
  8
Bauseitig_Beton
 62
     5
100
AcDbPolyline
 90
        4
 70
     1
 43
0.0
 10
1203.8
 20
2663.173391009469
 10
1196.3
 20
2663.173391009469
 10
1196.3
 20
2587.173391009469
 10
1203.8
 20
2587.173391009469
  0
LWPOLYLINE
  5
1A6
330
2
100
AcDbEntity
  8
Kasten
100
AcDbPolyline
 90
        4
 70
     1
 43
0.0
 10
1196.3
 20
2547.893391009476
 10
1158.3
 20
2547.893391009476
 10
1158.3
 20
2717.893391009476
 10
1196.3
 20
2717.893391009476
  0
LINE
  5
1A7
330
2
100
AcDbEntity
  8
Kasten
100
AcDbLine
 10
239.3
 20
2717.893391009476
 30
0.0
 11
1158.3
 21
2717.893391009476
 31
0.0
  0
LWPOLYLINE
  5
1A8
330
2
100
AcDbEntity
  8
Kasten
100
AcDbPolyline
 90
        4
 70
     1
 43
0.0
 10
157.2999999999999
 20
2469.893391009476
 10
215.3
 20
2469.893391009476
 10
215.3
 20
2477.893391009476
 10
157.2999999999999
 20
2477.893391009476
  0
LWPOLYLINE
  5
1A9
330
2
100
AcDbEntity
  8
Kasten
100
AcDbPolyline
 90
        4
 70
     1
 43
0.0
 10
1180.3
 20
2469.893391009476
 10
1240.3
 20
2469.893391009476
 10
1240.3
 20
2477.893391009476
 10
1180.3
 20
2477.893391009476
  0
LWPOLYLINE
  5
1AA
330
2
100
AcDbEntity
  8
Kasten
100
AcDbPolyline
 90
       14
 70
     0
 43
0.0
 10
215.2999999999998
 20
2492.710617128088
 10
215.3
 20
2510.893391009476
 10
224.2999999999999
 20
2510.893391009476
 10
224.2999999999999
 20
2526.893391009476
 10
231.4000000000021
 20
2526.893391009476
 10
231.4000000000021
 20
2531.893391009476
 10
234.4000000000022
 20
2531.893391009476
 10
234.4000000000022
 20
2526.893391009476
 10
239.3
 20
2526.893391009476
 10
239.3
 20
2547.893391009476
 10
201.2999999999999
 20
2547.893391009476
 10
201.2999999999999
 20
2477.893391009476
 10
215.3
 20
2477.893391009476
 10
215.3
 20
2486.893391009477
  0
LWPOLYLINE
  5
1AB
330
2
100
AcDbEntity
  8
Kasten
100
AcDbPolyline
 90
       13
 70
     0
 43
0.0
 10
1180.3
 20
2477.893391009476
 10
1180.3
 20
2510.893391009476
 10
1173.3
 20
2510.893391009476
 10
1173.3
 20
2526.893391009476
 10
1166.199999999998
 20
2526.893391009476
 10
1166.199999999998
 20
2531.893391009476
 10
1163.199999999998
 20
2531.893391009476
 10
1163.199999999998
 20
2526.893391009476
 10
1158.3
 20
2526.893391009476
 10
1158.3
 20
2547.893391009476
 10
1196.3
 20
2547.893391009476
 10
1196.3
 20
2477.893391009476
 10
1180.3
 20
2477.893391009476
  0
HATCH
  5
1AC
330
2
100
AcDbEntity
  8
Kasten
100
AcDbHatch
 10
0.0
 20
0.0
 30
0.0
210
0.0
220
0.0
230
1.0
  2
SOLID
 70
     1
 71
     1
 91
        1
 92
        5
 93
        1
 72
     3
 10
232.9000000000021
 20
2525.393391009476
 11
6.0
 21
0.0000000000000029
 40
0.25
 50
0.0
 51
360.0
 73
     1
 97
        1
330
1AD
 75
     1
 76
     1
 47
0.0359378219476232
 98
        1
 10
233.2420877253464
 20
2525.910570046971
450
        0
451
        0
460
0.0
461
0.0
452
        0
462
1.0
453
        2
463
0.0
 63
     5
421
      255
463
1.0
 63
     2
421
 16776960
470
LINEAR
1001
GradientColor1ACI
1070
     5
1001
GradientColor2ACI
1070
     2
1001
ACAD
1010
0.0
1020
0.0
1030
0.0
  0
ELLIPSE
  5
1AD
102
{ACAD_REACTORS
330
1AC
102
}
330
2
100
AcDbEntity
  8
Kasten
100
AcDbEllipse
 10
232.9000000000021
 20
2525.393391009476
 30
0.0
 11
6.0
 21
0.0000000000000029
 31
0.0
210
0.0
220
0.0
230
1.0
 40
0.25
 41
0.0
 42
6.283185307179586
  0
HATCH
  5
1AE
330
2
100
AcDbEntity
  8
Kasten
100
AcDbHatch
 10
0.0
 20
0.0
 30
0.0
210
0.0
220
0.0
230
1.0
  2
SOLID
 70
     1
 71
     1
 91
        1
 92
        7
 72
     0
 73
     1
 93
        4
 10
224.2999999999999
 20
2510.893391009476
 10
226.0999999999999
 20
2510.893391009476
 10
226.0999999999999
 20
2526.893391009476
 10
224.2999999999999
 20
2526.893391009476
 97
        1
330
1AF
 75
     1
 76
     1
 47
0.0574849674306893
 98
        1
 10
225.1361693765214
 20
2519.902611790761
450
        0
451
        0
460
0.0
461
0.0
452
        0
462
1.0
453
        2
463
0.0
 63
     5
421
      255
463
1.0
 63
     2
421
 16776960
470
LINEAR
1001
GradientColor1ACI
1070
     5
1001
GradientColor2ACI
1070
     2
1001
ACAD
1010
0.0
1020
0.0
1030
0.0
  0
LWPOLYLINE
  5
1AF
102
{ACAD_REACTORS
330
1AE
102
}
330
2
100
AcDbEntity
  8
Kasten
100
AcDbPolyline
 90
        4
 70
     1
 43
0.0
 10
224.2999999999999
 20
2510.893391009476
 10
226.0999999999999
 20
2510.893391009476
 10
226.0999999999999
 20
2526.893391009476
 10
224.2999999999999
 20
2526.893391009476
  0
HATCH
  5
1B0
330
2
100
AcDbEntity
  8
Kasten
100
AcDbHatch
 10
0.0
 20
0.0
 30
0.0
210
0.0
220
0.0
230
1.0
  2
SOLID
 70
     1
 71
     1
 91
        1
 92
        7
 72
     1
 73
     1
 93
        4
 10
219.0999999999999
 20
2510.893391009476
 42
0.0
 10
217.3
 20
2510.893391009476
 42
0.0
 10
217.3
 20
2494.961927176515
 42
-0.0308334079195739
 10
219.0999999999999
 20
2496.490889863822
 42
0.0
 97
        2
330
1B1
330
1C8
 75
     1
 76
     1
 47
0.0922004065021923
 98
        1
 10
218.2023349540325
 20
2505.966029037602
450
        0
451
        0
460
0.0
461
0.0
452
        0
462
1.0
453
        2
463
0.0
 63
     5
421
      255
463
1.0
 63
     2
421
 16776960
470
LINEAR
1001
GradientColor1ACI
1070
     5
1001
GradientColor2ACI
1070
     2
1001
ACAD
1010
0.0
1020
0.0
1030
0.0
  0
LWPOLYLINE
  5
1B1
102
{ACAD_REACTORS
330
1B0
102
}
330
2
100
AcDbEntity
  8
Kasten
100
AcDbPolyline
 90
        4
 70
     1
 43
0.0
 10
217.3
 20
2494.893391009476
 10
219.0999999999999
 20
2496.490889863823
 10
219.0999999999999
 20
2510.893391009476
 10
217.3
 20
2510.893391009476
  0
LWPOLYLINE
  5
1B2
330
2
100
AcDbEntity
  8
Kasten
100
AcDbPolyline
 90
        4
 70
     0
 43
0.0
 10
215.3
 20
2486.893391009477
 10
215.3
 20
2469.893391009476
 10
217.3
 20
2469.893391009476
 10
217.3
 20
2486.893391009477
  0
LWPOLYLINE
  5
1B3
330
2
100
AcDbEntity
  8
Kasten
100
AcDbPolyline
 90
        4
 70
     0
 43
0.0
 10
217.3
 20
2494.961927176515
 10
217.3
 20
2510.893391009476
 10
215.3
 20
2510.893391009476
 10
215.2999999999998
 20
2492.710617128089
  0
HATCH
  5
1B4
330
2
100
AcDbEntity
  8
Kasten
100
AcDbHatch
 10
0.0
 20
0.0
 30
0.0
210
0.0
220
0.0
230
1.0
  2
SOLID
 70
     1
 71
     1
 91
        1
 92
        5
 93
        1
 72
     3
 10
1164.699999999998
 20
2525.393391009476
 11
6.0
 21
0.0000000000000029
 40
0.25
 50
0.0
 51
360.0
 73
     1
 97
        1
330
1B5
 75
     1
 76
     1
 47
0.0366751639579389
 98
        1
 10
1164.100062965554
 20
2525.272283501393
450
        0
451
        0
460
0.0
461
0.0
452
        0
462
1.0
453
        2
463
0.0
 63
     5
421
      255
463
1.0
 63
     2
421
 16776960
470
LINEAR
1001
GradientColor1ACI
1070
     5
1001
GradientColor2ACI
1070
     2
1001
ACAD
1010
0.0
1020
0.0
1030
0.0
  0
ELLIPSE
  5
1B5
102
{ACAD_REACTORS
330
1B4
102
}
330
2
100
AcDbEntity
  8
Kasten
100
AcDbEllipse
 10
1164.699999999998
 20
2525.393391009476
 30
0.0
 11
6.0
 21
0.0000000000000029
 31
0.0
210
0.0
220
0.0
230
1.0
 40
0.25
 41
0.0
 42
6.283185307179586
  0
HATCH
  5
1B6
330
2
100
AcDbEntity
  8
Kasten
100
AcDbHatch
 10
0.0
 20
0.0
 30
0.0
210
0.0
220
0.0
230
1.0
  2
SOLID
 70
     1
 71
     1
 91
        1
 92
        7
 72
     0
 73
     1
 93
        4
 10
1171.5
 20
2510.893391009476
 10
1173.3
 20
2510.893391009476
 10
1173.3
 20
2526.893391009476
 10
1171.5
 20
2526.893391009476
 97
        1
330
1B7
 75
     1
 76
     1
 47
0.0966336791426784
 98
        1
 10
1172.210789504065
 20
2520.481459372414
450
        0
451
        0
460
0.0
461
0.0
452
        0
462
1.0
453
        2
463
0.0
 63
     5
421
      255
463
1.0
 63
     2
421
 16776960
470
LINEAR
1001
GradientColor1ACI
1070
     5
1001
GradientColor2ACI
1070
     2
1001
ACAD
1010
0.0
1020
0.0
1030
0.0
  0
LWPOLYLINE
  5
1B7
102
{ACAD_REACTORS
330
1B6
102
}
330
2
100
AcDbEntity
  8
Kasten
100
AcDbPolyline
 90
        4
 70
     1
 43
0.0
 10
1171.5
 20
2510.893391009476
 10
1173.3
 20
2510.893391009476
 10
1173.3
 20
2526.893391009476
 10
1171.5
 20
2526.893391009476
  0
HATCH
  5
1B8
330
2
100
AcDbEntity
  8
Kasten
100
AcDbHatch
 10
0.0
 20
0.0
 30
0.0
210
0.0
220
0.0
230
1.0
  2
SOLID
 70
     1
 71
     1
 91
        1
 92
        7
 72
     0
 73
     1
 93
        4
 10
1177.0
 20
2489.893391009475
 10
1178.8
 20
2489.893391009475
 10
1178.8
 20
2505.893391009475
 10
1177.0
 20
2505.893391009475
 97
        1
330
1B9
 75
     1
 76
     1
 47
0.0966336791426784
 98
        1
 10
1177.710789504065
 20
2499.481459372414
450
        0
451
        0
460
0.0
461
0.0
452
        0
462
1.0
453
        2
463
0.0
 63
     5
421
      255
463
1.0
 63
     2
421
 16776960
470
LINEAR
1001
GradientColor1ACI
1070
     5
1001
GradientColor2ACI
1070
     2
1001
ACAD
1010
0.0
1020
0.0
1030
0.0
  0
LWPOLYLINE
  5
1B9
102
{ACAD_REACTORS
330
1B8
102
}
330
2
100
AcDbEntity
  8
Kasten
100
AcDbPolyline
 90
        4
 70
     1
 43
0.0
 10
1177.0
 20
2489.893391009475
 10
1178.8
 20
2489.893391009475
 10
1178.8
 20
2505.893391009475
 10
1177.0
 20
2505.893391009475
  0
LWPOLYLINE
  5
1BA
330
2
100
AcDbEntity
  8
Kasten
100
AcDbPolyline
 90
        8
 70
     0
 43
0.0
 10
1178.8
 20
2505.893391009475
 10
1180.3
 20
2505.893391009475
 10
1180.3
 20
2475.893391009476
 42
-3.732050807568986
 10
1178.55
 20
2478.924479922721
 10
1178.8
 20
2478.765672332744
 10
1177.942857142859
 20
2477.534694622772
 42
4.075101114960545
 10
1178.8
 20
2475.893391009476
 10
1178.8
 20
2505.893391009475
  0
LWPOLYLINE
  5
1BB
330
2
100
AcDbEntity
  8
Kasten
100
AcDbPolyline
 90
        5
 70
     0
 43
0.0
 10
1174.799999999999
 20
2505.893391009475
 10
1173.299999999999
 20
2505.893391009475
 10
1173.299999999999
 20
2475.893391009476
 42
3.732050807568986
 10
1175.049999999999
 20
2478.924479922721
 10
1174.800000000004
 20
2478.765672332736
  0
LWPOLYLINE
  5
1BC
330
2
100
AcDbEntity
  8
Kasten
100
AcDbPolyline
 90
        2
 70
     0
 43
0.0
 10
1174.799999999999
 20
2478.765672332744
 10
1174.799999999999
 20
2505.893391009475
  0
LINE
  5
1BD
330
2
100
AcDbEntity
  8
Kasten
100
AcDbLine
 10
1180.3
 20
2469.893391009476
 30
0.0
 11
217.3
 21
2469.893391009476
 31
0.0
  0
LWPOLYLINE
  5
1BE
330
2
100
AcDbEntity
  8
Kasten
100
AcDbPolyline
 90
        4
 70
     1
 43
0.0
 10
1168.299999999999
 20
2523.893391009476
 10
229.3
 20
2523.893391009476
 10
229.3
 20
2519.893391009476
 10
1168.299999999999
 20
2519.893391009476
  0
LWPOLYLINE
  5
1BF
330
2
100
AcDbEntity
  8
Kasten
100
AcDbPolyline
 90
        6
 70
     1
 43
0.0
 10
280.2999999999999
 20
2503.293391009477
 10
280.2999999999999
 20
2481.893391009476
 10
1150.299999999999
 20
2481.893391009476
 10
1150.299999999999
 20
2519.893391009476
 10
247.2999999999999
 20
2519.893391009476
 10
247.2999999999999
 20
2503.293391009477
  0
LWPOLYLINE
  5
1C0
330
2
100
AcDbEntity
  8
Kasten
100
AcDbPolyline
 90
        6
 70
     0
 43
0.0
 10
262.1911992780576
 20
2477.893391009476
 10
1173.299999999999
 20
2477.893391009476
 10
1173.299999999999
 20
2481.893391009476
 10
222.3000000000001
 20
2481.893391009476
 10
222.3000000000001
 20
2477.893391009476
 10
246.1938741060375
 20
2477.893391009476
  0
LWPOLYLINE
  5
1C1
330
2
100
AcDbEntity
  8
Kasten
100
AcDbPolyline
 90
        9
 70
     0
 43
0.0
 10
247.2999999999999
 20
2519.893391009476
 10
229.3
 20
2519.893391009476
 10
229.3
 20
2508.893391009477
 10
222.2999999999999
 20
2508.893391009476
 10
222.2999999999999
 20
2506.893391009477
 10
224.2999999999999
 20
2506.893391009477
 10
224.2999999999999
 20
2503.293391009477
 10
247.2999999999999
 20
2503.293391009477
 10
247.2999999999999
 20
2519.893391009476
  0
LWPOLYLINE
  5
1C2
330
2
100
AcDbEntity
  8
Kasten
100
AcDbPolyline
 90
        4
 70
     0
 43
0.0
 10
222.2999999999999
 20
2498.429799386103
 10
222.2999999999999
 20
2506.893391009477
 10
224.2999999999999
 20
2506.893391009477
 10
224.2999999999999
 20
2499.253180429617
  0
LWPOLYLINE
  5
1C3
330
2
100
AcDbEntity
  8
Kasten
100
AcDbPolyline
 90
        4
 70
     0
 43
0.0
 10
224.2999999999999
 20
2486.893391009477
 10
224.2999999999999
 20
2481.893391009478
 10
222.2999999999999
 20
2481.893391009478
 10
222.2999999999999
 20
2486.893391009477
  0
LINE
  5
1C4
330
2
100
AcDbEntity
  8
Kasten
100
AcDbLine
 10
259.1700696539017
 20
2481.893391009479
 30
0.0
 11
272.8838094378523
 21
2463.73628887879
 31
0.0
  0
LINE
  5
1C5
330
2
100
AcDbEntity
  8
Kasten
100
AcDbLine
 10
243.2999999999999
 20
2481.893391009479
 30
0.0
 11
274.4022264922758
 21
2438.902956246039
 31
0.0
  0
ARC
  5
1C6
330
2
100
AcDbEntity
  8
Kasten
100
AcDbCircle
 10
287.0990831787537
 20
2447.793391009479
 30
0.0
 40
15.5
100
AcDbArc
 50
215.0000000000139
 51
115.6310844215347
  0
ARC
  5
1C7
330
2
100
AcDbEntity
  8
Kasten
100
AcDbCircle
 10
277.798721703585
 20
2467.177747496896
 30
0.0
 40
6.0
100
AcDbArc
 50
215.0000000000139
 51
295.6310844215346
  0
ARC
  5
1C8
102
{ACAD_REACTORS
330
1B0
102
}
330
2
100
AcDbEntity
  8
Kasten
100
AcDbCircle
 10
230.5851789909691
 20
2481.14572426357
 30
0.0
 40
19.16724924849058
100
AcDbArc
 50
109.1421164656779
 51
162.5502558397748
  0
LINE
  5
1C9
330
2
100
AcDbEntity
  8
Kasten
100
AcDbLine
 10
212.3
 20
2486.893391009477
 30
0.0
 11
224.2999999999999
 21
2486.893391009477
 31
0.0
  0
LWPOLYLINE
  5
1CA
330
2
100
AcDbEntity
  8
Kasten
100
AcDbPolyline
 90
        4
 70
     1
 43
0.0
 10
224.2999999999999
 20
2503.293391009477
 10
280.2999999999999
 20
2503.293391009477
 10
280.2999999999999
 20
2481.893391009478
 10
224.2999999999999
 20
2481.893391009478
  0
LWPOLYLINE
  5
1CB
330
2
100
AcDbEntity
  8
Kasten
100
AcDbPolyline
 90
        7
 70
     0
 43
0.0
 10
1150.299999999999
 20
2519.893391009476
 10
1168.299999999999
 20
2519.893391009476
 10
1168.299999999999
 20
2508.893391009477
 10
1173.299999999999
 20
2508.893391009476
 10
1173.299999999999
 20
2481.893391009476
 10
1150.299999999999
 20
2481.893391009476
 10
1150.299999999999
 20
2519.893391009476
  0
LWPOLYLINE
  5
1CC
330
2
100
AcDbEntity
  8
Kasten
100
AcDbPolyline
 90
        4
 70
     1
 43
0.0
 10
1196.3
 20
2487.893391009476
 10
1201.3
 20
2487.893391009476
 10
1201.3
 20
2632.893391009476
 10
1196.3
 20
2632.893391009476
  0
LWPOLYLINE
  5
1CD
330
2
100
AcDbEntity
  8
Zeichnung
100
AcDbPolyline
 90
        4
 70
     1
 43
0.0
 10
247.2999999999998
 20
2523.893391009476
 10
317.2999999999998
 20
2523.893391009476
 10
317.2999999999998
 20
2538.893391009476
 10
247.2999999999998
 20
2538.893391009476
  0
LINE
  5
1CF
330
2
100
AcDbEntity
  8
Zeichnung
100
AcDbLine
 10
239.2999999999998
 20
2526.893391009476
 30
0.0
 11
247.2999999999998
 21
2526.893391009476
 31
0.0
  0
LINE
  5
1D0
330
2
100
AcDbEntity
  8
Zeichnung
100
AcDbLine
 10
1154.299999999999
 20
2526.893391009476
 30
0.0
 11
1158.299999999999
 21
2526.893391009476
 31
0.0
  0
LWPOLYLINE
  5
1D1
330
2
100
AcDbEntity
  8
Zeichnung
100
AcDbPolyline
 90
        4
 70
     1
 43
0.0
 10
1134.299999999998
 20
2523.893391009476
 10
1154.299999999999
 20
2523.893391009476
 10
1154.299999999999
 20
2563.893391009476
 10
1134.299999999998
 20
2563.893391009476
  0
LWPOLYLINE
  5
1D2
330
2
100
AcDbEntity
  8
Zeichnung
100
AcDbPolyline
 90
        4
 70
     1
 43
0.0
 10
247.2999999999998
 20
2538.893391009476
 10
267.2999999999998
 20
2538.893391009476
 10
267.2999999999998
 20
2563.893391009476
 10
247.2999999999998
 20
2563.893391009476
  0
LWPOLYLINE
  5
1D3
330
2
100
AcDbEntity
  8
Zeichnung
100
AcDbPolyline
 90
        4
 70
     1
 43
0.0
 10
247.2999999999998
 20
2563.893391009476
 10
1154.299999999999
 20
2563.893391009476
 10
1154.299999999999
 20
2571.893391009476
 10
247.2999999999998
 20
2571.893391009476
  0
HATCH
  5
1D4
330
2
100
AcDbEntity
  8
Kasten
 62
     9
100
AcDbHatch
 10
0.0
 20
0.0
 30
0.0
210
0.0
220
0.0
230
1.0
  2
AR-SAND
 70
     0
 71
     1
 91
        1
 92
        7
 72
     0
 73
     1
 93
        6
 10
267.2999999999998
 20
2563.893391009476
 10
267.2999999999998
 20
2538.893391009476
 10
317.2999999999999
 20
2538.893391009476
 10
317.2999999999999
 20
2523.893391009476
 10
1134.299999999998
 20
2523.893391009476
 10
1134.299999999998
 20
2563.893391009476
 97
        1
330
1D5
 75
     1
 76
     1
 52
0.0
 41
3.0
 77
     0
 78
     4
 53
37.5
 43
38.87991228538215
 44
683.196346216836
 45
-0.1889800743288245
 46
5.780471307039475
 79
     6
 49
0.0
 49
-4.56
 49
0.0
 49
-5.099999999999999
 49
0.0
 49
-4.875
 53
7.499999999999999
 43
38.87991228538215
 44
683.196346216836
 45
5.309330115803181
 46
8.466438195689221
 79
     6
 49
0.0
 49
-2.459999999999999
 49
0.0
 49
-4.11
 49
0.0
 49
-1.575
 53
327.5
 43
35.18991228538215
 44
683.196346216836
 45
9.342425585254485
 46
0.0169771606108948
 79
     6
 49
0.0
 49
-1.5
 49
0.0
 49
-5.4
 49
0.0
 49
-7.05
 53
317.5
 43
35.18991228538215
 44
683.196346216836
 45
9.01837981371688
 46
2.633026694802747
 79
     6
 49
0.0
 49
-0.75
 49
0.0
 49
-3.54
 49
0.0
 49
-4.05
 47
0.6524924211441164
 98
        1
 10
672.534888412975
 20
2548.979550944808
1001
GradientColor1ACI
1070
     5
1001
GradientColor2ACI
1070
     2
1001
ACAD
1010
0.0
1020
0.0
1030
0.0
  0
LWPOLYLINE
  5
1D5
102
{ACAD_REACTORS
330
1D4
102
}
330
2
100
AcDbEntity
  8
Kasten
100
AcDbPolyline
 90
        6
 70
     1
 43
0.0
 10
267.2999999999998
 20
2563.893391009476
 10
1134.299999999998
 20
2563.893391009476
 10
1134.299999999998
 20
2523.893391009476
 10
317.2999999999998
 20
2523.893391009476
 10
317.2999999999998
 20
2538.893391009476
 10
267.2999999999998
 20
2538.893391009476
  0
TEXT
  5
1D6
102
{ACAD_XDICTIONARY
360
1D7
102
}
330
2
100
AcDbEntity
  8
Plankopf
 62
     0
100
AcDbText
 10
1070.189378942763
 20
2104.510638620435
 30
0.0
 40
8.001503999999998
  1
Schnitt Längs
  7
TECHNICBOLD
100
AcDbText
1001
AcadAnnotative
1000
AnnotativeData
1002
{
1070
     1
1070
     0
1002
}
  0
TEXT
  5
1DA
102
{ACAD_XDICTIONARY
360
1DB
102
}
330
2
100
AcDbEntity
  8
Plankopf
 62
     0
100
AcDbText
 10
1040.992366197802
 20
2090.452385438283
 30
0.0
 40
7.7
  1
Deckenanschluss 8, 40mm Isolierung U=0.5
  7
TECHNICBOLD
100
AcDbText
1001
AcadAnnotative
1000
AnnotativeData
1002
{
1070
     1
1070
     0
1002
}
  0
TEXT
  5
1DE
102
{ACAD_XDICTIONARY
360
1DF
102
}
330
2
100
AcDbEntity
  8
Plankopf
 62
     0
100
AcDbText
 10
1153.264022064318
 20
2104.510638620435
 30
0.0
 40
8.001503999999998
  1
EI30
  7
TECHNICBOLD
100
AcDbText
1001
AcadAnnotative
1000
AnnotativeData
1002
{
1070
     1
1070
     0
1002
}
  0
TEXT
  5
1E2
102
{ACAD_XDICTIONARY
360
1E3
102
}
330
2
100
AcDbEntity
  8
Plankopf
 62
     0
100
AcDbText
 10
1178.378706083116
 20
2104.510638620435
 30
0.0
 40
6.0
  1
feuerhemmend
  7
TECHNICBOLD
100
AcDbText
1001
AcadAnnotative
1000
AnnotativeData
1002
{
1070
     1
1070
     0
1002
}
  0
LWPOLYLINE
  5
1E6
330
2
100
AcDbEntity
  8
2-t. Schiebtreppe
100
AcDbPolyline
 90
        4
 70
     1
 43
0.0
 10
5.000000000000454
 20
2389.753718797486
 10
239.2687613526288
 20
2389.753718797486
 10
239.2687613526288
 20
2087.0
 10
5.000000000000454
 20
2087.0
  0
LINE
  5
1E7
330
2
100
AcDbEntity
  8
2-t. Schiebtreppe
  6
STRICHPUNKT2
 62
     1
100
AcDbLine
 10
57.88437185838553
 20
2120.555153719733
 30
0.0
 11
56.98961094997533
 21
2120.980508086013
 31
0.0
  0
CIRCLE
  5
1E9
330
2
100
AcDbEntity
  8
2-t. Schiebtreppe
100
AcDbCircle
 10
57.43699140418008
 20
2120.767830902873
 30
0.0
 40
0.2925
  0
LINE
  5
1EA
330
2
100
AcDbEntity
  8
2-t. Schiebtreppe
  6
STRICHPUNKT2
 62
     1
100
AcDbLine
 10
59.66321407826197
 20
2122.200820866147
 30
0.0
 11
58.76845316985132
 21
2122.626175232427
 31
0.0
  0
LINE
  5
1EB
330
2
100
AcDbEntity
  8
2-t. Schiebtreppe
  6
STRICHPUNKT2
 62
     1
100
AcDbLine
 10
59.42851080719639
 20
2122.860878503492
 30
0.0
 11
59.00315644091688
 21
2121.966117595082
 31
0.0
  0
CIRCLE
  5
1EC
330
2
100
AcDbEntity
  8
2-t. Schiebtreppe
100
AcDbCircle
 10
59.21583362405676
 20
2122.413498049287
 30
0.0
 40
0.2925
  0
LINE
  5
1ED
330
2
100
AcDbEntity
  8
2-t. Schiebtreppe
  6
STRICHPUNKT2
 62
     1
100
AcDbLine
 10
57.64966858732018
 20
2121.215211357078
 30
0.0
 11
57.22431422104043
 21
2120.320450448668
 31
0.0
  0
LINE
  5
1EE
330
2
100
AcDbEntity
  8
2-t. Schiebtreppe
  6
STRICHPUNKT2
 62
     1
100
AcDbLine
 10
157.6801968735809
 20
2304.778701098287
 30
0.0
 11
156.5631947694713
 21
2305.30970521085
 31
0.0
  0
CIRCLE
  5
1EF
330
2
100
AcDbEntity
  8
2-t. Schiebtreppe
100
AcDbCircle
 10
157.1216958215262
 20
2305.044203154569
 30
0.0
 40
0.34875
  0
CIRCLE
  5
1F0
330
2
100
AcDbEntity
  8
2-t. Schiebtreppe
100
AcDbCircle
 10
154.0735871563998
 20
2306.493223018332
 30
0.0
 40
0.34875
  0
LINE
  5
1F1
330
2
100
AcDbEntity
  8
2-t. Schiebtreppe
  6
STRICHPUNKT2
 62
     1
100
AcDbLine
 10
157.3871978778077
 20
2305.602704206624
 30
0.0
 11
156.8561937652443
 21
2304.485702102514
 31
0.0
  0
LINE
  5
1F2
330
2
100
AcDbEntity
  8
2-t. Schiebtreppe
  6
STRICHPUNKT2
 62
     1
100
AcDbLine
 10
154.3390892126812
 20
2307.051724070388
 30
0.0
 11
153.8080851001181
 21
2305.934721966277
 31
0.0
  0
LINE
  5
1F3
330
2
100
AcDbEntity
  8
2-t. Schiebtreppe
  6
STRICHPUNKT2
 62
     1
100
AcDbLine
 10
154.6320882084545
 20
2306.227720962051
 30
0.0
 11
153.5150861043448
 21
2306.758725074614
 31
0.0
  0
LINE
  5
1F4
330
2
100
AcDbEntity
  8
2-t. Schiebtreppe
  6
STRICHPUNKT2
 62
     1
100
AcDbLine
 10
170.1644740753217
 20
2343.562701223508
 30
0.0
 11
171.2401249331721
 21
2343.0513548016
 31
0.0
  0
CIRCLE
  5
1F5
330
2
100
AcDbEntity
  8
2-t. Schiebtreppe
100
AcDbCircle
 10
170.7022995042451
 20
2343.307028012555
 30
0.0
 40
0.34875
  0
LINE
  5
1F6
330
2
100
AcDbEntity
  8
2-t. Schiebtreppe
  6
STRICHPUNKT2
 62
     1
100
AcDbLine
 10
173.7206008513021
 20
2341.872178049117
 30
0.0
 11
174.7962517091525
 21
2341.360831627209
 31
0.0
  0
CIRCLE
  5
1F7
330
2
100
AcDbEntity
  8
2-t. Schiebtreppe
100
AcDbCircle
 10
174.258426280226
 20
2341.616504838164
 30
0.0
 40
0.34875
  0
LINE
  5
1F8
330
2
100
AcDbEntity
  8
2-t. Schiebtreppe
  6
STRICHPUNKT2
 62
     1
100
AcDbLine
 10
174.5140994911806
 20
2342.15433026709
 30
0.0
 11
174.0027530692709
 21
2341.078679409237
 31
0.0
  0
LINE
  5
1F9
330
2
100
AcDbEntity
  8
2-t. Schiebtreppe
  6
STRICHPUNKT2
 62
     1
100
AcDbLine
 10
170.9579727152002
 20
2343.844853441481
 30
0.0
 11
170.4466262932905
 21
2342.769202583628
 31
0.0
  0
CIRCLE
  5
1FA
330
2
100
AcDbEntity
  8
2-t. Schiebtreppe
100
AcDbCircle
 10
173.8418425424001
 20
2349.911263453662
 30
0.0
 40
0.34875
  0
LINE
  5
1FB
330
2
100
AcDbEntity
  8
2-t. Schiebtreppe
  6
STRICHPUNKT2
 62
     1
100
AcDbLine
 10
173.3040171134769
 20
2350.166936664615
 30
0.0
 11
174.3796679713271
 21
2349.655590242707
 31
0.0
  0
LINE
  5
1FC
330
2
100
AcDbEntity
  8
2-t. Schiebtreppe
  6
STRICHPUNKT2
 62
     1
100
AcDbLine
 10
174.0975157533552
 20
2350.449088882589
 30
0.0
 11
173.5861693314458
 21
2349.373438024735
 31
0.0
  0
LINE
  5
1FD
330
2
100
AcDbEntity
  8
2-t. Schiebtreppe
  6
STRICHPUNKT2
 62
     1
100
AcDbLine
 10
181.6373252878108
 20
2355.174097695041
 30
0.0
 11
180.520323183701
 21
2355.705101807604
 31
0.0
  0
CIRCLE
  5
1FE
330
2
100
AcDbEntity
  8
2-t. Schiebtreppe
100
AcDbCircle
 10
184.431702617309
 20
2356.465897033447
 30
0.0
 40
0.34875
  0
LINE
  5
1FF
330
2
100
AcDbEntity
  8
2-t. Schiebtreppe
  6
STRICHPUNKT2
 62
     1
100
AcDbLine
 10
184.6873758282638
 20
2357.003722462374
 30
0.0
 11
184.176029406354
 21
2355.928071604521
 31
0.0
  0
LINE
  5
200
330
2
100
AcDbEntity
  8
2-t. Schiebtreppe
  6
STRICHPUNKT2
 62
     1
100
AcDbLine
 10
183.8938771883849
 20
2356.721570244401
 30
0.0
 11
184.9695280462355
 21
2356.210223822492
 31
0.0
  0
LINE
  5
201
330
2
100
AcDbEntity
  8
2-t. Schiebtreppe
  6
STRICHPUNKT2
 62
     1
100
AcDbLine
 10
178.2962176269112
 20
2357.447120667141
 30
0.0
 11
177.7652135143483
 21
2356.330118563031
 31
0.0
  0
LINE
  5
202
330
2
100
AcDbEntity
  8
2-t. Schiebtreppe
  6
STRICHPUNKT2
 62
     1
100
AcDbLine
 10
181.3443262920376
 20
2355.998100803377
 30
0.0
 11
180.8133221794745
 21
2354.881098699267
 31
0.0
  0
CIRCLE
  5
203
330
2
100
AcDbEntity
  8
2-t. Schiebtreppe
100
AcDbCircle
 10
178.0307155706299
 20
2356.888619615086
 30
0.0
 40
0.34875
  0
CIRCLE
  5
204
330
2
100
AcDbEntity
  8
2-t. Schiebtreppe
100
AcDbCircle
 10
181.0788242357559
 20
2355.439599751322
 30
0.0
 40
0.34875
  0
LINE
  5
205
330
2
100
AcDbEntity
  8
2-t. Schiebtreppe
  6
STRICHPUNKT2
 62
     1
100
AcDbLine
 10
178.5892166226849
 20
2356.623117558805
 30
0.0
 11
177.4722145185748
 21
2357.154121671368
 31
0.0
  0
LINE
  5
206
330
2
100
AcDbEntity
  8
2-t. Schiebtreppe
  6
STRICHPUNKT2
 62
     1
100
AcDbLine
 10
158.8691310155878
 20
2313.960659498517
 30
0.0
 11
158.3381269030244
 21
2312.843657394407
 31
0.0
  0
CIRCLE
  5
207
330
2
100
AcDbEntity
  8
2-t. Schiebtreppe
100
AcDbCircle
 10
158.6036289593061
 20
2313.402158446463
 30
0.0
 40
0.34875
  0
LINE
  5
208
330
2
100
AcDbEntity
  8
2-t. Schiebtreppe
  6
STRICHPUNKT2
 62
     1
100
AcDbLine
 10
159.162130011361
 20
2313.136656390181
 30
0.0
 11
158.0451279072511
 21
2313.667660502744
 31
0.0
  0
CIRCLE
  5
209
330
2
100
AcDbEntity
  8
2-t. Schiebtreppe
100
AcDbCircle
 10
160.5356554443244
 20
2317.466303333297
 30
0.0
 40
0.34875
  0
LINE
  5
20A
330
2
100
AcDbEntity
  8
2-t. Schiebtreppe
  6
STRICHPUNKT2
 62
     1
100
AcDbLine
 10
160.801157500606
 20
2318.024804385352
 30
0.0
 11
160.2701533880429
 21
2316.907802281242
 31
0.0
  0
LINE
  5
20B
330
2
100
AcDbEntity
  8
2-t. Schiebtreppe
  6
STRICHPUNKT2
 62
     1
100
AcDbLine
 10
161.0941564963793
 20
2317.200801277015
 30
0.0
 11
159.9771543922696
 21
2317.731805389579
 31
0.0
  0
LINE
  5
20C
330
2
100
AcDbEntity
  8
2-t. Schiebtreppe
  6
STRICHPUNKT2
 62
     1
100
AcDbLine
 10
164.4073072557861
 20
2313.819202146289
 30
0.0
 11
163.8763031432232
 21
2312.702200042179
 31
0.0
  0
LINE
  5
20D
330
2
100
AcDbEntity
  8
2-t. Schiebtreppe
  6
STRICHPUNKT2
 62
     1
100
AcDbLine
 10
164.9035134959017
 20
2312.898597713702
 30
0.0
 11
163.3800969031078
 21
2313.622804474766
 31
0.0
  0
CIRCLE
  5
20E
330
2
100
AcDbEntity
  8
2-t. Schiebtreppe
100
AcDbCircle
 10
164.1418051995046
 20
2313.260701094234
 30
0.0
 40
0.34875
  0
LINE
  5
20F
330
2
100
AcDbEntity
  8
2-t. Schiebtreppe
  6
STRICHPUNKT2
 62
     1
100
AcDbLine
 10
149.0113387917251
 20
2281.432769042869
 30
0.0
 11
148.4803346791616
 21
2280.31576693876
 31
0.0
  0
LINE
  5
210
330
2
100
AcDbEntity
  8
2-t. Schiebtreppe
  6
STRICHPUNKT2
 62
     1
100
AcDbLine
 10
143.4731625515259
 20
2281.574226395097
 30
0.0
 11
142.9421584389633
 21
2280.457224290988
 31
0.0
  0
CIRCLE
  5
211
330
2
100
AcDbEntity
  8
2-t. Schiebtreppe
100
AcDbCircle
 10
143.2076604952445
 20
2281.015725343043
 30
0.0
 40
0.34875
  0
LINE
  5
212
330
2
100
AcDbEntity
  8
2-t. Schiebtreppe
  6
STRICHPUNKT2
 62
     1
100
AcDbLine
 10
143.7661615472996
 20
2280.750223286761
 30
0.0
 11
142.6491594431895
 21
2281.281227399324
 31
0.0
  0
CIRCLE
  5
213
330
2
100
AcDbEntity
  8
2-t. Schiebtreppe
100
AcDbCircle
 10
148.7458367354433
 20
2280.874267990815
 30
0.0
 40
0.34875
  0
LINE
  5
214
330
2
100
AcDbEntity
  8
2-t. Schiebtreppe
  6
STRICHPUNKT2
 62
     1
100
AcDbLine
 10
149.5075450318399
 20
2280.512164610282
 30
0.0
 11
147.9841284390464
 21
2281.236371371347
 31
0.0
  0
LINE
  5
215
330
2
100
AcDbEntity
  8
2-t. Schiebtreppe
  6
STRICHPUNKT2
 62
     1
100
AcDbLine
 10
145.4051890365444
 20
2285.638371281933
 30
0.0
 11
144.8741849239818
 21
2284.521369177823
 31
0.0
  0
CIRCLE
  5
216
330
2
100
AcDbEntity
  8
2-t. Schiebtreppe
100
AcDbCircle
 10
145.1396869802632
 20
2285.079870229878
 30
0.0
 40
0.34875
  0
LINE
  5
217
330
2
100
AcDbEntity
  8
2-t. Schiebtreppe
  6
STRICHPUNKT2
 62
     1
100
AcDbLine
 10
145.6981880323182
 20
2284.814368173596
 30
0.0
 11
144.5811859282081
 21
2285.345372286159
 31
0.0
  0
LINE
  5
218
330
2
100
AcDbEntity
  8
2-t. Schiebtreppe
100
AcDbLine
 10
152.705534248824
 20
2320.254374833238
 30
0.0
 11
158.7509497679912
 21
2317.380485436772
 31
0.0
  0
LINE
  5
219
330
2
100
AcDbEntity
  8
2-t. Schiebtreppe
100
AcDbLine
 10
151.4980176956878
 20
2317.714284278965
 30
0.0
 11
157.5434332148545
 21
2314.8403948825
 31
0.0
  0
LINE
  5
21A
330
2
100
AcDbEntity
  8
2-t. Schiebtreppe
100
AcDbLine
 10
151.2848058555059
 20
2318.313901416151
 30
0.0
 11
152.1059171116391
 21
2320.041162993056
 31
0.0
  0
ARC
  5
21B
330
2
100
AcDbEntity
  8
2-t. Schiebtreppe
100
AcDbCircle
 10
164.1418051995046
 20
2313.260701094234
 30
0.0
 40
1.40625
100
AcDbArc
 50
244.5743673766839
 51
64.57436737668402
  0
LINE
  5
21C
330
2
100
AcDbEntity
  8
2-t. Schiebtreppe
100
AcDbLine
 10
157.3335836821699
 20
2314.005916723031
 30
0.0
 11
157.6233876549228
 21
2314.615538456056
 31
0.0
  0
LINE
  5
21D
330
2
100
AcDbEntity
  8
2-t. Schiebtreppe
100
AcDbLine
 10
159.8736742364421
 20
2312.798400169894
 30
0.0
 11
160.1634782091949
 21
2313.408021902919
 31
0.0
  0
LINE
  5
21E
330
2
100
AcDbEntity
  8
2-t. Schiebtreppe
100
AcDbLine
 10
161.5958511887759
 20
2316.028066897259
 30
0.0
 11
164.7455634760728
 21
2314.53074637137
 31
0.0
  0
LINE
  5
21F
330
2
100
AcDbEntity
  8
2-t. Schiebtreppe
100
AcDbLine
 10
160.3883346356392
 20
2313.487976342987
 30
0.0
 11
163.5380469229365
 21
2311.990655817098
 31
0.0
  0
LINE
  5
220
330
2
100
AcDbEntity
  8
2-t. Schiebtreppe
100
AcDbLine
 10
158.9758061944358
 20
2317.46043987684
 30
0.0
 11
159.2656101671886
 21
2318.070061609866
 31
0.0
  0
LINE
  5
221
330
2
100
AcDbEntity
  8
2-t. Schiebtreppe
100
AcDbLine
 10
161.5158967487076
 20
2316.252923323704
 30
0.0
 11
161.8057007214606
 21
2316.862545056729
 31
0.0
  0
ARC
  5
222
330
2
100
AcDbEntity
  8
2-t. Schiebtreppe
100
AcDbCircle
 10
160.5356554443244
 20
2317.466303333297
 30
0.0
 40
1.406249999999993
100
AcDbArc
 50
334.5743673767306
 51
154.5743673767306
  0
ARC
  5
223
330
2
100
AcDbEntity
  8
2-t. Schiebtreppe
100
AcDbCircle
 10
158.6036289593061
 20
2313.402158446463
 30
0.0
 40
1.406249999999993
100
AcDbArc
 50
154.5743673767306
 51
334.5743673767306
  0
ARC
  5
224
330
2
100
AcDbEntity
  8
2-t. Schiebtreppe
100
AcDbCircle
 10
151.6912203441897
 20
2318.120698767649
 30
0.0
 40
0.45
100
AcDbArc
 50
154.5743673767306
 51
244.5743673766839
  0
ARC
  5
225
330
2
100
AcDbEntity
  8
2-t. Schiebtreppe
100
AcDbCircle
 10
152.5123316003223
 20
2319.847960344554
 30
0.0
 40
0.45
100
AcDbArc
 50
64.57436737668402
 51
154.5743673767306
  0
LINE
  5
226
330
2
100
AcDbEntity
  8
2-t. Schiebtreppe
100
AcDbLine
 10
152.2692647626917
 20
2319.963510252593
 30
0.0
 11
151.4481535065587
 21
2318.236248675688
 31
0.0
  0
LINE
  5
227
330
2
100
AcDbEntity
  8
2-t. Schiebtreppe
100
AcDbLine
 10
151.5756704361505
 20
2317.877631930018
 30
0.0
 11
157.7844336063698
 21
2314.926089793091
 31
0.0
  0
LINE
  5
228
330
2
100
AcDbEntity
  8
2-t. Schiebtreppe
100
AcDbLine
 10
164.6679107356105
 20
2314.367398720317
 30
0.0
 11
161.3548507972607
 21
2315.94237198667
 31
0.0
  0
ARC
  5
229
330
2
100
AcDbEntity
  8
2-t. Schiebtreppe
100
AcDbCircle
 10
151.6912203441897
 20
2318.120698767649
 30
0.0
 40
0.2691342951089938
100
AcDbArc
 50
154.5743673767306
 51
244.5743673766839
  0
ARC
  5
22A
330
2
100
AcDbEntity
  8
2-t. Schiebtreppe
100
AcDbCircle
 10
152.5123316003223
 20
2319.847960344554
 30
0.0
 40
0.2691342951089938
100
AcDbArc
 50
64.57436737668402
 51
154.5743673767306
  0
LINE
  5
22B
330
2
100
AcDbEntity
  8
2-t. Schiebtreppe
100
AcDbLine
 10
159.4289578182412
 20
2317.992408869403
 30
0.0
 11
159.0615011050259
 21
2317.219439485326
 31
0.0
  0
LINE
  5
22C
330
2
100
AcDbEntity
  8
2-t. Schiebtreppe
100
AcDbLine
 10
157.8643880464376
 20
2314.701233366646
 30
0.0
 11
157.4969313332226
 21
2313.928263982568
 31
0.0
  0
ARC
  5
22D
330
2
100
AcDbEntity
  8
2-t. Schiebtreppe
100
AcDbCircle
 10
158.6036289593061
 20
2313.402158446463
 30
0.0
 40
1.225384295108992
100
AcDbArc
 50
154.5743673767306
 51
334.5743673767306
  0
ARC
  5
22E
330
2
100
AcDbEntity
  8
2-t. Schiebtreppe
100
AcDbCircle
 10
160.5356554443244
 20
2317.466303333297
 30
0.0
 40
1.225384295108985
100
AcDbArc
 50
334.5743673767306
 51
154.5743673767306
  0
LINE
  5
22F
330
2
100
AcDbEntity
  8
2-t. Schiebtreppe
100
AcDbLine
 10
160.0777832986046
 20
2313.649022294435
 30
0.0
 11
159.7103265853893
 21
2312.876052910357
 31
0.0
  0
LINE
  5
230
330
2
100
AcDbEntity
  8
2-t. Schiebtreppe
100
AcDbLine
 10
161.6423530704078
 20
2316.940197797192
 30
0.0
 11
161.2748963571928
 21
2316.167228413114
 31
0.0
  0
LINE
  5
231
330
2
100
AcDbEntity
  8
2-t. Schiebtreppe
100
AcDbLine
 10
160.3026397250492
 20
2313.728976734502
 30
0.0
 11
163.6156996633985
 21
2312.154003468151
 31
0.0
  0
LINE
  5
232
330
2
100
AcDbEntity
  8
2-t. Schiebtreppe
100
AcDbLine
 10
158.8366446785815
 20
2317.139485045257
 30
0.0
 11
152.6278815083618
 21
2320.091027182185
 31
0.0
  0
ARC
  5
233
330
2
100
AcDbEntity
  8
2-t. Schiebtreppe
100
AcDbCircle
 10
164.1418051995046
 20
2313.260701094234
 30
0.0
 40
1.225384295108993
100
AcDbArc
 50
244.5743673766839
 51
64.57436737668402
  0
CIRCLE
  5
234
330
2
100
AcDbEntity
  8
2-t. Schiebtreppe
100
AcDbCircle
 10
158.6036289593061
 20
2313.402158446463
 30
0.0
 40
0.365625
  0
CIRCLE
  5
235
330
2
100
AcDbEntity
  8
2-t. Schiebtreppe
100
AcDbCircle
 10
160.5356554443244
 20
2317.466303333297
 30
0.0
 40
0.365625
  0
CIRCLE
  5
236
330
2
100
AcDbEntity
  8
2-t. Schiebtreppe
100
AcDbCircle
 10
164.1418051995046
 20
2313.260701094234
 30
0.0
 40
0.365625
  0
LINE
  5
237
330
2
100
AcDbEntity
  8
2-t. Schiebtreppe
100
AcDbLine
 10
152.3008420772148
 20
2317.830894794896
 30
0.0
 11
153.121953333348
 21
2319.558156371801
 31
0.0
  0
ARC
  5
238
330
2
100
AcDbEntity
  8
2-t. Schiebtreppe
100
AcDbCircle
 10
151.8944275885314
 20
2318.024097443398
 30
0.0
 40
0.45
100
AcDbArc
 50
244.5743673766839
 51
334.5743673767306
  0
ARC
  5
239
330
2
100
AcDbEntity
  8
2-t. Schiebtreppe
100
AcDbCircle
 10
152.7155388446642
 20
2319.751359020303
 30
0.0
 40
0.45
100
AcDbArc
 50
334.5743673767306
 51
64.57436737668402
  0
POINT
  5
23A
330
2
100
AcDbEntity
  8
2-t. Schiebtreppe
  6
ByBlock
 62
     0
100
AcDbPoint
 10
164.47201697156
 20
2313.103723942326
 30
0.0
 50
64.57436737669398
  0
ARC
  5
23B
330
2
100
AcDbEntity
  8
2-t. Schiebtreppe
100
AcDbCircle
 10
160.3158836424513
 20
2313.335570909731
 30
0.0
 40
0.16875
100
AcDbArc
 50
64.57436737668402
 51
154.5743673767306
  0
ARC
  5
23C
330
2
100
AcDbEntity
  8
2-t. Schiebtreppe
100
AcDbCircle
 10
160.2301887318611
 20
2313.576571301246
 30
0.0
 40
0.16875
100
AcDbArc
 50
64.57436737668402
 51
154.5743673767306
  0
ARC
  5
23D
330
2
100
AcDbEntity
  8
2-t. Schiebtreppe
100
AcDbCircle
 10
161.4273017904488
 20
2316.094777419925
 30
0.0
 40
0.16875
100
AcDbArc
 50
154.5743673767306
 51
244.5743673766839
  0
ARC
  5
23E
330
2
100
AcDbEntity
  8
2-t. Schiebtreppe
100
AcDbCircle
 10
161.6683021819641
 20
2316.180472330515
 30
0.0
 40
0.16875
100
AcDbArc
 50
154.5743673767306
 51
244.5743673766839
  0
ARC
  5
23F
330
2
100
AcDbEntity
  8
2-t. Schiebtreppe
100
AcDbCircle
 10
158.9090956717696
 20
2317.291890478514
 30
0.0
 40
0.16875
100
AcDbArc
 50
244.5743673766839
 51
334.5743673767306
  0
ARC
  5
240
330
2
100
AcDbEntity
  8
2-t. Schiebtreppe
100
AcDbCircle
 10
158.8234007611793
 20
2317.532890870029
 30
0.0
 40
0.16875
100
AcDbArc
 50
244.5743673766839
 51
334.5743673767306
  0
ARC
  5
241
330
2
100
AcDbEntity
  8
2-t. Schiebtreppe
100
AcDbCircle
 10
157.4709822216666
 20
2314.687989449244
 30
0.0
 40
0.16875
100
AcDbArc
 50
334.5743673767306
 51
64.57436737668402
  0
ARC
  5
242
330
2
100
AcDbEntity
  8
2-t. Schiebtreppe
100
AcDbCircle
 10
157.7119826131814
 20
2314.773684359834
 30
0.0
 40
0.16875
100
AcDbArc
 50
334.5743673767306
 51
64.57436737668402
  0
POINT
  5
243
330
2
100
AcDbEntity
  8
2-t. Schiebtreppe
  6
ByBlock
 62
     0
100
AcDbPoint
 10
161.5210733171484
 20
2316.098008860633
 30
0.0
 50
64.57436737669398
  0
LINE
  5
244
330
2
100
AcDbEntity
  8
2-t. Schiebtreppe
100
AcDbLine
 10
137.3095657847629
 20
2287.867941729817
 30
0.0
 11
143.3549813039299
 21
2284.994052333352
 31
0.0
  0
LINE
  5
245
330
2
100
AcDbEntity
  8
2-t. Schiebtreppe
100
AcDbLine
 10
136.1020492316261
 20
2285.327851175546
 30
0.0
 11
142.1474647507933
 21
2282.453961779081
 31
0.0
  0
LINE
  5
246
330
2
100
AcDbEntity
  8
2-t. Schiebtreppe
100
AcDbLine
 10
135.8888373914448
 20
2285.927468312731
 30
0.0
 11
136.033739377821
 21
2286.232279179244
 31
0.0
  0
LINE
  5
247
330
2
100
AcDbEntity
  8
2-t. Schiebtreppe
  6
STRICHPUNKT2
 62
     1
100
AcDbLine
 10
148.3404243374697
 20
2280.021456325416
 30
0.0
 11
149.1512491334165
 21
2281.727079656213
 31
0.0
  0
ARC
  5
248
330
2
100
AcDbEntity
  8
2-t. Schiebtreppe
100
AcDbCircle
 10
150.7779091788608
 20
2279.908254748305
 30
0.0
 40
1.40625
100
AcDbArc
 50
244.5743673766839
 51
64.57436737668402
  0
LINE
  5
249
330
2
100
AcDbEntity
  8
2-t. Schiebtreppe
100
AcDbLine
 10
141.9376152181087
 20
2281.619483619611
 30
0.0
 11
142.2274191908615
 21
2282.229105352636
 31
0.0
  0
LINE
  5
24A
330
2
100
AcDbEntity
  8
2-t. Schiebtreppe
100
AcDbLine
 10
144.4777057723805
 20
2280.411967066475
 30
0.0
 11
144.7675097451332
 21
2281.0215887995
 31
0.0
  0
LINE
  5
24B
330
2
100
AcDbEntity
  8
2-t. Schiebtreppe
100
AcDbLine
 10
146.1998827247144
 20
2283.641633793839
 30
0.0
 11
151.3816674554289
 21
2281.178300025441
 31
0.0
  0
LINE
  5
24C
330
2
100
AcDbEntity
  8
2-t. Schiebtreppe
100
AcDbLine
 10
144.9923661715776
 20
2281.101543239568
 30
0.0
 11
150.1741509022924
 21
2278.638209471169
 31
0.0
  0
LINE
  5
24D
330
2
100
AcDbEntity
  8
2-t. Schiebtreppe
100
AcDbLine
 10
143.5798377303742
 20
2285.074006773421
 30
0.0
 11
143.869641703127
 21
2285.683628506446
 31
0.0
  0
LINE
  5
24E
330
2
100
AcDbEntity
  8
2-t. Schiebtreppe
100
AcDbLine
 10
146.119928284646
 20
2283.866490220284
 30
0.0
 11
146.4097322573992
 21
2284.47611195331
 31
0.0
  0
ARC
  5
24F
330
2
100
AcDbEntity
  8
2-t. Schiebtreppe
100
AcDbCircle
 10
145.1396869802632
 20
2285.079870229878
 30
0.0
 40
1.406249999999993
100
AcDbArc
 50
334.5743673767306
 51
154.5743673767306
  0
ARC
  5
250
330
2
100
AcDbEntity
  8
2-t. Schiebtreppe
100
AcDbCircle
 10
143.2076604952445
 20
2281.015725343043
 30
0.0
 40
1.406249999999993
100
AcDbArc
 50
154.5743673767306
 51
334.5743673767306
  0
ARC
  5
251
330
2
100
AcDbEntity
  8
2-t. Schiebtreppe
100
AcDbCircle
 10
136.2952518801282
 20
2285.734265664229
 30
0.0
 40
0.45
100
AcDbArc
 50
154.5743673767306
 51
244.5743673766839
  0
ARC
  5
252
330
2
100
AcDbEntity
  8
2-t. Schiebtreppe
100
AcDbCircle
 10
137.1163631362609
 20
2287.461527241134
 30
0.0
 40
0.45
100
AcDbArc
 50
64.57436737668402
 51
154.5743673767306
  0
LINE
  5
253
330
2
100
AcDbEntity
  8
2-t. Schiebtreppe
100
AcDbLine
 10
136.9118329771725
 20
2285.143155995521
 30
0.0
 11
142.3884651423084
 21
2282.539656689671
 31
0.0
  0
LINE
  5
254
330
2
100
AcDbEntity
  8
2-t. Schiebtreppe
100
AcDbLine
 10
151.3040147149664
 20
2281.014952374389
 30
0.0
 11
145.9588823331993
 21
2283.55593888325
 31
0.0
  0
LINE
  5
255
330
2
100
AcDbEntity
  8
2-t. Schiebtreppe
100
AcDbLine
 10
144.0329893541798
 20
2285.605975765983
 30
0.0
 11
143.6655326409645
 21
2284.833006381906
 31
0.0
  0
LINE
  5
256
330
2
100
AcDbEntity
  8
2-t. Schiebtreppe
100
AcDbLine
 10
142.4684195823763
 20
2282.314800263227
 30
0.0
 11
142.1009628691613
 21
2281.541830879149
 31
0.0
  0
ARC
  5
257
330
2
100
AcDbEntity
  8
2-t. Schiebtreppe
100
AcDbCircle
 10
143.2076604952445
 20
2281.015725343043
 30
0.0
 40
1.225384295108992
100
AcDbArc
 50
154.5743673767306
 51
334.5743673767306
  0
ARC
  5
258
330
2
100
AcDbEntity
  8
2-t. Schiebtreppe
100
AcDbCircle
 10
145.1396869802632
 20
2285.079870229878
 30
0.0
 40
1.225384295108985
100
AcDbArc
 50
334.5743673767306
 51
154.5743673767306
  0
LINE
  5
259
330
2
100
AcDbEntity
  8
2-t. Schiebtreppe
100
AcDbLine
 10
144.6818148345432
 20
2281.262589191015
 30
0.0
 11
144.3143581213279
 21
2280.489619806937
 31
0.0
  0
LINE
  5
25A
330
2
100
AcDbEntity
  8
2-t. Schiebtreppe
100
AcDbLine
 10
146.2463846063464
 20
2284.553764693772
 30
0.0
 11
145.8789278931314
 21
2283.780795309694
 31
0.0
  0
LINE
  5
25B
330
2
100
AcDbEntity
  8
2-t. Schiebtreppe
100
AcDbLine
 10
144.9066712609876
 20
2281.342543631083
 30
0.0
 11
150.2518036427549
 21
2278.801557122222
 31
0.0
  0
LINE
  5
25C
330
2
100
AcDbEntity
  8
2-t. Schiebtreppe
100
AcDbLine
 10
143.4406762145201
 20
2284.753051941838
 30
0.0
 11
137.9640440493844
 21
2287.356551247687
 31
0.0
  0
ARC
  5
25D
330
2
100
AcDbEntity
  8
2-t. Schiebtreppe
100
AcDbCircle
 10
150.7779091788608
 20
2279.908254748305
 30
0.0
 40
1.225384295108993
100
AcDbArc
 50
244.5743673766839
 51
64.57436737668402
  0
LINE
  5
25E
330
2
100
AcDbEntity
  8
2-t. Schiebtreppe
  6
STRICHPUNKT2
 62
     1
100
AcDbLine
 10
143.6442030511362
 20
2281.934021344765
 30
0.0
 11
142.7711179393528
 21
2280.097429341321
 31
0.0
  0
LINE
  5
25F
330
2
100
AcDbEntity
  8
2-t. Schiebtreppe
  6
STRICHPUNKT2
 62
     1
100
AcDbLine
 10
142.2893644935228
 20
2281.452267898935
 30
0.0
 11
144.1259564969662
 21
2280.579182787151
 31
0.0
  0
CIRCLE
  5
260
330
2
100
AcDbEntity
  8
2-t. Schiebtreppe
100
AcDbCircle
 10
143.2076604952445
 20
2281.015725343043
 30
0.0
 40
0.365625
  0
CIRCLE
  5
261
330
2
100
AcDbEntity
  8
2-t. Schiebtreppe
100
AcDbCircle
 10
145.1396869802632
 20
2285.079870229878
 30
0.0
 40
0.365625
  0
CIRCLE
  5
262
330
2
100
AcDbEntity
  8
2-t. Schiebtreppe
100
AcDbCircle
 10
148.7458367354433
 20
2280.874267990815
 30
0.0
 40
0.365625
  0
LINE
  5
263
330
2
100
AcDbEntity
  8
2-t. Schiebtreppe
100
AcDbLine
 10
137.1080808574949
 20
2285.347860367226
 30
0.0
 11
137.3978848302479
 21
2285.957482100251
 31
0.0
  0
ARC
  5
264
330
2
100
AcDbEntity
  8
2-t. Schiebtreppe
100
AcDbCircle
 10
136.7016663688118
 20
2285.541063015728
 30
0.0
 40
0.45
100
AcDbArc
 50
244.5743673766839
 51
334.5743673767306
  0
ARC
  5
265
330
2
100
AcDbEntity
  8
2-t. Schiebtreppe
100
AcDbCircle
 10
137.5227776249445
 20
2287.268324592633
 30
0.0
 40
0.45
100
AcDbArc
 50
334.5743673767306
 51
64.57436737668402
  0
POINT
  5
266
330
2
100
AcDbEntity
  8
2-t. Schiebtreppe
  6
ByBlock
 62
     1
100
AcDbPoint
 10
149.5840666183528
 20
2280.475787528279
 30
0.0
 50
64.57436737669398
  0
POINT
  5
267
330
2
100
AcDbEntity
  8
2-t. Schiebtreppe
  6
ByBlock
 62
     0
100
AcDbPoint
 10
148.9236430742421
 20
2280.789741832094
 30
0.0
 50
64.57436737669398
  0
LINE
  5
268
330
2
100
AcDbEntity
  8
2-t. Schiebtreppe
  6
STRICHPUNKT2
 62
     1
100
AcDbLine
 10
147.8816338401641
 20
2281.285095588895
 30
0.0
 11
149.6100396307224
 21
2280.463440392734
 31
0.0
  0
LINE
  5
269
330
2
100
AcDbEntity
  8
2-t. Schiebtreppe
100
AcDbLine
 10
137.3626869919231
 20
2285.974214563722
 30
0.0
 11
140.824666905075
 21
2284.328447232818
 31
0.0
  0
LINE
  5
26A
330
2
100
AcDbEntity
  8
2-t. Schiebtreppe
100
AcDbLine
 10
137.6041903025503
 20
2286.482232674576
 30
0.0
 11
141.0661702157025
 21
2284.836465343673
 31
0.0
  0
ARC
  5
26B
330
2
100
AcDbEntity
  8
2-t. Schiebtreppe
100
AcDbCircle
 10
140.7522159118867
 20
2284.176041799562
 30
0.0
 40
0.16875
100
AcDbArc
 50
6.505085287998352
 51
64.57436737668402
  0
ARC
  5
26C
330
2
100
AcDbEntity
  8
2-t. Schiebtreppe
100
AcDbCircle
 10
141.1386212088904
 20
2284.988870776929
 30
0.0
 40
0.16875
100
AcDbArc
 50
244.5743673766839
 51
302.6436494653942
  0
LINE
  5
26D
330
2
100
AcDbEntity
  8
2-t. Schiebtreppe
100
AcDbLine
 10
133.8492615011473
 20
2287.270743414941
 30
0.0
 11
137.0497755995299
 21
2285.749272557989
 31
0.0
  0
LINE
  5
26E
330
2
100
AcDbEntity
  8
2-t. Schiebtreppe
100
AcDbLine
 10
134.1557123580829
 20
2288.308428818753
 30
0.0
 11
133.7693070610791
 21
2287.495599841386
 31
0.0
  0
LINE
  5
26F
330
2
100
AcDbEntity
  8
2-t. Schiebtreppe
100
AcDbLine
 10
134.1757009680998
 20
2288.252214712142
 30
0.0
 11
133.8255211676906
 21
2287.515588451403
 31
0.0
  0
LINE
  5
270
330
2
100
AcDbEntity
  8
2-t. Schiebtreppe
100
AcDbLine
 10
134.3805687845272
 20
2288.388383258821
 30
0.0
 11
137.5810828829099
 21
2286.866912401869
 31
0.0
  0
LINE
  5
271
330
2
100
AcDbEntity
  8
2-t. Schiebtreppe
100
AcDbLine
 10
134.4005573945444
 20
2288.33216915221
 30
0.0
 11
137.5248687762986
 21
2286.846923791852
 31
0.0
  0
ARC
  5
272
330
2
100
AcDbEntity
  8
2-t. Schiebtreppe
100
AcDbCircle
 10
134.3281064013563
 20
2288.179763718954
 30
0.0
 40
0.16875
100
AcDbArc
 50
64.57436737668402
 51
154.5743673767306
  0
ARC
  5
273
330
2
100
AcDbEntity
  8
2-t. Schiebtreppe
100
AcDbCircle
 10
134.3081177913391
 20
2288.235977825564
 30
0.0
 40
0.16875
100
AcDbArc
 50
64.57436737668402
 51
154.5743673767306
  0
ARC
  5
274
330
2
100
AcDbEntity
  8
2-t. Schiebtreppe
100
AcDbCircle
 10
133.9217124943356
 20
2287.423148848198
 30
0.0
 40
0.16875
100
AcDbArc
 50
154.5743673767306
 51
244.5743673766839
  0
ARC
  5
275
330
2
100
AcDbEntity
  8
2-t. Schiebtreppe
100
AcDbCircle
 10
133.9779266009466
 20
2287.443137458215
 30
0.0
 40
0.16875
100
AcDbArc
 50
154.5743673767306
 51
244.5743673766839
  0
LINE
  5
276
330
2
100
AcDbEntity
  8
2-t. Schiebtreppe
100
AcDbLine
 10
133.9054756077585
 20
2287.290732024958
 30
0.0
 11
137.0297869895129
 21
2285.8054866646
 31
0.0
  0
LINE
  5
277
330
2
100
AcDbEntity
  8
2-t. Schiebtreppe
100
AcDbLine
 10
136.7366001276001
 20
2287.579777747488
 30
0.0
 11
136.6158484722864
 21
2287.325768692061
 31
0.0
  0
LINE
  5
278
330
2
100
AcDbEntity
  8
2-t. Schiebtreppe
100
AcDbLine
 10
137.6410281312982
 20
2287.648087601293
 30
0.0
 11
137.3362172647857
 21
2287.79298958767
 31
0.0
  0
ARC
  5
279
330
2
100
AcDbEntity
  8
2-t. Schiebtreppe
100
AcDbCircle
 10
136.3702040222764
 20
2285.760917144252
 30
0.0
 40
0.45
100
AcDbArc
 50
154.5743673767306
 51
244.5743673766839
  0
ARC
  5
27A
330
2
100
AcDbEntity
  8
2-t. Schiebtreppe
100
AcDbCircle
 10
137.1430146162839
 20
2287.386575098986
 30
0.0
 40
0.45
100
AcDbArc
 50
64.57436737668402
 51
154.5743673767306
  0
ARC
  5
27B
330
2
100
AcDbEntity
  8
2-t. Schiebtreppe
100
AcDbCircle
 10
137.4478254827965
 20
2287.24167311261
 30
0.0
 40
0.45
100
AcDbArc
 50
334.5743673767306
 51
64.57436737668402
  0
ARC
  5
27C
330
2
100
AcDbEntity
  8
2-t. Schiebtreppe
100
AcDbCircle
 10
136.675014888789
 20
2285.616015157875
 30
0.0
 40
0.45
100
AcDbArc
 50
244.5743673766839
 51
334.5743673767306
  0
LINE
  5
27D
330
2
100
AcDbEntity
  8
2-t. Schiebtreppe
100
AcDbLine
 10
137.85423997148
 20
2287.048470464108
 30
0.0
 11
137.661037322978
 21
2286.642055975424
 31
0.0
  0
LINE
  5
27E
330
2
100
AcDbEntity
  8
2-t. Schiebtreppe
100
AcDbLine
 10
137.6393881408751
 20
2286.465500211106
 30
0.0
 11
137.9291921136279
 21
2287.07512194413
 31
0.0
  0
LINE
  5
27F
330
2
100
AcDbEntity
  8
2-t. Schiebtreppe
100
AcDbLine
 10
136.481812240287
 20
2285.209600669192
 30
0.0
 11
136.1770013737744
 21
2285.354502655569
 31
0.0
  0
LINE
  5
280
330
2
100
AcDbEntity
  8
2-t. Schiebtreppe
100
AcDbLine
 10
136.0845411889065
 20
2286.208128848182
 30
0.0
 11
135.9637895335928
 21
2285.954119792754
 31
0.0
  0
LINE
  5
281
330
2
100
AcDbEntity
  8
2-t. Schiebtreppe
100
AcDbLine
 10
136.565046661201
 20
2287.349919023123
 30
0.0
 11
136.7099486475775
 21
2287.654729889636
 31
0.0
  0
LINE
  5
282
330
2
100
AcDbEntity
  8
2-t. Schiebtreppe
100
AcDbLine
 10
137.6048232163668
 20
2286.622067365408
 30
0.0
 11
137.2546434159573
 21
2285.885441104669
 31
0.0
  0
ARC
  5
283
330
2
100
AcDbEntity
  8
2-t. Schiebtreppe
100
AcDbCircle
 10
137.1022379827008
 20
2285.957892097857
 30
0.0
 40
0.16875
100
AcDbArc
 50
244.5743673766839
 51
334.5743673767306
  0
ARC
  5
284
330
2
100
AcDbEntity
  8
2-t. Schiebtreppe
100
AcDbCircle
 10
137.4524177831105
 20
2286.694518358596
 30
0.0
 40
0.16875
100
AcDbArc
 50
334.5743673767306
 51
64.57436737668402
  0
LINE
  5
285
330
2
100
AcDbEntity
  8
2-t. Schiebtreppe
100
AcDbLine
 10
137.2746320259743
 20
2285.829226998058
 30
0.0
 11
137.0814293774723
 21
2285.422812509374
 31
0.0
  0
ARC
  5
286
330
2
100
AcDbEntity
  8
2-t. Schiebtreppe
100
AcDbCircle
 10
137.3385366608602
 20
2285.923412752637
 30
0.0
 40
0.05625
100
AcDbArc
 50
64.57436737668402
 51
118.3931487747476
  0
ARC
  5
287
330
2
100
AcDbEntity
  8
2-t. Schiebtreppe
100
AcDbCircle
 10
137.6283406336134
 20
2286.533034485662
 30
0.0
 40
0.05625
100
AcDbArc
 50
190.75558597862
 51
244.5743673766839
  0
ARC
  5
288
330
2
100
AcDbEntity
  8
2-t. Schiebtreppe
100
AcDbCircle
 10
137.5086318897218
 20
2286.714506968613
 30
0.0
 40
0.16875
100
AcDbArc
 50
334.5743673767306
 51
64.57436737668402
  0
ARC
  5
289
330
2
100
AcDbEntity
  8
2-t. Schiebtreppe
100
AcDbCircle
 10
137.122226592718
 20
2285.901677991246
 30
0.0
 40
0.16875
100
AcDbArc
 50
244.5743673766839
 51
334.5743673767306
  0
ARC
  5
28A
330
2
100
AcDbEntity
  8
2-t. Schiebtreppe
100
AcDbCircle
 10
142.075013757605
 20
2282.301556345824
 30
0.0
 40
0.16875
100
AcDbArc
 50
334.5743673767306
 51
64.57436737668402
  0
ARC
  5
28B
330
2
100
AcDbEntity
  8
2-t. Schiebtreppe
100
AcDbCircle
 10
142.31601414912
 20
2282.387251256414
 30
0.0
 40
0.16875
100
AcDbArc
 50
334.5743673767306
 51
64.57436737668402
  0
ARC
  5
28C
330
2
100
AcDbEntity
  8
2-t. Schiebtreppe
100
AcDbCircle
 10
143.513127207708
 20
2284.905457375094
 30
0.0
 40
0.16875
100
AcDbArc
 50
244.5743673766839
 51
334.5743673767306
  0
ARC
  5
28D
330
2
100
AcDbEntity
  8
2-t. Schiebtreppe
100
AcDbCircle
 10
143.427432297118
 20
2285.146457766609
 30
0.0
 40
0.16875
100
AcDbArc
 50
244.5743673766839
 51
334.5743673767306
  0
ARC
  5
28E
330
2
100
AcDbEntity
  8
2-t. Schiebtreppe
100
AcDbCircle
 10
146.0313333263877
 20
2283.708344316506
 30
0.0
 40
0.16875
100
AcDbArc
 50
154.5743673767306
 51
244.5743673766839
  0
ARC
  5
28F
330
2
100
AcDbEntity
  8
2-t. Schiebtreppe
100
AcDbCircle
 10
146.2723337179025
 20
2283.794039227096
 30
0.0
 40
0.16875
100
AcDbArc
 50
154.5743673767306
 51
244.5743673766839
  0
ARC
  5
290
330
2
100
AcDbEntity
  8
2-t. Schiebtreppe
100
AcDbCircle
 10
144.8342202677997
 20
2281.190138197827
 30
0.0
 40
0.16875
100
AcDbArc
 50
64.57436737668402
 51
154.5743673767306
  0
ARC
  5
291
330
2
100
AcDbEntity
  8
2-t. Schiebtreppe
100
AcDbCircle
 10
144.9199151783895
 20
2280.949137806311
 30
0.0
 40
0.16875
100
AcDbArc
 50
64.57436737668402
 51
154.5743673767306
  0
LINE
  5
292
330
2
100
AcDbEntity
  8
2-t. Schiebtreppe
  6
STRICHPUNKT2
 62
     1
100
AcDbLine
 10
145.5762295361549
 20
2285.9981662316
 30
0.0
 11
144.7031444243715
 21
2284.161574228156
 31
0.0
  0
LINE
  5
293
330
2
100
AcDbEntity
  8
2-t. Schiebtreppe
  6
STRICHPUNKT2
 62
     1
100
AcDbLine
 10
144.2213909785412
 20
2285.51641278577
 30
0.0
 11
146.0579829819852
 21
2284.643327673986
 31
0.0
  0
CIRCLE
  5
294
330
2
100
AcDbEntity
  8
2-t. Schiebtreppe
100
AcDbCircle
 10
150.7779091788608
 20
2279.908254748305
 30
0.0
 40
0.5624999999999865
  0
LINE
  5
295
330
2
100
AcDbEntity
  8
2-t. Schiebtreppe
  6
STRICHPUNKT2
 62
     1
100
AcDbLine
 10
160.9721980002161
 20
2318.384599335019
 30
0.0
 11
160.0991128884331
 21
2316.548007331575
 31
0.0
  0
LINE
  5
296
330
2
100
AcDbEntity
  8
2-t. Schiebtreppe
  6
STRICHPUNKT2
 62
     1
100
AcDbLine
 10
159.6173594426024
 20
2317.902845889189
 30
0.0
 11
161.4539514460463
 21
2317.029760777406
 31
0.0
  0
LINE
  5
297
330
2
100
AcDbEntity
  8
2-t. Schiebtreppe
  6
STRICHPUNKT2
 62
     1
100
AcDbLine
 10
159.0401715151976
 20
2314.320454448184
 30
0.0
 11
158.1670864034146
 21
2312.48386244474
 31
0.0
  0
LINE
  5
298
330
2
100
AcDbEntity
  8
2-t. Schiebtreppe
  6
STRICHPUNKT2
 62
     1
100
AcDbLine
 10
157.6853329575841
 20
2313.838701002354
 30
0.0
 11
159.5219249610278
 21
2312.96561589057
 31
0.0
  0
LINE
  5
299
330
2
100
AcDbEntity
  8
2-t. Schiebtreppe
  6
STRICHPUNKT2
 62
     1
100
AcDbLine
 10
164.5783477553963
 20
2314.178997095956
 30
0.0
 11
163.7052626436132
 21
2312.342405092512
 31
0.0
  0
LINE
  5
29A
330
2
100
AcDbEntity
  8
2-t. Schiebtreppe
  6
STRICHPUNKT2
 62
     1
100
AcDbLine
 10
163.2235091977829
 20
2313.697243650126
 30
0.0
 11
165.0601012012264
 21
2312.824158538342
 31
0.0
  0
LWPOLYLINE
  5
29B
330
2
100
AcDbEntity
  8
2-t. Schiebtreppe
100
AcDbPolyline
 90
        6
 70
     1
 43
0.0
 10
54.07784121745346
 20
2102.434322884138
 10
44.77127586016401
 20
2102.503459751264
 10
43.18779676254938
 20
2104.419301631031
 10
146.9766102463929
 20
2322.74590269053
 10
156.2861045574377
 20
2322.676744064713
 10
157.8677176279938
 20
2320.763159879912
  0
LWPOLYLINE
  5
29C
330
2
100
AcDbEntity
  8
2-t. Schiebtreppe
100
AcDbPolyline
 90
        5
 70
     1
 43
0.0
 10
177.9445081951061
 20
2362.996010392105
 10
137.7909270608814
 20
2278.530309367719
 10
139.3744061584965
 20
2276.614467487952
 10
148.6809715157857
 20
2276.545330620827
 10
189.73653432243
 20
2362.90840946607
  0
LINE
  5
29D
330
2
100
AcDbEntity
  8
2-t. Schiebtreppe
100
AcDbLine
 10
151.6966439444431
 20
2275.755941214803
 30
0.0
 11
154.549317211193
 21
2281.8735187773
 31
0.0
  0
CIRCLE
  5
29E
330
2
100
AcDbEntity
  8
2-t. Schiebtreppe
100
AcDbCircle
 10
150.7779091788608
 20
2279.908254748305
 30
0.0
 40
0.5624999999999999
  0
LINE
  5
29F
330
2
100
AcDbEntity
  8
2-t. Schiebtreppe
100
AcDbLine
 10
151.6966439444431
 20
2275.755941214803
 30
0.0
 11
149.9543227718299
 21
2279.829945843061
 31
0.0
  0
LINE
  5
2A0
330
2
100
AcDbEntity
  8
2-t. Schiebtreppe
100
AcDbLine
 10
150.3085061426244
 20
2280.589494532858
 30
0.0
 11
154.549317211193
 21
2281.8735187773
 31
0.0
  0
ARC
  5
2A1
330
2
100
AcDbEntity
  8
2-t. Schiebtreppe
100
AcDbCircle
 10
150.4715108854942
 20
2280.051130618947
 30
0.0
 40
0.5624999999999999
100
AcDbArc
 50
106.8451571352044
 51
203.1548428647903
  0
LINE
  5
2A2
330
2
100
AcDbEntity
  8
2-t. Schiebtreppe
100
AcDbLine
 10
191.8598978340489
 20
2360.133267494502
 30
0.0
 11
191.8598978340489
 21
2366.883267494502
 31
0.0
  0
CIRCLE
  5
2A3
330
2
100
AcDbEntity
  8
2-t. Schiebtreppe
100
AcDbCircle
 10
189.2723978340491
 20
2363.508267494501
 30
0.0
 40
0.5625
  0
LINE
  5
2A4
330
2
100
AcDbEntity
  8
2-t. Schiebtreppe
100
AcDbLine
 10
191.8598978340489
 20
2360.133267494502
 30
0.0
 11
188.5590698334731
 21
2363.089232868151
 31
0.0
  0
LINE
  5
2A5
330
2
100
AcDbEntity
  8
2-t. Schiebtreppe
100
AcDbLine
 10
188.5590698334731
 20
2363.927302120851
 30
0.0
 11
191.8598978340489
 21
2366.883267494502
 31
0.0
  0
ARC
  5
2A6
330
2
100
AcDbEntity
  8
2-t. Schiebtreppe
100
AcDbCircle
 10
188.9343247227416
 20
2363.508267494501
 30
0.0
 40
0.5625
100
AcDbArc
 50
131.8451571351685
 51
228.1548428648353
  0
LWPOLYLINE
  5
2A7
330
2
100
AcDbEntity
  8
2-t. Schiebtreppe
100
AcDbPolyline
 90
        4
 70
     1
 43
0.0
 10
174.2226469894556
 20
2338.766437487764
 10
191.525106981063
 20
2363.292970868154
 10
188.2997977732059
 20
2365.551573702588
 10
170.9973377815983
 20
2341.025040322198
  0
LINE
  5
2A8
330
2
100
AcDbEntity
  8
2-t. Schiebtreppe
  6
STRICHPUNKT
100
AcDbLine
 10
176.1161976609766
 20
2358.078593702789
 30
0.0
 11
176.1161976609766
 21
2355.458974797983
 31
0.0
  0
LINE
  5
2A9
330
2
100
AcDbEntity
  8
2-t. Schiebtreppe
  6
STRICHPUNKT
100
AcDbLine
 10
177.4260071133798
 20
2356.768784250386
 30
0.0
 11
174.8063882085735
 21
2356.768784250386
 31
0.0
  0
CIRCLE
  5
2AA
330
2
100
AcDbEntity
  8
2-t. Schiebtreppe
100
AcDbCircle
 10
176.1161976609766
 20
2356.768784250386
 30
0.0
 40
0.421875
  0
LINE
  5
2AB
330
2
100
AcDbEntity
  8
2-t. Schiebtreppe
  6
STRICHPUNKT
100
AcDbLine
 10
104.2160980071213
 20
2358.078593702789
 30
0.0
 11
104.2160980071213
 21
2355.458974797983
 31
0.0
  0
LINE
  5
2AC
330
2
100
AcDbEntity
  8
2-t. Schiebtreppe
  6
STRICHPUNKT
100
AcDbLine
 10
102.9062885547181
 20
2356.768784250386
 30
0.0
 11
105.5259074595245
 21
2356.768784250386
 31
0.0
  0
CIRCLE
  5
2AD
330
2
100
AcDbEntity
  8
2-t. Schiebtreppe
100
AcDbCircle
 10
104.2160980071213
 20
2356.768784250386
 30
0.0
 40
0.421875
  0
LINE
  5
2AE
330
2
100
AcDbEntity
  8
2-t. Schiebtreppe
  6
STRICHPUNKT
100
AcDbLine
 10
82.14373550010941
 20
2356.768784250386
 30
0.0
 11
88.96271662119813
 21
2356.768784250386
 31
0.0
  0
LINE
  5
2AF
330
2
100
AcDbEntity
  8
2-t. Schiebtreppe
100
AcDbLine
 10
83.34127283404894
 20
2361.863595061511
 30
0.0
 11
83.34127283404894
 21
2353.313595061511
 31
0.0
  0
LINE
  5
2B0
330
2
100
AcDbEntity
  8
2-t. Schiebtreppe
100
AcDbLine
 10
83.63827283404893
 20
2361.863595061511
 30
0.0
 11
83.63827283404893
 21
2353.313595061511
 31
0.0
  0
LINE
  5
2B1
330
2
100
AcDbEntity
  8
2-t. Schiebtreppe
100
AcDbLine
 10
84.19739783404896
 20
2360.427224918959
 30
0.0
 11
83.07239783404893
 21
2359.302224918959
 31
0.0
  0
LINE
  5
2B2
330
2
100
AcDbEntity
  8
2-t. Schiebtreppe
100
AcDbLine
 10
84.19739783404896
 20
2359.711279304208
 30
0.0
 11
83.07239783404893
 21
2358.586279304208
 31
0.0
  0
LINE
  5
2B3
330
2
100
AcDbEntity
  8
2-t. Schiebtreppe
100
AcDbLine
 10
84.19739783404896
 20
2358.995333685409
 30
0.0
 11
83.07239783404893
 21
2357.870333685409
 31
0.0
  0
LINE
  5
2B4
330
2
100
AcDbEntity
  8
2-t. Schiebtreppe
100
AcDbLine
 10
84.19739783404896
 20
2358.279388070659
 30
0.0
 11
83.07239783404893
 21
2357.154388070659
 31
0.0
  0
LINE
  5
2B5
330
2
100
AcDbEntity
  8
2-t. Schiebtreppe
100
AcDbLine
 10
84.19739783404896
 20
2356.131551223251
 30
0.0
 11
83.07239783404893
 21
2355.00655122325
 31
0.0
  0
LINE
  5
2B6
330
2
100
AcDbEntity
  8
2-t. Schiebtreppe
100
AcDbLine
 10
84.19739783404896
 20
2355.4156056085
 30
0.0
 11
83.07239783404893
 21
2354.2906056085
 31
0.0
  0
LINE
  5
2B7
330
2
100
AcDbEntity
  8
2-t. Schiebtreppe
100
AcDbLine
 10
84.19739783404896
 20
2354.6996599897
 30
0.0
 11
83.07239783404893
 21
2353.5746599897
 31
0.0
  0
LINE
  5
2B8
330
2
100
AcDbEntity
  8
2-t. Schiebtreppe
100
AcDbLine
 10
84.19739783404896
 20
2353.98371437495
 30
0.0
 11
83.52727852060928
 21
2353.313595061511
 31
0.0
  0
LINE
  5
2B9
330
2
100
AcDbEntity
  8
2-t. Schiebtreppe
100
AcDbLine
 10
83.48593112919274
 20
2361.863595061511
 30
0.0
 11
83.0723978340489
 21
2361.450061766367
 31
0.0
  0
LWPOLYLINE
  5
2BA
330
2
100
AcDbEntity
  8
2-t. Schiebtreppe
100
AcDbPolyline
 90
        4
 70
     1
 43
0.0
 10
83.07239783404893
 20
2361.863595061511
 10
84.19739783404896
 20
2361.863595061511
 10
84.19739783404896
 20
2353.313595061511
 10
83.07239783404893
 20
2353.313595061511
  0
HATCH
  5
2BB
330
2
100
AcDbEntity
  8
2-t. Schiebtreppe
100
AcDbHatch
 10
0.0
 20
0.0
 30
0.0
210
0.0
220
0.0
230
1.0
  2
AR-SAND,I
 70
     0
 71
     0
 91
        2
 92
        1
 93
        5
 72
     1
 10
83.07239783404895
 20
2353.28209506151
 11
84.19739783404896
 21
2353.28209506151
 72
     1
 10
84.19739783404896
 20
2353.28209506151
 11
84.19739783404896
 21
2341.01959506151
 72
     1
 10
84.19739783404896
 20
2341.019595061511
 11
83.07239783404895
 21
2341.019595061511
 72
     1
 10
83.07239783404895
 20
2341.019595061511
 11
83.07239783404895
 21
2341.919595061511
 72
     1
 10
83.07239783404895
 20
2341.919595061511
 11
83.07239783404895
 21
2353.28209506151
 97
        0
 92
        1
 93
        4
 72
     1
 10
83.07239783404895
 20
2368.019595061511
 11
84.19739783404896
 21
2368.019595061511
 72
     1
 10
84.19739783404896
 20
2368.019595061511
 11
84.19739783404896
 21
2361.86359506151
 72
     1
 10
84.19739783404896
 20
2361.863595061511
 11
83.07239783404895
 21
2361.863595061511
 72
     1
 10
83.07239783404895
 20
2361.863595061511
 11
83.07239783404895
 21
2368.019595061511
 97
        0
 75
     2
 76
     1
 52
0.0
 41
0.225
 77
     0
 78
     4
 53
37.5
 43
68.14261395689192
 44
2316.111021095721
 45
-0.0141735055746618
 46
0.4335353480279608
 79
     6
 49
0.0
 49
-0.342
 49
0.0
 49
-0.3825
 49
0.0
 49
-0.365625
 53
7.499999999999999
 43
68.14261395689192
 44
2316.111021095721
 45
0.3981997586852386
 46
0.6349828646766916
 79
     6
 49
0.0
 49
-0.1845
 49
0.0
 49
-0.30825
 49
0.0
 49
-0.118125
 53
327.5
 43
67.86586395689193
 44
2316.111021095721
 45
0.7006819188940864
 46
0.0012732870458171
 79
     6
 49
0.0
 49
-0.1125
 49
0.0
 49
-0.4050000000000001
 49
0.0
 49
-0.5287500000000001
 53
317.5
 43
67.86586395689193
 44
2316.111021095721
 45
0.6763784860287661
 46
0.1974770021102061
 79
     6
 49
0.0
 49
-0.05625
 49
0.0
 49
-0.2655
 49
0.0
 49
-0.30375
 98
        2
 10
83.18414305547566
 20
2351.571317834283
 10
83.45496352303554
 20
2364.090016352827
1001
GradientColor1ACI
1070
     5
1001
GradientColor2ACI
1070
     2
1001
ACAD
1010
0.0
1020
0.0
1030
0.0
  0
LINE
  5
2BC
330
2
100
AcDbEntity
  8
2-t. Schiebtreppe
100
AcDbLine
 10
84.19739783404896
 20
2368.019595061511
 30
0.0
 11
83.07239783404895
 21
2368.019595061511
 31
0.0
  0
HATCH
  5
2BD
330
2
100
AcDbEntity
  8
2-t. Schiebtreppe
100
AcDbHatch
 10
0.0
 20
0.0
 30
0.0
210
0.0
220
0.0
230
1.0
  2
ANSI33
 70
     0
 71
     0
 91
        3
 92
        1
 93
        4
 72
     1
 10
71.91277687663552
 20
2368.019595061511
 11
83.07239783404893
 21
2368.019595061511
 72
     1
 10
83.07239783404895
 20
2368.019595061511
 11
83.07239783404895
 21
2341.019595061511
 72
     1
 10
83.07239783404895
 20
2341.019595061511
 11
71.91277687663554
 21
2341.019595061511
 72
     1
 10
71.91277687663552
 20
2341.019595061511
 11
71.91277687663552
 21
2368.019595061511
 97
        0
 92
       16
 93
        4
 72
     1
 10
77.28961739675185
 20
2346.947217237083
 11
77.28961739675181
 21
2364.055059316602
 72
     1
 10
77.28961739675179
 20
2364.055059316602
 11
79.19067002833076
 21
2364.055059316602
 72
     1
 10
79.19067002833077
 20
2364.055059316602
 11
79.19067002833077
 21
2346.947217237083
 72
     1
 10
79.19067002833077
 20
2346.947217237083
 11
77.28961739675185
 21
2346.947217237083
 97
        0
 92
       16
 93
        4
 72
     1
 10
75.26813713359493
 20
2346.944914605504
 11
75.26813713359493
 21
2356.919094923267
 72
     1
 10
75.26813713359493
 20
2356.919094923267
 11
77.18300555464754
 21
2356.919094923267
 72
     1
 10
77.18300555464754
 20
2356.919094923267
 11
77.18300555464754
 21
2346.944914605504
 72
     1
 10
77.18300555464754
 20
2346.944914605504
 11
75.26813713359493
 21
2346.944914605504
 97
        0
 75
     1
 76
     1
 52
90.0
 41
10.0
 77
     0
 78
     2
 53
135.0
 43
149.9851173246892
 44
2082.0
 45
-1.767766952966368
 46
-1.767766952966368
 79
     0
 53
135.0
 43
149.9851173246892
 44
2083.76776695
 45
-1.767766952966368
 46
-1.767766952966368
 79
     2
 49
1.25
 49
-0.625
 98
        1
 10
79.23020701006288
 20
2361.939947353213
1001
GradientColor1ACI
1070
     5
1001
GradientColor2ACI
1070
     2
1001
ACAD
1010
0.0
1020
0.0
1030
0.0
  0
LWPOLYLINE
  5
2BE
330
2
100
AcDbEntity
  8
2-t. Schiebtreppe
100
AcDbPolyline
 90
        4
 70
     1
 43
0.0
 10
83.07239783404895
 20
2341.019595061511
 10
71.91277687663552
 20
2341.019595061511
 10
71.91277687663552
 20
2368.019595061511
 10
83.07239783404895
 20
2368.019595061511
  0
TEXT
  5
2BF
330
2
100
AcDbEntity
  8
2-t. Schiebtreppe
100
AcDbText
 10
78.81468048283079
 20
2347.264059342347
 30
0.0
 40
1.26
  1
Konstruktionsdecke
 50
90.0
  7
TECHNICBOLD
100
AcDbText
  0
TEXT
  5
2C0
330
2
100
AcDbEntity
  8
2-t. Schiebtreppe
100
AcDbText
 10
76.80655548283178
 20
2347.264059342347
 30
0.0
 40
1.26
  1
Beton oder
 50
90.0
  7
TECHNICBOLD
100
AcDbText
  0
LWPOLYLINE
  5
2C1
330
2
100
AcDbEntity
  8
2-t. Schiebtreppe
100
AcDbPolyline
 90
        4
 70
     1
 43
0.0
 10
84.19739783404896
 20
2348.894595061511
 10
88.47239783404896
 20
2348.894595061511
 10
88.47239783404896
 20
2368.019595061511
 10
84.19739783404896
 20
2368.019595061511
  0
LWPOLYLINE
  5
2C2
330
2
100
AcDbEntity
  8
2-t. Schiebtreppe
100
AcDbPolyline
 90
        4
 70
     1
 43
0.0
 10
196.1348978340489
 20
2348.894595061511
 10
191.8598978340489
 20
2348.894595061511
 10
191.8598978340489
 20
2368.019595061511
 10
196.1348978340489
 20
2368.019595061511
  0
LINE
  5
2C3
330
2
100
AcDbEntity
  8
2-t. Schiebtreppe
  6
STRICHPUNKT
100
AcDbLine
 10
176.1161976609765
 20
2358.078593702789
 30
0.0
 11
176.1161976609765
 21
2355.458974797983
 31
0.0
  0
LINE
  5
2C4
330
2
100
AcDbEntity
  8
2-t. Schiebtreppe
  6
STRICHPUNKT
100
AcDbLine
 10
177.4260071133797
 20
2356.768784250386
 30
0.0
 11
174.8063882085733
 21
2356.768784250386
 31
0.0
  0
CIRCLE
  5
2C5
330
2
100
AcDbEntity
  8
2-t. Schiebtreppe
100
AcDbCircle
 10
176.1161976609765
 20
2356.768784250386
 30
0.0
 40
0.421875
  0
LINE
  5
2C6
330
2
100
AcDbEntity
  8
2-t. Schiebtreppe
  6
STRICHPUNKT
100
AcDbLine
 10
198.1885601679884
 20
2356.768784250386
 30
0.0
 11
191.3695790468997
 21
2356.768784250386
 31
0.0
  0
LINE
  5
2C7
330
2
100
AcDbEntity
  8
2-t. Schiebtreppe
100
AcDbLine
 10
196.9910228340489
 20
2361.86359506151
 30
0.0
 11
196.9910228340489
 21
2353.313595061511
 31
0.0
  0
LINE
  5
2C8
330
2
100
AcDbEntity
  8
2-t. Schiebtreppe
100
AcDbLine
 10
196.6940228340489
 20
2361.86359506151
 30
0.0
 11
196.6940228340489
 21
2353.313595061511
 31
0.0
  0
LINE
  5
2C9
330
2
100
AcDbEntity
  8
2-t. Schiebtreppe
100
AcDbLine
 10
196.1348978340489
 20
2360.427224918958
 30
0.0
 11
197.2598978340489
 21
2359.302224918959
 31
0.0
  0
LINE
  5
2CA
330
2
100
AcDbEntity
  8
2-t. Schiebtreppe
100
AcDbLine
 10
196.1348978340489
 20
2359.711279304208
 30
0.0
 11
197.2598978340489
 21
2358.586279304208
 31
0.0
  0
LINE
  5
2CB
330
2
100
AcDbEntity
  8
2-t. Schiebtreppe
100
AcDbLine
 10
196.1348978340489
 20
2358.995333685408
 30
0.0
 11
197.2598978340489
 21
2357.870333685409
 31
0.0
  0
LINE
  5
2CC
330
2
100
AcDbEntity
  8
2-t. Schiebtreppe
100
AcDbLine
 10
196.1348978340489
 20
2358.279388070659
 30
0.0
 11
197.2598978340489
 21
2357.154388070659
 31
0.0
  0
LINE
  5
2CD
330
2
100
AcDbEntity
  8
2-t. Schiebtreppe
100
AcDbLine
 10
196.1348978340489
 20
2356.13155122325
 30
0.0
 11
197.2598978340489
 21
2355.00655122325
 31
0.0
  0
LINE
  5
2CE
330
2
100
AcDbEntity
  8
2-t. Schiebtreppe
100
AcDbLine
 10
196.1348978340489
 20
2355.4156056085
 30
0.0
 11
197.2598978340489
 21
2354.2906056085
 31
0.0
  0
LINE
  5
2CF
330
2
100
AcDbEntity
  8
2-t. Schiebtreppe
100
AcDbLine
 10
196.1348978340489
 20
2354.6996599897
 30
0.0
 11
197.2598978340489
 21
2353.5746599897
 31
0.0
  0
LINE
  5
2D0
330
2
100
AcDbEntity
  8
2-t. Schiebtreppe
100
AcDbLine
 10
196.1348978340489
 20
2353.98371437495
 30
0.0
 11
196.8050171474886
 21
2353.313595061511
 31
0.0
  0
LINE
  5
2D1
330
2
100
AcDbEntity
  8
2-t. Schiebtreppe
100
AcDbLine
 10
196.8463645389051
 20
2361.86359506151
 30
0.0
 11
197.2598978340489
 21
2361.450061766367
 31
0.0
  0
LWPOLYLINE
  5
2D2
330
2
100
AcDbEntity
  8
2-t. Schiebtreppe
100
AcDbPolyline
 90
        4
 70
     1
 43
0.0
 10
197.2598978340489
 20
2361.86359506151
 10
196.1348978340489
 20
2361.86359506151
 10
196.1348978340489
 20
2353.313595061511
 10
197.2598978340489
 20
2353.313595061511
  0
HATCH
  5
2D3
330
2
100
AcDbEntity
  8
2-t. Schiebtreppe
100
AcDbHatch
 10
0.0
 20
0.0
 30
0.0
210
0.0
220
0.0
230
1.0
  2
AR-SAND,I
 70
     0
 71
     0
 91
        2
 92
        1
 93
        6
 72
     1
 10
197.2598978340489
 20
2353.28209506151
 11
196.6973978340489
 21
2353.313595061511
 72
     1
 10
196.6973978340489
 20
2353.313595061511
 11
196.6973978340489
 21
2342.144595061511
 72
     1
 10
196.6973978340489
 20
2342.144595061511
 11
196.1348978340489
 21
2342.144595061511
 72
     1
 10
196.1348978340489
 20
2342.144595061511
 11
196.1348978340489
 21
2341.019595061511
 72
     1
 10
196.1348978340489
 20
2341.019595061511
 11
197.2598978340489
 21
2341.019595061511
 72
     1
 10
197.2598978340489
 20
2341.019595061511
 11
197.2598978340489
 21
2353.28209506151
 97
        0
 92
        1
 93
        4
 72
     1
 10
197.2598978340489
 20
2368.019595061511
 11
196.1348978340489
 21
2368.019595061511
 72
     1
 10
196.1348978340489
 20
2368.019595061511
 11
196.1348978340489
 21
2361.86359506151
 72
     1
 10
196.1348978340489
 20
2361.86359506151
 11
197.2598978340489
 21
2361.86359506151
 72
     1
 10
197.2598978340489
 20
2361.86359506151
 11
197.2598978340489
 21
2368.019595061511
 97
        0
 75
     2
 76
     1
 52
0.0
 41
0.225
 77
     0
 78
     4
 53
37.5
 43
68.14261395689192
 44
2316.111021095721
 45
-0.0141735055746618
 46
0.4335353480279608
 79
     6
 49
0.0
 49
-0.342
 49
0.0
 49
-0.3825
 49
0.0
 49
-0.365625
 53
7.499999999999999
 43
68.14261395689192
 44
2316.111021095721
 45
0.3981997586852386
 46
0.6349828646766916
 79
     6
 49
0.0
 49
-0.1845
 49
0.0
 49
-0.30825
 49
0.0
 49
-0.118125
 53
327.5
 43
67.86586395689193
 44
2316.111021095721
 45
0.7006819188940864
 46
0.0012732870458171
 79
     6
 49
0.0
 49
-0.1125
 49
0.0
 49
-0.4050000000000001
 49
0.0
 49
-0.5287500000000001
 53
317.5
 43
67.86586395689193
 44
2316.111021095721
 45
0.6763784860287661
 46
0.1974770021102061
 79
     6
 49
0.0
 49
-0.05625
 49
0.0
 49
-0.2655
 49
0.0
 49
-0.30375
 98
        2
 10
197.1481526126222
 20
2351.571317834283
 10
196.8773321450623
 20
2364.090016352827
1001
GradientColor1ACI
1070
     5
1001
GradientColor2ACI
1070
     2
1001
ACAD
1010
0.0
1020
0.0
1030
0.0
  0
LINE
  5
2D4
330
2
100
AcDbEntity
  8
2-t. Schiebtreppe
100
AcDbLine
 10
196.1348978340489
 20
2368.019595061511
 30
0.0
 11
197.2598978340489
 21
2368.019595061511
 31
0.0
  0
LWPOLYLINE
  5
2D5
330
2
100
AcDbEntity
  8
2-t. Schiebtreppe
100
AcDbPolyline
 90
        4
 70
     1
 43
0.0
 10
197.2598978340489
 20
2341.019595061511
 10
208.4195187914623
 20
2341.019595061511
 10
208.4195187914623
 20
2368.019595061511
 10
197.2598978340489
 20
2368.019595061511
  0
HATCH
  5
2D6
330
2
100
AcDbEntity
  8
2-t. Schiebtreppe
100
AcDbHatch
 10
0.0
 20
0.0
 30
0.0
210
0.0
220
0.0
230
1.0
  2
ANSI33
 70
     0
 71
     0
 91
        3
 92
        1
 93
        4
 72
     1
 10
197.2598978340489
 20
2368.019595061511
 11
208.4195187914623
 21
2368.019595061511
 72
     1
 10
208.4195187914623
 20
2368.019595061511
 11
208.4195187914623
 21
2341.019595061511
 72
     1
 10
208.4195187914623
 20
2341.019595061511
 11
197.2598978340489
 21
2341.019595061511
 72
     1
 10
197.2598978340489
 20
2341.019595061511
 11
197.2598978340489
 21
2368.019595061511
 97
        0
 92
       16
 93
        4
 72
     1
 10
202.6367383541652
 20
2346.947217237083
 11
202.6367383541652
 21
2364.055059316602
 72
     1
 10
202.6367383541652
 20
2364.055059316602
 11
204.5377909857442
 21
2364.055059316602
 72
     1
 10
204.5377909857442
 20
2364.055059316602
 11
204.5377909857442
 21
2346.947217237083
 72
     1
 10
204.5377909857442
 20
2346.947217237083
 11
202.6367383541653
 21
2346.947217237083
 97
        0
 92
       16
 93
        4
 72
     1
 10
200.6152580910083
 20
2346.944914605504
 11
200.6152580910083
 21
2356.919094923267
 72
     1
 10
200.6152580910083
 20
2356.919094923267
 11
202.5301265120609
 21
2356.919094923267
 72
     1
 10
202.5301265120609
 20
2356.919094923267
 11
202.5301265120609
 21
2346.944914605504
 72
     1
 10
202.5301265120609
 20
2346.944914605504
 11
200.6152580910083
 21
2346.944914605504
 97
        0
 75
     1
 76
     1
 52
90.0
 41
10.0
 77
     0
 78
     2
 53
135.0
 43
149.9851173246892
 44
2082.0
 45
-1.767766952966368
 46
-1.767766952966368
 79
     0
 53
135.0
 43
149.9851173246892
 44
2083.76776695
 45
-1.767766952966368
 46
-1.767766952966368
 79
     2
 49
1.25
 49
-0.625
 98
        1
 10
204.5773279674762
 20
2361.939947353213
1001
GradientColor1ACI
1070
     5
1001
GradientColor2ACI
1070
     2
1001
ACAD
1010
0.0
1020
0.0
1030
0.0
  0
TEXT
  5
2D7
330
2
100
AcDbEntity
  8
2-t. Schiebtreppe
100
AcDbText
 10
204.1618014402442
 20
2347.264059342347
 30
0.0
 40
1.26
  1
Konstruktionsdecke
 50
90.0
  7
TECHNICBOLD
100
AcDbText
  0
TEXT
  5
2D8
330
2
100
AcDbEntity
  8
2-t. Schiebtreppe
100
AcDbText
 10
202.1536764402452
 20
2347.264059342347
 30
0.0
 40
1.26
  1
Beton oder
 50
90.0
  7
TECHNICBOLD
100
AcDbText
  0
LINE
  5
2D9
330
2
100
AcDbEntity
  8
2-t. Schiebtreppe
100
AcDbLine
 10
88.47239783404896
 20
2368.019595061511
 30
0.0
 11
191.8598978340489
 21
2368.019595061511
 31
0.0
  0
LWPOLYLINE
  5
2DA
330
2
100
AcDbEntity
  8
2-t. Schiebtreppe
100
AcDbPolyline
 90
        4
 70
     1
 43
0.0
 10
79.24739783404897
 20
2340.119595061511
 10
85.77239783404895
 20
2340.119595061511
 10
85.77239783404895
 20
2341.019595061511
 10
79.24739783404897
 20
2341.019595061511
  0
LWPOLYLINE
  5
2DB
330
2
100
AcDbEntity
  8
2-t. Schiebtreppe
100
AcDbPolyline
 90
        4
 70
     1
 43
0.0
 10
194.3348978340489
 20
2340.119595061511
 10
201.084897834049
 20
2340.119595061511
 10
201.084897834049
 20
2341.019595061511
 10
194.3348978340489
 20
2341.019595061511
  0
LINE
  5
2DC
330
2
100
AcDbEntity
  8
2-t. Schiebtreppe
100
AcDbLine
 10
83.93527283404893
 20
2361.863595061511
 30
0.0
 11
83.93527283404893
 21
2353.313595061511
 31
0.0
  0
LINE
  5
2DD
330
2
100
AcDbEntity
  8
2-t. Schiebtreppe
100
AcDbLine
 10
196.4003978340489
 20
2361.86359506151
 30
0.0
 11
196.4003978340489
 21
2353.313595061511
 31
0.0
  0
LWPOLYLINE
  5
2DE
330
2
100
AcDbEntity
  8
2-t. Schiebtreppe
100
AcDbPolyline
 90
       14
 70
     0
 43
0.0
 10
85.77239783404895
 20
2342.686532999856
 10
85.77239783404895
 20
2344.732095061511
 10
86.78489783404897
 20
2344.732095061511
 10
86.78489783404897
 20
2346.532095061512
 10
87.58364783404919
 20
2346.532095061512
 10
87.58364783404919
 20
2347.094595061511
 10
87.92114783404921
 20
2347.094595061511
 10
87.92114783404921
 20
2346.532095061512
 10
88.47239783404896
 20
2346.532095061512
 10
88.47239783404896
 20
2348.894595061511
 10
84.19739783404896
 20
2348.894595061511
 10
84.19739783404896
 20
2341.019595061511
 10
85.77239783404895
 20
2341.019595061511
 10
85.77239783404895
 20
2342.032095061512
  0
LWPOLYLINE
  5
2DF
330
2
100
AcDbEntity
  8
2-t. Schiebtreppe
100
AcDbPolyline
 90
       13
 70
     0
 43
0.0
 10
194.3348978340489
 20
2341.019595061511
 10
194.3348978340489
 20
2344.732095061511
 10
193.5473978340489
 20
2344.732095061511
 10
193.5473978340489
 20
2346.532095061512
 10
192.7486478340487
 20
2346.532095061512
 10
192.7486478340487
 20
2347.094595061511
 10
192.4111478340487
 20
2347.094595061511
 10
192.4111478340487
 20
2346.532095061512
 10
191.8598978340489
 20
2346.532095061512
 10
191.8598978340489
 20
2348.894595061511
 10
196.1348978340489
 20
2348.894595061511
 10
196.1348978340489
 20
2341.019595061511
 10
194.3348978340489
 20
2341.019595061511
  0
ELLIPSE
  5
2E0
330
2
100
AcDbEntity
  8
2-t. Schiebtreppe
100
AcDbEllipse
 10
87.75239783404925
 20
2346.363345061512
 30
0.0
 11
0.675
 21
0.0000000000000003
 31
0.0
210
0.0
220
0.0
230
1.0
 40
0.25
 41
0.0
 42
6.283185307179586
  0
LWPOLYLINE
  5
2E1
330
2
100
AcDbEntity
  8
2-t. Schiebtreppe
100
AcDbPolyline
 90
        4
 70
     1
 43
0.0
 10
86.78489783404897
 20
2344.732095061511
 10
86.98739783404892
 20
2344.732095061511
 10
86.98739783404892
 20
2346.532095061512
 10
86.78489783404897
 20
2346.532095061512
  0
LWPOLYLINE
  5
2E2
330
2
100
AcDbEntity
  8
2-t. Schiebtreppe
100
AcDbPolyline
 90
        4
 70
     1
 43
0.0
 10
85.99739783404897
 20
2342.932095061511
 10
86.19989783404893
 20
2343.111813682625
 10
86.19989783404893
 20
2344.732095061511
 10
85.99739783404897
 20
2344.732095061511
  0
LWPOLYLINE
  5
2E3
330
2
100
AcDbEntity
  8
2-t. Schiebtreppe
100
AcDbPolyline
 90
        4
 70
     0
 43
0.0
 10
85.77239783404895
 20
2342.032095061512
 10
85.77239783404895
 20
2340.119595061511
 10
85.99739783404897
 20
2340.119595061511
 10
85.99739783404897
 20
2342.032095061512
  0
LWPOLYLINE
  5
2E4
330
2
100
AcDbEntity
  8
2-t. Schiebtreppe
100
AcDbPolyline
 90
        4
 70
     0
 43
0.0
 10
85.99739783404897
 20
2342.939805380304
 10
85.99739783404897
 20
2344.732095061511
 10
85.77239783404895
 20
2344.732095061511
 10
85.77239783404895
 20
2342.686532999856
  0
ELLIPSE
  5
2E5
330
2
100
AcDbEntity
  8
2-t. Schiebtreppe
100
AcDbEllipse
 10
192.5798978340487
 20
2346.363345061512
 30
0.0
 11
0.675
 21
0.0000000000000003
 31
0.0
210
0.0
220
0.0
230
1.0
 40
0.25
 41
0.0
 42
6.283185307179586
  0
LWPOLYLINE
  5
2E6
330
2
100
AcDbEntity
  8
2-t. Schiebtreppe
100
AcDbPolyline
 90
        4
 70
     1
 43
0.0
 10
193.3448978340489
 20
2344.732095061511
 10
193.5473978340489
 20
2344.732095061511
 10
193.5473978340489
 20
2346.532095061512
 10
193.3448978340489
 20
2346.532095061512
  0
LWPOLYLINE
  5
2E7
330
2
100
AcDbEntity
  8
2-t. Schiebtreppe
100
AcDbPolyline
 90
        4
 70
     1
 43
0.0
 10
193.963647834049
 20
2342.369595061511
 10
194.1661478340489
 20
2342.369595061511
 10
194.1661478340489
 20
2344.169595061512
 10
193.963647834049
 20
2344.169595061512
  0
LWPOLYLINE
  5
2E8
330
2
100
AcDbEntity
  8
2-t. Schiebtreppe
100
AcDbPolyline
 90
        8
 70
     0
 43
0.0
 10
194.166147834049
 20
2344.169595061512
 10
194.334897834049
 20
2344.169595061512
 10
194.334897834049
 20
2340.794595061511
 42
-3.732050807568986
 10
194.138022834049
 20
2341.135592564251
 10
194.166147834049
 20
2341.117726710379
 10
194.0697192626206
 20
2340.979241718007
 42
4.075101114960545
 10
194.166147834049
 20
2340.794595061511
 10
194.166147834049
 20
2344.169595061512
  0
ARC
  5
2E9
330
2
100
AcDbEntity
  8
2-t. Schiebtreppe
100
AcDbCircle
 10
193.9411478340489
 20
2340.794595061511
 30
0.0
 40
0.3937500000000895
100
AcDbArc
 50
180.0
 51
120.0000000000029
  0
LINE
  5
2EA
330
2
100
AcDbEntity
  8
2-t. Schiebtreppe
100
AcDbLine
 10
193.7442728340488
 20
2341.135592564251
 30
0.0
 11
193.7161478340494
 21
2341.117726710378
 31
0.0
  0
LINE
  5
2EB
330
2
100
AcDbEntity
  8
2-t. Schiebtreppe
100
AcDbLine
 10
88.47239783404896
 20
2346.532095061512
 30
0.0
 11
191.8598978340489
 21
2346.532095061512
 31
0.0
  0
LINE
  5
2EC
330
2
100
AcDbEntity
  8
2-t. Schiebtreppe
100
AcDbLine
 10
194.3348978340489
 20
2340.119595061511
 30
0.0
 11
85.99739783404897
 21
2340.119595061511
 31
0.0
  0
LWPOLYLINE
  5
2ED
330
2
100
AcDbEntity
  8
2-t. Schiebtreppe
100
AcDbPolyline
 90
        4
 70
     1
 43
0.0
 10
196.1348978340489
 20
2342.144595061511
 10
196.6973978340489
 20
2342.144595061511
 10
196.6973978340489
 20
2358.457095061512
 10
196.1348978340489
 20
2358.457095061512
  0
LINE
  5
2EE
330
2
100
AcDbEntity
  8
2-t. Schiebtreppe
100
AcDbLine
 10
190.7872699439086
 20
2342.017012442803
 30
0.0
 11
190.7159531122398
 21
2341.86407300374
 31
0.0
  0
LINE
  5
2EF
330
2
100
AcDbEntity
  8
2-t. Schiebtreppe
100
AcDbLine
 10
190.7159531122398
 20
2341.86407300374
 30
0.0
 11
193.7747418934885
 21
2340.437736370365
 31
0.0
  0
LWPOLYLINE
  5
2F0
330
2
100
AcDbEntity
  8
2-t. Schiebtreppe
100
AcDbPolyline
 90
        2
 70
     0
 43
0.0
 10
193.5532019955504
 20
2340.727237145185
 10
190.7872699439086
 20
2342.017012442803
  0
LWPOLYLINE
  5
2F1
330
2
100
AcDbEntity
  8
2-t. Schiebtreppe
100
AcDbPolyline
 90
        4
 70
     1
 43
0.0
 10
188.6429570712614
 20
2342.210076853557
 10
143.9986204466283
 20
2246.469988000473
 10
144.4064589507948
 20
2246.27980978269
 10
189.0507955754279
 20
2342.019898635774
  0
LWPOLYLINE
  5
2F2
330
2
100
AcDbEntity
  8
2-t. Schiebtreppe
100
AcDbPolyline
 90
        6
 70
     1
 43
0.0
 10
148.5237610198229
 20
2250.690511107012
 10
150.7056970171138
 20
2249.673057641871
 10
192.0694593849846
 20
2338.377932298083
 10
188.194993595403
 20
2340.184625367025
 10
145.2622609308197
 20
2248.115083051439
 10
146.9547907231105
 20
2247.325843447638
  0
LWPOLYLINE
  5
2F3
330
2
100
AcDbEntity
  8
2-t. Schiebtreppe
100
AcDbPolyline
 90
        6
 70
     0
 43
0.0
 10
150.2525606594072
 20
2247.636512874416
 10
193.5708226414052
 20
2340.532825479257
 10
193.1629841372387
 20
2340.723003697041
 10
147.9481128592557
 20
2243.759399331457
 10
148.3559513634221
 20
2243.569221113673
 10
149.4919749617784
 20
2246.005431582211
  0
LWPOLYLINE
  5
2F4
330
2
100
AcDbEntity
  8
2-t. Schiebtreppe
100
AcDbPolyline
 90
        9
 70
     0
 43
0.0
 10
145.2622609308197
 20
2248.115083051439
 10
144.4064589507948
 20
2246.27980978269
 10
145.5280148372526
 20
2245.756819683785
 10
145.1952029561318
 20
2245.043102301494
 10
145.399122208215
 20
2244.948013192603
 10
145.4942113171066
 20
2245.151932444686
 10
145.8612659708564
 20
2244.980772048681
 10
146.9547907231106
 20
2247.325843447638
 10
145.2622609308197
 20
2248.115083051439
  0
LWPOLYLINE
  5
2F5
330
2
100
AcDbEntity
  8
2-t. Schiebtreppe
100
AcDbPolyline
 90
        4
 70
     0
 43
0.0
 10
146.2620668451031
 20
2244.545615499858
 10
145.399122208215
 20
2244.948013192603
 10
145.4942113171066
 20
2245.151932444686
 10
146.2732043307084
 20
2244.788682036794
  0
LWPOLYLINE
  5
2F6
330
2
100
AcDbEntity
  8
2-t. Schiebtreppe
100
AcDbPolyline
 90
        4
 70
     0
 43
0.0
 10
147.533403837939
 20
2244.201041355769
 10
148.0432019681471
 20
2243.96331858354
 10
147.9481128592555
 20
2243.759399331457
 10
147.4383147290473
 20
2243.997122103686
  0
LINE
  5
2F7
330
2
100
AcDbEntity
  8
2-t. Schiebtreppe
100
AcDbLine
 10
149.7010838933368
 20
2247.518657845497
 30
0.0
 11
152.2043888843954
 21
2248.05363429467
 31
0.0
  0
LINE
  5
2F8
330
2
100
AcDbEntity
  8
2-t. Schiebtreppe
100
AcDbLine
 10
148.9465485026177
 20
2245.900551478331
 30
0.0
 11
154.8085786553133
 21
2247.027761794285
 31
0.0
  0
ARC
  5
2F9
330
2
100
AcDbEntity
  8
2-t. Schiebtreppe
100
AcDbCircle
 10
154.5057796455067
 20
2248.7450203136
 30
0.0
 40
1.74375
100
AcDbArc
 50
280.0000000000199
 51
180.6310844215284
  0
ARC
  5
2FA
330
2
100
AcDbEntity
  8
2-t. Schiebtreppe
100
AcDbCircle
 10
152.0871763644701
 20
2248.718379527954
 30
0.0
 40
0.675
100
AcDbArc
 50
280.0000000000199
 51
0.6310844215284396
  0
ARC
  5
2FB
330
2
100
AcDbEntity
  8
2-t. Schiebtreppe
100
AcDbCircle
 10
148.4182598247015
 20
2244.568605600756
 30
0.0
 40
2.156315540455191
100
AcDbArc
 50
174.1421164656717
 51
227.5502558397777
  0
LINE
  5
2FC
330
2
100
AcDbEntity
  8
2-t. Schiebtreppe
100
AcDbLine
 10
146.9628691845891
 20
2242.97752584327
 30
0.0
 11
147.533403837939
 21
2244.201041355769
 31
0.0
  0
LWPOLYLINE
  5
2FD
330
2
100
AcDbEntity
  8
2-t. Schiebtreppe
100
AcDbPolyline
 90
        7
 70
     0
 43
0.0
 10
188.194993595403
 20
2340.184625367025
 10
189.0507955754279
 20
2342.019898635774
 10
190.1723514618857
 20
2341.49690853687
 10
190.4100742341149
 20
2342.006706667078
 10
193.1629841372387
 20
2340.723003697041
 10
192.0694593849846
 20
2338.377932298083
 10
188.194993595403
 20
2340.184625367025
  0
LWPOLYLINE
  5
2FE
330
2
100
AcDbEntity
  8
2-t. Schiebtreppe
100
AcDbPolyline
 90
        4
 70
     1
 43
0.0
 10
144.8544224266544
 20
2248.305261269221
 10
148.1825412378624
 20
2255.442435092135
 10
146.6531468472381
 20
2256.155603408823
 10
143.3250280360301
 20
2249.018429585909
  0
LWPOLYLINE
  5
2FF
330
2
100
AcDbEntity
  8
2-t. Schiebtreppe
100
AcDbPolyline
 90
        4
 70
     1
 43
0.0
 10
187.0264422201045
 20
2338.743449568141
 10
187.977333309021
 20
2340.782642088974
 10
183.8989482673561
 20
2342.684424266807
 10
182.9480571784396
 20
2340.645231745975
  0
LWPOLYLINE
  5
300
330
2
100
AcDbEntity
  8
2-t. Schiebtreppe
100
AcDbPolyline
 90
        4
 70
     1
 43
0.0
 10
143.3250280360301
 20
2249.018429585909
 10
144.2759191249467
 20
2251.057622106741
 10
141.7269284739061
 20
2252.246235967887
 10
140.7760373849896
 20
2250.207043447055
  0
LWPOLYLINE
  5
301
330
2
100
AcDbEntity
  8
2-t. Schiebtreppe
100
AcDbPolyline
 90
        4
 70
     1
 43
0.0
 10
140.7760373849896
 20
2250.207043447055
 10
183.8989482673562
 20
2342.684424266807
 10
183.0832712590231
 20
2343.064780702373
 10
139.9603603766565
 20
2250.587399882622
  0
LINE
  5
302
330
2
100
AcDbEntity
  8
Plankopf
 62
     0
100
AcDbLine
 10
1297.6
 20
2082.0
 30
0.0
 11
1297.6
 21
2117.7632
 31
0.0
  0
TEXT
  5
303
330
2
100
AcDbEntity
  8
Plankopf
 62
     0
100
AcDbText
 10
1303.793488042719
 20
2108.986666666669
 30
0.0
 40
5.632
  1
Zeichnungs-Nr.
  7
TECHNICBOLD
100
AcDbText
  0
LINE
  5
304
330
2
100
AcDbEntity
  8
Beschriftung
100
AcDbLine
 10
1253.951999999999
 20
2207.4624
 30
0.0
 11
1353.951999999999
 21
2207.4624
 31
0.0
  0
MTEXT
  5
306
330
2
100
AcDbEntity
  8
Beschriftung
 62
     1
100
AcDbMText
 10
1302.599288555453
 20
2219.723885714581
 30
0.0
 40
10.0
 41
0.0
 46
0.0
 71
     5
 72
     1
  1
\A1;10 cm
  7
Arial
 73
     1
 44
1.0
  0
LINE
  5
308
330
2
100
AcDbEntity
  8
Beschriftung
100
AcDbLine
 10
1253.951999999999
 20
2210.462399999999
 30
0.0
 11
1253.951999999999
 21
2204.4624
 31
0.0
  0
LINE
  5
309
330
2
100
AcDbEntity
  8
Beschriftung
100
AcDbLine
 10
1353.951999999999
 20
2210.462399999999
 30
0.0
 11
1353.951999999999
 21
2204.4624
 31
0.0
  0
TEXT
  5
30A
102
{ACAD_XDICTIONARY
360
30B
102
}
330
2
100
AcDbEntity
  8
Plankopf
 62
     0
100
AcDbText
 10
970.3284290714218
 20
2160.454276299163
 30
0.0
 40
7.5
  1
Stand: Mai 14
  7
TECHNICBOLD
100
AcDbText
1001
AcadAnnotative
1000
AnnotativeData
1002
{
1070
     1
1070
     0
1002
}
  0
HATCH
  5
30E
330
2
100
AcDbEntity
  8
Bauseitig_Beton
100
AcDbHatch
 10
0.0
 20
0.0
 30
0.0
210
0.0
220
0.0
230
1.0
  2
ANSI31
 70
     0
 71
     1
 91
        1
 92
        7
 72
     0
 73
     1
 93
        4
 10
94.60336926743616
 20
2485.893391009475
 10
94.60336926743616
 20
2477.893391009475
 10
193.7999999999999
 20
2477.893391009475
 10
193.7999999999999
 20
2485.893391009475
 97
        1
330
30F
 75
     1
 76
     1
 52
0.0
 41
50.0
 77
     0
 78
     1
 53
45.0
 43
2.500000000000227
 44
2050.0
 45
-4.419417382415921
 46
4.419417382415922
 79
     0
 47
0.2285218501967519
 98
        1
 10
155.1884594205369
 20
2483.606751253734
1001
GradientColor1ACI
1070
     5
1001
GradientColor2ACI
1070
     2
1001
ACAD
1010
0.0
1020
0.0
1030
0.0
  0
LWPOLYLINE
  5
30F
102
{ACAD_REACTORS
330
30E
102
}
330
2
100
AcDbEntity
  8
Bauseitig_Beton
100
AcDbPolyline
 90
        4
 70
     1
 43
0.0
 10
94.60336926743616
 20
2485.893391009475
 10
193.7999999999999
 20
2485.893391009475
 10
193.7999999999999
 20
2477.893391009475
 10
94.60336926743616
 20
2477.893391009475
  0
LWPOLYLINE
  5
310
102
{ACAD_REACTORS
330
66
102
}
330
2
100
AcDbEntity
  8
Bauseitig_Beton
100
AcDbPolyline
 90
        4
 70
     1
 43
0.0
 10
193.7999999999999
 20
2485.893391009476
 10
94.60336926743616
 20
2485.893391009476
 10
94.60336926743616
 20
2717.893391009476
 10
193.7999999999999
 20
2717.893391009476
  0
MTEXT
  5
311
102
{ACAD_XDICTIONARY
360
312
102
}
330
2
100
AcDbEntity
  8
Bauseitig_Beton
 62
     1
100
AcDbMText
 10
141.0427052818929
 20
2567.657454298599
 30
0.0
 40
10.0
 41
37.77744553950834
 46
0.0
 71
     1
 72
     5
  1
Beton
  7
TECHNICBOLD
 11
0.0000000000000001
 21
1.0
 31
0.0
 73
     1
 44
1.0
 90
        3
 63
   256
 45
1.199999999999999
441
        0
1001
AcadAnnotative
1000
AnnotativeData
1002
{
1070
     1
1070
     0
1002
}
1001
ACAD
1000
ACAD_MTEXT_COLUMN_INFO_BEGIN
1070
    75
1070
     2
1070
    79
1070
     0
1070
    76
1070
     1
1070
    78
1070
     0
1070
    48
1040
37.77744553950834
1070
    49
1040
17.5
1070
    50
1070
     1
1040
0.0
1000
ACAD_MTEXT_COLUMN_INFO_END
  0
LWPOLYLINE
  5
315
330
2
100
AcDbEntity
  8
Bauseitig_Beton
100
AcDbPolyline
 90
        4
 70
     1
 43
0.0
 10
193.7999999999999
 20
2717.893391009476
 10
201.2999999999999
 20
2717.893391009476
 10
201.2999999999999
 20
2485.893391009475
 10
193.7999999999999
 20
2485.893391009476
  0
ARC
  5
316
330
2
100
AcDbEntity
  8
Bauseitig_Beton
100
AcDbCircle
 10
195.7999999999999
 20
2717.888272625835
 30
0.0
 40
2.0
100
AcDbArc
 50
179.8533689496797
 51
270.0
  0
LINE
  5
317
330
2
100
AcDbEntity
  8
Bauseitig_Beton
100
AcDbLine
 10
199.2999999999999
 20
2717.888272625835
 30
0.0
 11
195.7999999999999
 21
2715.888272625835
 31
0.0
  0
ARC
  5
318
330
2
100
AcDbEntity
  8
Bauseitig_Beton
100
AcDbCircle
 10
199.2999999999999
 20
2715.888272625835
 30
0.0
 40
2.0
100
AcDbArc
 50
270.0
 51
90.0
  0
ARC
  5
319
330
2
100
AcDbEntity
  8
Bauseitig_Beton
100
AcDbCircle
 10
195.7999999999999
 20
2713.888272625835
 30
0.0
 40
2.0
100
AcDbArc
 50
90.0
 51
270.0
  0
LINE
  5
31A
330
2
100
AcDbEntity
  8
Bauseitig_Beton
100
AcDbLine
 10
195.7999999999999
 20
2715.888272625835
 30
0.0
 11
199.2999999999999
 21
2713.888272625835
 31
0.0
  0
LINE
  5
31B
330
2
100
AcDbEntity
  8
Bauseitig_Beton
100
AcDbLine
 10
199.2999999999999
 20
2713.888272625835
 30
0.0
 11
195.7999999999999
 21
2711.888272625835
 31
0.0
  0
ARC
  5
31C
330
2
100
AcDbEntity
  8
Bauseitig_Beton
100
AcDbCircle
 10
199.2999999999999
 20
2711.888272625835
 30
0.0
 40
2.0
100
AcDbArc
 50
270.0
 51
90.0
  0
ARC
  5
31D
330
2
100
AcDbEntity
  8
Bauseitig_Beton
100
AcDbCircle
 10
195.7999999999999
 20
2709.888272625835
 30
0.0
 40
2.0
100
AcDbArc
 50
90.0
 51
270.0
  0
LINE
  5
31E
330
2
100
AcDbEntity
  8
Bauseitig_Beton
100
AcDbLine
 10
195.7999999999999
 20
2711.888272625835
 30
0.0
 11
199.2999999999999
 21
2709.888272625835
 31
0.0
  0
LINE
  5
31F
330
2
100
AcDbEntity
  8
Bauseitig_Beton
100
AcDbLine
 10
199.2999999999999
 20
2709.888272625835
 30
0.0
 11
195.7999999999999
 21
2707.888272625835
 31
0.0
  0
ARC
  5
320
330
2
100
AcDbEntity
  8
Bauseitig_Beton
100
AcDbCircle
 10
199.2999999999999
 20
2707.888272625835
 30
0.0
 40
2.0
100
AcDbArc
 50
270.0
 51
90.0
  0
ARC
  5
321
330
2
100
AcDbEntity
  8
Bauseitig_Beton
100
AcDbCircle
 10
195.7999999999999
 20
2705.888272625835
 30
0.0
 40
2.0
100
AcDbArc
 50
90.0
 51
270.0
  0
LINE
  5
322
330
2
100
AcDbEntity
  8
Bauseitig_Beton
100
AcDbLine
 10
195.7999999999999
 20
2707.888272625835
 30
0.0
 11
199.2999999999999
 21
2705.888272625835
 31
0.0
  0
LINE
  5
323
330
2
100
AcDbEntity
  8
Bauseitig_Beton
100
AcDbLine
 10
199.2999999999999
 20
2705.888272625835
 30
0.0
 11
195.7999999999999
 21
2703.888272625835
 31
0.0
  0
ARC
  5
324
330
2
100
AcDbEntity
  8
Bauseitig_Beton
100
AcDbCircle
 10
199.2999999999999
 20
2703.888272625835
 30
0.0
 40
2.0
100
AcDbArc
 50
270.0
 51
90.0
  0
ARC
  5
325
330
2
100
AcDbEntity
  8
Bauseitig_Beton
100
AcDbCircle
 10
195.7999999999999
 20
2701.888272625835
 30
0.0
 40
2.0
100
AcDbArc
 50
90.0
 51
270.0
  0
LINE
  5
326
330
2
100
AcDbEntity
  8
Bauseitig_Beton
100
AcDbLine
 10
195.7999999999999
 20
2703.888272625835
 30
0.0
 11
199.2999999999999
 21
2701.888272625835
 31
0.0
  0
LINE
  5
327
330
2
100
AcDbEntity
  8
Bauseitig_Beton
100
AcDbLine
 10
199.2999999999999
 20
2701.888272625835
 30
0.0
 11
195.7999999999999
 21
2699.888272625835
 31
0.0
  0
ARC
  5
328
330
2
100
AcDbEntity
  8
Bauseitig_Beton
100
AcDbCircle
 10
199.2999999999999
 20
2699.888272625835
 30
0.0
 40
2.0
100
AcDbArc
 50
270.0
 51
90.0
  0
ARC
  5
329
330
2
100
AcDbEntity
  8
Bauseitig_Beton
100
AcDbCircle
 10
195.7999999999999
 20
2697.888272625835
 30
0.0
 40
2.0
100
AcDbArc
 50
90.0
 51
270.0
  0
LINE
  5
32A
330
2
100
AcDbEntity
  8
Bauseitig_Beton
100
AcDbLine
 10
195.7999999999999
 20
2699.888272625835
 30
0.0
 11
199.2999999999999
 21
2697.888272625835
 31
0.0
  0
LINE
  5
32B
330
2
100
AcDbEntity
  8
Bauseitig_Beton
100
AcDbLine
 10
199.2999999999999
 20
2697.888272625835
 30
0.0
 11
195.7999999999999
 21
2695.888272625835
 31
0.0
  0
ARC
  5
32C
330
2
100
AcDbEntity
  8
Bauseitig_Beton
100
AcDbCircle
 10
199.2999999999999
 20
2695.888272625835
 30
0.0
 40
2.0
100
AcDbArc
 50
270.0
 51
90.0
  0
ARC
  5
32D
330
2
100
AcDbEntity
  8
Bauseitig_Beton
100
AcDbCircle
 10
195.7999999999999
 20
2693.888272625835
 30
0.0
 40
2.0
100
AcDbArc
 50
90.0
 51
270.0
  0
LINE
  5
32E
330
2
100
AcDbEntity
  8
Bauseitig_Beton
100
AcDbLine
 10
195.7999999999999
 20
2695.888272625835
 30
0.0
 11
199.2999999999999
 21
2693.888272625835
 31
0.0
  0
LINE
  5
32F
330
2
100
AcDbEntity
  8
Bauseitig_Beton
100
AcDbLine
 10
199.2999999999999
 20
2693.888272625835
 30
0.0
 11
195.7999999999999
 21
2691.888272625835
 31
0.0
  0
ARC
  5
330
330
2
100
AcDbEntity
  8
Bauseitig_Beton
100
AcDbCircle
 10
199.2999999999999
 20
2691.888272625835
 30
0.0
 40
2.0
100
AcDbArc
 50
270.0
 51
90.0
  0
ARC
  5
331
330
2
100
AcDbEntity
  8
Bauseitig_Beton
100
AcDbCircle
 10
195.7999999999999
 20
2689.888272625835
 30
0.0
 40
2.0
100
AcDbArc
 50
90.0
 51
270.0
  0
LINE
  5
332
330
2
100
AcDbEntity
  8
Bauseitig_Beton
100
AcDbLine
 10
195.7999999999999
 20
2691.888272625835
 30
0.0
 11
199.2999999999999
 21
2689.888272625835
 31
0.0
  0
LINE
  5
333
330
2
100
AcDbEntity
  8
Bauseitig_Beton
100
AcDbLine
 10
199.2999999999999
 20
2689.888272625835
 30
0.0
 11
195.7999999999999
 21
2687.888272625835
 31
0.0
  0
ARC
  5
334
330
2
100
AcDbEntity
  8
Bauseitig_Beton
100
AcDbCircle
 10
199.2999999999999
 20
2687.888272625835
 30
0.0
 40
2.0
100
AcDbArc
 50
270.0
 51
90.0
  0
ARC
  5
335
330
2
100
AcDbEntity
  8
Bauseitig_Beton
100
AcDbCircle
 10
195.7999999999999
 20
2685.888272625835
 30
0.0
 40
2.0
100
AcDbArc
 50
90.0
 51
270.0
  0
LINE
  5
336
330
2
100
AcDbEntity
  8
Bauseitig_Beton
100
AcDbLine
 10
195.7999999999999
 20
2687.888272625835
 30
0.0
 11
199.2999999999999
 21
2685.888272625835
 31
0.0
  0
LINE
  5
337
330
2
100
AcDbEntity
  8
Bauseitig_Beton
100
AcDbLine
 10
199.2999999999999
 20
2685.888272625835
 30
0.0
 11
195.7999999999999
 21
2683.888272625835
 31
0.0
  0
ARC
  5
338
330
2
100
AcDbEntity
  8
Bauseitig_Beton
100
AcDbCircle
 10
199.2999999999999
 20
2683.888272625835
 30
0.0
 40
2.0
100
AcDbArc
 50
270.0
 51
90.0
  0
ARC
  5
339
330
2
100
AcDbEntity
  8
Bauseitig_Beton
100
AcDbCircle
 10
195.7999999999999
 20
2681.888272625835
 30
0.0
 40
2.0
100
AcDbArc
 50
90.0
 51
270.0
  0
LINE
  5
33A
330
2
100
AcDbEntity
  8
Bauseitig_Beton
100
AcDbLine
 10
195.7999999999999
 20
2683.888272625835
 30
0.0
 11
199.2999999999999
 21
2681.888272625835
 31
0.0
  0
LINE
  5
33B
330
2
100
AcDbEntity
  8
Bauseitig_Beton
100
AcDbLine
 10
199.2999999999999
 20
2681.888272625835
 30
0.0
 11
195.7999999999999
 21
2679.888272625835
 31
0.0
  0
ARC
  5
33C
330
2
100
AcDbEntity
  8
Bauseitig_Beton
100
AcDbCircle
 10
199.2999999999999
 20
2679.888272625835
 30
0.0
 40
2.0
100
AcDbArc
 50
270.0
 51
90.0
  0
ARC
  5
33D
330
2
100
AcDbEntity
  8
Bauseitig_Beton
100
AcDbCircle
 10
195.7999999999999
 20
2677.888272625835
 30
0.0
 40
2.0
100
AcDbArc
 50
90.0
 51
270.0
  0
LINE
  5
33E
330
2
100
AcDbEntity
  8
Bauseitig_Beton
100
AcDbLine
 10
195.7999999999999
 20
2679.888272625835
 30
0.0
 11
199.2999999999999
 21
2677.888272625835
 31
0.0
  0
LINE
  5
33F
330
2
100
AcDbEntity
  8
Bauseitig_Beton
100
AcDbLine
 10
199.2999999999999
 20
2677.888272625835
 30
0.0
 11
195.7999999999999
 21
2675.888272625835
 31
0.0
  0
ARC
  5
340
330
2
100
AcDbEntity
  8
Bauseitig_Beton
100
AcDbCircle
 10
199.2999999999999
 20
2675.888272625835
 30
0.0
 40
2.0
100
AcDbArc
 50
270.0
 51
90.0
  0
ARC
  5
341
330
2
100
AcDbEntity
  8
Bauseitig_Beton
100
AcDbCircle
 10
195.7999999999999
 20
2673.888272625835
 30
0.0
 40
2.0
100
AcDbArc
 50
90.0
 51
270.0
  0
LINE
  5
342
330
2
100
AcDbEntity
  8
Bauseitig_Beton
100
AcDbLine
 10
195.7999999999999
 20
2675.888272625835
 30
0.0
 11
199.2999999999999
 21
2673.888272625835
 31
0.0
  0
LINE
  5
343
330
2
100
AcDbEntity
  8
Bauseitig_Beton
100
AcDbLine
 10
199.2999999999999
 20
2673.888272625835
 30
0.0
 11
195.7999999999999
 21
2671.888272625835
 31
0.0
  0
ARC
  5
344
330
2
100
AcDbEntity
  8
Bauseitig_Beton
100
AcDbCircle
 10
199.2999999999999
 20
2671.888272625835
 30
0.0
 40
2.0
100
AcDbArc
 50
270.0
 51
90.0
  0
ARC
  5
345
330
2
100
AcDbEntity
  8
Bauseitig_Beton
100
AcDbCircle
 10
195.7999999999999
 20
2669.888272625835
 30
0.0
 40
2.0
100
AcDbArc
 50
90.0
 51
270.0
  0
LINE
  5
346
330
2
100
AcDbEntity
  8
Bauseitig_Beton
100
AcDbLine
 10
195.7999999999999
 20
2671.888272625835
 30
0.0
 11
199.2999999999999
 21
2669.888272625835
 31
0.0
  0
LINE
  5
347
330
2
100
AcDbEntity
  8
Bauseitig_Beton
100
AcDbLine
 10
199.2999999999999
 20
2669.888272625835
 30
0.0
 11
195.7999999999999
 21
2667.888272625835
 31
0.0
  0
ARC
  5
348
330
2
100
AcDbEntity
  8
Bauseitig_Beton
100
AcDbCircle
 10
199.2999999999999
 20
2667.888272625835
 30
0.0
 40
2.0
100
AcDbArc
 50
270.0
 51
90.0
  0
ARC
  5
349
330
2
100
AcDbEntity
  8
Bauseitig_Beton
100
AcDbCircle
 10
195.7999999999999
 20
2665.888272625835
 30
0.0
 40
2.0
100
AcDbArc
 50
90.0
 51
270.0
  0
LINE
  5
34A
330
2
100
AcDbEntity
  8
Bauseitig_Beton
100
AcDbLine
 10
195.7999999999999
 20
2667.888272625835
 30
0.0
 11
199.2999999999999
 21
2665.888272625835
 31
0.0
  0
LINE
  5
34B
330
2
100
AcDbEntity
  8
Bauseitig_Beton
100
AcDbLine
 10
199.2999999999999
 20
2665.888272625835
 30
0.0
 11
195.7999999999999
 21
2663.888272625835
 31
0.0
  0
ARC
  5
34C
330
2
100
AcDbEntity
  8
Bauseitig_Beton
100
AcDbCircle
 10
199.2999999999999
 20
2663.888272625835
 30
0.0
 40
2.0
100
AcDbArc
 50
339.0568897684515
 51
90.0
  0
ARC
  5
34D
330
2
100
AcDbEntity
  8
Bauseitig_Beton
100
AcDbCircle
 10
195.7999999999999
 20
2661.888272625835
 30
0.0
 40
2.0
100
AcDbArc
 50
90.0
 51
140.0170822246424
  0
LINE
  5
34E
330
2
100
AcDbEntity
  8
Bauseitig_Beton
100
AcDbLine
 10
195.7999999999999
 20
2663.888272625835
 30
0.0
 11
197.0510428286404
 21
2663.173391009469
 31
0.0
  0
ARC
  5
34F
330
2
100
AcDbEntity
  8
Bauseitig_Beton
100
AcDbCircle
 10
199.2999999999999
 20
2587.888272625835
 30
0.0
 40
2.0
100
AcDbArc
 50
270.0
 51
339.0568897684515
  0
ARC
  5
350
330
2
100
AcDbEntity
  8
Bauseitig_Beton
100
AcDbCircle
 10
195.7999999999999
 20
2585.888272625835
 30
0.0
 40
2.0
100
AcDbArc
 50
140.0170822246424
 51
270.0
  0
LINE
  5
351
330
2
100
AcDbEntity
  8
Bauseitig_Beton
100
AcDbLine
 10
197.0510428286404
 20
2587.173391009469
 30
0.0
 11
199.2999999999999
 21
2585.888272625835
 31
0.0
  0
LINE
  5
352
330
2
100
AcDbEntity
  8
Bauseitig_Beton
100
AcDbLine
 10
199.2999999999999
 20
2585.888272625835
 30
0.0
 11
195.7999999999999
 21
2583.888272625835
 31
0.0
  0
ARC
  5
353
330
2
100
AcDbEntity
  8
Bauseitig_Beton
100
AcDbCircle
 10
199.2999999999999
 20
2583.888272625835
 30
0.0
 40
2.0
100
AcDbArc
 50
270.0
 51
90.0
  0
ARC
  5
354
330
2
100
AcDbEntity
  8
Bauseitig_Beton
100
AcDbCircle
 10
195.7999999999999
 20
2581.888272625835
 30
0.0
 40
2.0
100
AcDbArc
 50
90.0
 51
270.0
  0
LINE
  5
355
330
2
100
AcDbEntity
  8
Bauseitig_Beton
100
AcDbLine
 10
195.7999999999999
 20
2583.888272625835
 30
0.0
 11
199.2999999999999
 21
2581.888272625835
 31
0.0
  0
LINE
  5
356
330
2
100
AcDbEntity
  8
Bauseitig_Beton
100
AcDbLine
 10
199.2999999999999
 20
2581.888272625835
 30
0.0
 11
195.7999999999999
 21
2579.888272625835
 31
0.0
  0
ARC
  5
357
330
2
100
AcDbEntity
  8
Bauseitig_Beton
100
AcDbCircle
 10
199.2999999999999
 20
2579.888272625835
 30
0.0
 40
2.0
100
AcDbArc
 50
270.0
 51
90.0
  0
ARC
  5
358
330
2
100
AcDbEntity
  8
Bauseitig_Beton
100
AcDbCircle
 10
195.7999999999999
 20
2577.888272625835
 30
0.0
 40
2.0
100
AcDbArc
 50
90.0
 51
270.0
  0
LINE
  5
359
330
2
100
AcDbEntity
  8
Bauseitig_Beton
100
AcDbLine
 10
195.7999999999999
 20
2579.888272625835
 30
0.0
 11
199.2999999999999
 21
2577.888272625835
 31
0.0
  0
LINE
  5
35A
330
2
100
AcDbEntity
  8
Bauseitig_Beton
100
AcDbLine
 10
199.2999999999999
 20
2577.888272625835
 30
0.0
 11
195.7999999999999
 21
2575.888272625835
 31
0.0
  0
ARC
  5
35B
330
2
100
AcDbEntity
  8
Bauseitig_Beton
100
AcDbCircle
 10
199.2999999999999
 20
2575.888272625835
 30
0.0
 40
2.0
100
AcDbArc
 50
270.0
 51
90.0
  0
ARC
  5
35C
330
2
100
AcDbEntity
  8
Bauseitig_Beton
100
AcDbCircle
 10
195.7999999999999
 20
2573.888272625835
 30
0.0
 40
2.0
100
AcDbArc
 50
90.0
 51
270.0
  0
LINE
  5
35D
330
2
100
AcDbEntity
  8
Bauseitig_Beton
100
AcDbLine
 10
195.7999999999999
 20
2575.888272625835
 30
0.0
 11
199.2999999999999
 21
2573.888272625835
 31
0.0
  0
LINE
  5
35E
330
2
100
AcDbEntity
  8
Bauseitig_Beton
100
AcDbLine
 10
199.2999999999999
 20
2573.888272625835
 30
0.0
 11
195.7999999999999
 21
2571.888272625835
 31
0.0
  0
ARC
  5
35F
330
2
100
AcDbEntity
  8
Bauseitig_Beton
100
AcDbCircle
 10
199.2999999999999
 20
2571.888272625835
 30
0.0
 40
2.0
100
AcDbArc
 50
270.0
 51
90.0
  0
ARC
  5
360
330
2
100
AcDbEntity
  8
Bauseitig_Beton
100
AcDbCircle
 10
195.7999999999999
 20
2569.888272625835
 30
0.0
 40
2.0
100
AcDbArc
 50
90.0
 51
270.0
  0
LINE
  5
361
330
2
100
AcDbEntity
  8
Bauseitig_Beton
100
AcDbLine
 10
195.7999999999999
 20
2571.888272625835
 30
0.0
 11
199.2999999999999
 21
2569.888272625835
 31
0.0
  0
LINE
  5
362
330
2
100
AcDbEntity
  8
Bauseitig_Beton
100
AcDbLine
 10
199.2999999999999
 20
2569.888272625835
 30
0.0
 11
195.7999999999999
 21
2567.888272625835
 31
0.0
  0
ARC
  5
363
330
2
100
AcDbEntity
  8
Bauseitig_Beton
100
AcDbCircle
 10
199.2999999999999
 20
2567.888272625835
 30
0.0
 40
2.0
100
AcDbArc
 50
270.0
 51
90.0
  0
ARC
  5
364
330
2
100
AcDbEntity
  8
Bauseitig_Beton
100
AcDbCircle
 10
195.7999999999999
 20
2565.888272625835
 30
0.0
 40
2.0
100
AcDbArc
 50
90.0
 51
270.0
  0
LINE
  5
365
330
2
100
AcDbEntity
  8
Bauseitig_Beton
100
AcDbLine
 10
195.7999999999999
 20
2567.888272625835
 30
0.0
 11
199.2999999999999
 21
2565.888272625835
 31
0.0
  0
LINE
  5
366
330
2
100
AcDbEntity
  8
Bauseitig_Beton
100
AcDbLine
 10
199.2999999999999
 20
2565.888272625835
 30
0.0
 11
195.7999999999999
 21
2563.888272625835
 31
0.0
  0
ARC
  5
367
330
2
100
AcDbEntity
  8
Bauseitig_Beton
100
AcDbCircle
 10
199.2999999999999
 20
2563.888272625835
 30
0.0
 40
2.0
100
AcDbArc
 50
270.0
 51
90.0
  0
ARC
  5
368
330
2
100
AcDbEntity
  8
Bauseitig_Beton
100
AcDbCircle
 10
195.7999999999999
 20
2561.888272625835
 30
0.0
 40
2.0
100
AcDbArc
 50
90.0
 51
270.0
  0
LINE
  5
369
330
2
100
AcDbEntity
  8
Bauseitig_Beton
100
AcDbLine
 10
195.7999999999999
 20
2563.888272625835
 30
0.0
 11
199.2999999999999
 21
2561.888272625835
 31
0.0
  0
LINE
  5
36A
330
2
100
AcDbEntity
  8
Bauseitig_Beton
100
AcDbLine
 10
199.2999999999999
 20
2561.888272625835
 30
0.0
 11
195.7999999999999
 21
2559.888272625835
 31
0.0
  0
ARC
  5
36B
330
2
100
AcDbEntity
  8
Bauseitig_Beton
100
AcDbCircle
 10
199.2999999999999
 20
2559.888272625835
 30
0.0
 40
2.0
100
AcDbArc
 50
270.0
 51
90.0
  0
ARC
  5
36C
330
2
100
AcDbEntity
  8
Bauseitig_Beton
100
AcDbCircle
 10
195.7999999999999
 20
2557.888272625835
 30
0.0
 40
2.0
100
AcDbArc
 50
90.0
 51
270.0
  0
LINE
  5
36D
330
2
100
AcDbEntity
  8
Bauseitig_Beton
100
AcDbLine
 10
195.7999999999999
 20
2559.888272625835
 30
0.0
 11
199.2999999999999
 21
2557.888272625835
 31
0.0
  0
LINE
  5
36E
330
2
100
AcDbEntity
  8
Bauseitig_Beton
100
AcDbLine
 10
199.2999999999999
 20
2557.888272625835
 30
0.0
 11
195.7999999999999
 21
2555.888272625835
 31
0.0
  0
ARC
  5
36F
330
2
100
AcDbEntity
  8
Bauseitig_Beton
100
AcDbCircle
 10
199.2999999999999
 20
2555.888272625835
 30
0.0
 40
2.0
100
AcDbArc
 50
270.0
 51
90.0
  0
ARC
  5
370
330
2
100
AcDbEntity
  8
Bauseitig_Beton
100
AcDbCircle
 10
195.7999999999999
 20
2553.888272625835
 30
0.0
 40
2.0
100
AcDbArc
 50
90.0
 51
270.0
  0
LINE
  5
371
330
2
100
AcDbEntity
  8
Bauseitig_Beton
100
AcDbLine
 10
195.7999999999999
 20
2555.888272625835
 30
0.0
 11
199.2999999999999
 21
2553.888272625835
 31
0.0
  0
LINE
  5
372
330
2
100
AcDbEntity
  8
Bauseitig_Beton
100
AcDbLine
 10
199.2999999999999
 20
2553.888272625835
 30
0.0
 11
195.7999999999999
 21
2551.888272625835
 31
0.0
  0
ARC
  5
373
330
2
100
AcDbEntity
  8
Bauseitig_Beton
100
AcDbCircle
 10
199.2999999999999
 20
2551.888272625835
 30
0.0
 40
2.0
100
AcDbArc
 50
270.0
 51
90.0
  0
ARC
  5
374
330
2
100
AcDbEntity
  8
Bauseitig_Beton
100
AcDbCircle
 10
195.7999999999999
 20
2549.888272625835
 30
0.0
 40
2.0
100
AcDbArc
 50
90.0
 51
270.0
  0
LINE
  5
375
330
2
100
AcDbEntity
  8
Bauseitig_Beton
100
AcDbLine
 10
195.7999999999999
 20
2551.888272625835
 30
0.0
 11
199.2999999999999
 21
2549.888272625835
 31
0.0
  0
LINE
  5
376
330
2
100
AcDbEntity
  8
Bauseitig_Beton
100
AcDbLine
 10
199.2999999999999
 20
2549.888272625835
 30
0.0
 11
195.7999999999999
 21
2547.888272625835
 31
0.0
  0
ARC
  5
377
330
2
100
AcDbEntity
  8
Bauseitig_Beton
100
AcDbCircle
 10
199.2999999999999
 20
2547.888272625835
 30
0.0
 40
2.0
100
AcDbArc
 50
270.0
 51
90.0
  0
ARC
  5
378
330
2
100
AcDbEntity
  8
Bauseitig_Beton
100
AcDbCircle
 10
195.7999999999999
 20
2545.888272625835
 30
0.0
 40
2.0
100
AcDbArc
 50
90.0
 51
270.0
  0
LINE
  5
379
330
2
100
AcDbEntity
  8
Bauseitig_Beton
100
AcDbLine
 10
195.7999999999999
 20
2547.888272625835
 30
0.0
 11
199.2999999999999
 21
2545.888272625835
 31
0.0
  0
LINE
  5
37A
330
2
100
AcDbEntity
  8
Bauseitig_Beton
100
AcDbLine
 10
199.2999999999999
 20
2545.888272625835
 30
0.0
 11
195.7999999999999
 21
2543.888272625835
 31
0.0
  0
ARC
  5
37B
330
2
100
AcDbEntity
  8
Bauseitig_Beton
100
AcDbCircle
 10
199.2999999999999
 20
2543.888272625835
 30
0.0
 40
2.0
100
AcDbArc
 50
270.0
 51
90.0
  0
ARC
  5
37C
330
2
100
AcDbEntity
  8
Bauseitig_Beton
100
AcDbCircle
 10
195.7999999999999
 20
2541.888272625835
 30
0.0
 40
2.0
100
AcDbArc
 50
90.0
 51
270.0
  0
LINE
  5
37D
330
2
100
AcDbEntity
  8
Bauseitig_Beton
100
AcDbLine
 10
195.7999999999999
 20
2543.888272625835
 30
0.0
 11
199.2999999999999
 21
2541.888272625835
 31
0.0
  0
LINE
  5
37E
330
2
100
AcDbEntity
  8
Bauseitig_Beton
100
AcDbLine
 10
199.2999999999999
 20
2541.888272625835
 30
0.0
 11
195.7999999999999
 21
2539.888272625835
 31
0.0
  0
ARC
  5
37F
330
2
100
AcDbEntity
  8
Bauseitig_Beton
100
AcDbCircle
 10
199.2999999999999
 20
2539.888272625835
 30
0.0
 40
2.0
100
AcDbArc
 50
270.0
 51
90.0
  0
ARC
  5
380
330
2
100
AcDbEntity
  8
Bauseitig_Beton
100
AcDbCircle
 10
195.7999999999999
 20
2537.888272625835
 30
0.0
 40
2.0
100
AcDbArc
 50
90.0
 51
270.0
  0
LINE
  5
381
330
2
100
AcDbEntity
  8
Bauseitig_Beton
100
AcDbLine
 10
195.7999999999999
 20
2539.888272625835
 30
0.0
 11
199.2999999999999
 21
2537.888272625835
 31
0.0
  0
LINE
  5
382
330
2
100
AcDbEntity
  8
Bauseitig_Beton
100
AcDbLine
 10
199.2999999999999
 20
2537.888272625835
 30
0.0
 11
195.7999999999999
 21
2535.888272625835
 31
0.0
  0
ARC
  5
383
330
2
100
AcDbEntity
  8
Bauseitig_Beton
100
AcDbCircle
 10
199.2999999999999
 20
2535.888272625835
 30
0.0
 40
2.0
100
AcDbArc
 50
270.0
 51
90.0
  0
ARC
  5
384
330
2
100
AcDbEntity
  8
Bauseitig_Beton
100
AcDbCircle
 10
195.7999999999999
 20
2533.888272625835
 30
0.0
 40
2.0
100
AcDbArc
 50
90.0
 51
270.0
  0
LINE
  5
385
330
2
100
AcDbEntity
  8
Bauseitig_Beton
100
AcDbLine
 10
195.7999999999999
 20
2535.888272625835
 30
0.0
 11
199.2999999999999
 21
2533.888272625835
 31
0.0
  0
LINE
  5
386
330
2
100
AcDbEntity
  8
Bauseitig_Beton
100
AcDbLine
 10
199.2999999999999
 20
2533.888272625835
 30
0.0
 11
195.7999999999999
 21
2531.888272625835
 31
0.0
  0
ARC
  5
387
330
2
100
AcDbEntity
  8
Bauseitig_Beton
100
AcDbCircle
 10
199.2999999999999
 20
2531.888272625835
 30
0.0
 40
2.0
100
AcDbArc
 50
270.0
 51
90.0
  0
ARC
  5
388
330
2
100
AcDbEntity
  8
Bauseitig_Beton
100
AcDbCircle
 10
195.7999999999999
 20
2529.888272625835
 30
0.0
 40
2.0
100
AcDbArc
 50
90.0
 51
270.0
  0
LINE
  5
389
330
2
100
AcDbEntity
  8
Bauseitig_Beton
100
AcDbLine
 10
195.7999999999999
 20
2531.888272625835
 30
0.0
 11
199.2999999999999
 21
2529.888272625835
 31
0.0
  0
LINE
  5
38A
330
2
100
AcDbEntity
  8
Bauseitig_Beton
100
AcDbLine
 10
199.2999999999999
 20
2529.888272625835
 30
0.0
 11
195.7999999999999
 21
2527.888272625835
 31
0.0
  0
ARC
  5
38B
330
2
100
AcDbEntity
  8
Bauseitig_Beton
100
AcDbCircle
 10
199.2999999999999
 20
2527.888272625835
 30
0.0
 40
2.0
100
AcDbArc
 50
270.0
 51
90.0
  0
ARC
  5
38C
330
2
100
AcDbEntity
  8
Bauseitig_Beton
100
AcDbCircle
 10
195.7999999999999
 20
2525.888272625835
 30
0.0
 40
2.0
100
AcDbArc
 50
90.0
 51
270.0
  0
LINE
  5
38D
330
2
100
AcDbEntity
  8
Bauseitig_Beton
100
AcDbLine
 10
195.7999999999999
 20
2527.888272625835
 30
0.0
 11
199.2999999999999
 21
2525.888272625835
 31
0.0
  0
LINE
  5
38E
330
2
100
AcDbEntity
  8
Bauseitig_Beton
100
AcDbLine
 10
199.2999999999999
 20
2525.888272625835
 30
0.0
 11
195.7999999999999
 21
2523.888272625835
 31
0.0
  0
ARC
  5
38F
330
2
100
AcDbEntity
  8
Bauseitig_Beton
100
AcDbCircle
 10
199.2999999999999
 20
2523.888272625835
 30
0.0
 40
2.0
100
AcDbArc
 50
270.0
 51
90.0
  0
ARC
  5
390
330
2
100
AcDbEntity
  8
Bauseitig_Beton
100
AcDbCircle
 10
195.7999999999999
 20
2521.888272625835
 30
0.0
 40
2.0
100
AcDbArc
 50
90.0
 51
270.0
  0
LINE
  5
391
330
2
100
AcDbEntity
  8
Bauseitig_Beton
100
AcDbLine
 10
195.7999999999999
 20
2523.888272625835
 30
0.0
 11
199.2999999999999
 21
2521.888272625835
 31
0.0
  0
LINE
  5
392
330
2
100
AcDbEntity
  8
Bauseitig_Beton
100
AcDbLine
 10
199.2999999999999
 20
2521.888272625835
 30
0.0
 11
195.7999999999999
 21
2519.888272625835
 31
0.0
  0
ARC
  5
393
330
2
100
AcDbEntity
  8
Bauseitig_Beton
100
AcDbCircle
 10
199.2999999999999
 20
2519.888272625835
 30
0.0
 40
2.0
100
AcDbArc
 50
270.0
 51
90.0
  0
ARC
  5
394
330
2
100
AcDbEntity
  8
Bauseitig_Beton
100
AcDbCircle
 10
195.7999999999999
 20
2517.888272625835
 30
0.0
 40
2.0
100
AcDbArc
 50
90.0
 51
270.0
  0
LINE
  5
395
330
2
100
AcDbEntity
  8
Bauseitig_Beton
100
AcDbLine
 10
195.7999999999999
 20
2519.888272625835
 30
0.0
 11
199.2999999999999
 21
2517.888272625835
 31
0.0
  0
LINE
  5
396
330
2
100
AcDbEntity
  8
Bauseitig_Beton
100
AcDbLine
 10
199.2999999999999
 20
2517.888272625835
 30
0.0
 11
195.7999999999999
 21
2515.888272625835
 31
0.0
  0
ARC
  5
397
330
2
100
AcDbEntity
  8
Bauseitig_Beton
100
AcDbCircle
 10
199.2999999999999
 20
2515.888272625835
 30
0.0
 40
2.0
100
AcDbArc
 50
270.0
 51
90.0
  0
ARC
  5
398
330
2
100
AcDbEntity
  8
Bauseitig_Beton
100
AcDbCircle
 10
195.7999999999999
 20
2513.888272625835
 30
0.0
 40
2.0
100
AcDbArc
 50
90.0
 51
270.0
  0
LINE
  5
399
330
2
100
AcDbEntity
  8
Bauseitig_Beton
100
AcDbLine
 10
195.7999999999999
 20
2515.888272625835
 30
0.0
 11
199.2999999999999
 21
2513.888272625835
 31
0.0
  0
LINE
  5
39A
330
2
100
AcDbEntity
  8
Bauseitig_Beton
100
AcDbLine
 10
199.2999999999999
 20
2513.888272625835
 30
0.0
 11
195.7999999999999
 21
2511.888272625835
 31
0.0
  0
ARC
  5
39B
330
2
100
AcDbEntity
  8
Bauseitig_Beton
100
AcDbCircle
 10
199.2999999999999
 20
2511.888272625835
 30
0.0
 40
2.0
100
AcDbArc
 50
270.0
 51
90.0
  0
ARC
  5
39C
330
2
100
AcDbEntity
  8
Bauseitig_Beton
100
AcDbCircle
 10
195.7999999999999
 20
2509.888272625835
 30
0.0
 40
2.0
100
AcDbArc
 50
90.0
 51
270.0
  0
LINE
  5
39D
330
2
100
AcDbEntity
  8
Bauseitig_Beton
100
AcDbLine
 10
195.7999999999999
 20
2511.888272625835
 30
0.0
 11
199.2999999999999
 21
2509.888272625835
 31
0.0
  0
LINE
  5
39E
330
2
100
AcDbEntity
  8
Bauseitig_Beton
100
AcDbLine
 10
199.2999999999999
 20
2509.888272625835
 30
0.0
 11
195.7999999999999
 21
2507.888272625835
 31
0.0
  0
ARC
  5
39F
330
2
100
AcDbEntity
  8
Bauseitig_Beton
100
AcDbCircle
 10
199.2999999999999
 20
2507.888272625835
 30
0.0
 40
2.0
100
AcDbArc
 50
270.0
 51
90.0
  0
ARC
  5
3A0
330
2
100
AcDbEntity
  8
Bauseitig_Beton
100
AcDbCircle
 10
195.7999999999999
 20
2505.888272625835
 30
0.0
 40
2.0
100
AcDbArc
 50
90.0
 51
270.0
  0
LINE
  5
3A1
330
2
100
AcDbEntity
  8
Bauseitig_Beton
100
AcDbLine
 10
195.7999999999999
 20
2507.888272625835
 30
0.0
 11
199.2999999999999
 21
2505.888272625835
 31
0.0
  0
LINE
  5
3A2
330
2
100
AcDbEntity
  8
Bauseitig_Beton
100
AcDbLine
 10
199.2999999999999
 20
2505.888272625835
 30
0.0
 11
195.7999999999999
 21
2503.888272625835
 31
0.0
  0
ARC
  5
3A3
330
2
100
AcDbEntity
  8
Bauseitig_Beton
100
AcDbCircle
 10
199.2999999999999
 20
2503.888272625835
 30
0.0
 40
2.0
100
AcDbArc
 50
270.0
 51
90.0
  0
ARC
  5
3A4
330
2
100
AcDbEntity
  8
Bauseitig_Beton
100
AcDbCircle
 10
195.7999999999999
 20
2501.888272625835
 30
0.0
 40
2.0
100
AcDbArc
 50
90.0
 51
270.0
  0
LINE
  5
3A5
330
2
100
AcDbEntity
  8
Bauseitig_Beton
100
AcDbLine
 10
195.7999999999999
 20
2503.888272625835
 30
0.0
 11
199.2999999999999
 21
2501.888272625835
 31
0.0
  0
LINE
  5
3A6
330
2
100
AcDbEntity
  8
Bauseitig_Beton
100
AcDbLine
 10
199.2999999999999
 20
2501.888272625835
 30
0.0
 11
195.7999999999999
 21
2499.888272625835
 31
0.0
  0
ARC
  5
3A7
330
2
100
AcDbEntity
  8
Bauseitig_Beton
100
AcDbCircle
 10
199.2999999999999
 20
2499.888272625835
 30
0.0
 40
2.0
100
AcDbArc
 50
270.0
 51
90.0
  0
ARC
  5
3A8
330
2
100
AcDbEntity
  8
Bauseitig_Beton
100
AcDbCircle
 10
195.7999999999999
 20
2497.888272625835
 30
0.0
 40
2.0
100
AcDbArc
 50
90.0
 51
270.0
  0
LINE
  5
3A9
330
2
100
AcDbEntity
  8
Bauseitig_Beton
100
AcDbLine
 10
195.7999999999999
 20
2499.888272625835
 30
0.0
 11
199.2999999999999
 21
2497.888272625835
 31
0.0
  0
LINE
  5
3AA
330
2
100
AcDbEntity
  8
Bauseitig_Beton
100
AcDbLine
 10
199.2999999999999
 20
2497.888272625835
 30
0.0
 11
195.7999999999999
 21
2495.888272625835
 31
0.0
  0
ARC
  5
3AB
330
2
100
AcDbEntity
  8
Bauseitig_Beton
100
AcDbCircle
 10
199.2999999999999
 20
2495.888272625835
 30
0.0
 40
2.0
100
AcDbArc
 50
270.0
 51
90.0
  0
ARC
  5
3AC
330
2
100
AcDbEntity
  8
Bauseitig_Beton
100
AcDbCircle
 10
195.7999999999999
 20
2493.888272625835
 30
0.0
 40
2.0
100
AcDbArc
 50
90.0
 51
270.0
  0
LINE
  5
3AD
330
2
100
AcDbEntity
  8
Bauseitig_Beton
100
AcDbLine
 10
195.7999999999999
 20
2495.888272625835
 30
0.0
 11
199.2999999999999
 21
2493.888272625835
 31
0.0
  0
LINE
  5
3AE
330
2
100
AcDbEntity
  8
Bauseitig_Beton
100
AcDbLine
 10
199.2999999999999
 20
2493.888272625835
 30
0.0
 11
195.7999999999999
 21
2491.888272625835
 31
0.0
  0
ARC
  5
3AF
330
2
100
AcDbEntity
  8
Bauseitig_Beton
100
AcDbCircle
 10
199.2999999999999
 20
2491.888272625835
 30
0.0
 40
2.0
100
AcDbArc
 50
270.0
 51
90.0
  0
ARC
  5
3B0
330
2
100
AcDbEntity
  8
Bauseitig_Beton
100
AcDbCircle
 10
195.7999999999999
 20
2489.888272625835
 30
0.0
 40
2.0
100
AcDbArc
 50
90.0
 51
270.0
  0
LINE
  5
3B1
330
2
100
AcDbEntity
  8
Bauseitig_Beton
100
AcDbLine
 10
195.7999999999999
 20
2491.888272625835
 30
0.0
 11
199.2999999999999
 21
2489.888272625835
 31
0.0
  0
LINE
  5
3B2
330
2
100
AcDbEntity
  8
Bauseitig_Beton
100
AcDbLine
 10
199.2999999999999
 20
2489.888272625835
 30
0.0
 11
195.7999999999999
 21
2487.888272625835
 31
0.0
  0
ARC
  5
3B3
330
2
100
AcDbEntity
  8
Bauseitig_Beton
100
AcDbCircle
 10
199.2999999999999
 20
2487.888272625835
 30
0.0
 40
2.0
100
AcDbArc
 50
270.0
 51
90.0
  0
ARC
  5
3B4
330
2
100
AcDbEntity
  8
Bauseitig_Beton
100
AcDbCircle
 10
195.7999999999999
 20
2485.888272625835
 30
0.0
 40
2.0
100
AcDbArc
 50
90.0
 51
179.8533689496537
  0
LINE
  5
3B5
330
2
100
AcDbEntity
  8
Bauseitig_Beton
100
AcDbLine
 10
195.7999999999999
 20
2487.888272625835
 30
0.0
 11
199.2999999999999
 21
2485.888272625835
 31
0.0
  0
LINE
  5
3B6
330
2
100
AcDbEntity
  8
Bauseitig_Beton
  6
STRICHPUNKT
100
AcDbLine
 10
185.5452236983153
 20
2617.88618379947
 30
0.0
 11
246.1583892191036
 21
2617.88618379947
 31
0.0
  0
LINE
  5
3B7
330
2
100
AcDbEntity
  8
Bauseitig_Beton
 62
     5
100
AcDbLine
 10
196.1899999999998
 20
2663.173391009469
 30
0.0
 11
196.1899999999998
 21
2587.173391009469
 31
0.0
  0
LINE
  5
3B8
330
2
100
AcDbEntity
  8
Bauseitig_Beton
 62
     5
100
AcDbLine
 10
198.8299999999997
 20
2663.173391009469
 30
0.0
 11
198.8299999999997
 21
2587.173391009469
 31
0.0
  0
LINE
  5
3B9
330
2
100
AcDbEntity
  8
Bauseitig_Beton
 62
     5
100
AcDbLine
 10
201.2999999999999
 20
2647.905656409006
 30
0.0
 11
193.7999999999999
 21
2640.405656409007
 31
0.0
  0
LINE
  5
3BA
330
2
100
AcDbEntity
  8
Bauseitig_Beton
 62
     5
100
AcDbLine
 10
201.2999999999999
 20
2641.541695389006
 30
0.0
 11
193.7999999999999
 21
2634.041695389007
 31
0.0
  0
LINE
  5
3BB
330
2
100
AcDbEntity
  8
Bauseitig_Beton
 62
     5
100
AcDbLine
 10
201.2999999999999
 20
2635.177734333006
 30
0.0
 11
193.7999999999999
 21
2627.677734333007
 31
0.0
  0
LINE
  5
3BC
330
2
100
AcDbEntity
  8
Bauseitig_Beton
 62
     5
100
AcDbLine
 10
201.2999999999999
 20
2628.813773313006
 30
0.0
 11
193.7999999999999
 21
2621.313773313006
 31
0.0
  0
LINE
  5
3BD
330
2
100
AcDbEntity
  8
Bauseitig_Beton
 62
     5
100
AcDbLine
 10
201.2999999999999
 20
2609.721890224933
 30
0.0
 11
193.7999999999999
 21
2602.221890224933
 31
0.0
  0
LINE
  5
3BE
330
2
100
AcDbEntity
  8
Bauseitig_Beton
 62
     5
100
AcDbLine
 10
201.2999999999999
 20
2603.357929204932
 30
0.0
 11
193.7999999999999
 21
2595.857929204933
 31
0.0
  0
LINE
  5
3BF
330
2
100
AcDbEntity
  8
Bauseitig_Beton
 62
     5
100
AcDbLine
 10
201.2999999999999
 20
2596.993968148933
 30
0.0
 11
193.7999999999999
 21
2589.493968148933
 31
0.0
  0
LINE
  5
3C0
330
2
100
AcDbEntity
  8
Bauseitig_Beton
 62
     5
100
AcDbLine
 10
201.2999999999999
 20
2590.630007128933
 30
0.0
 11
197.843383880536
 21
2587.173391009469
 31
0.0
  0
LINE
  5
3C1
330
2
100
AcDbEntity
  8
Bauseitig_Beton
 62
     5
100
AcDbLine
 10
197.4758515123892
 20
2663.173391009469
 30
0.0
 11
193.7999999999995
 21
2659.497539497079
 31
0.0
  0
LWPOLYLINE
  5
3C2
330
2
100
AcDbEntity
  8
Bauseitig_Beton
 62
     5
100
AcDbPolyline
 90
        4
 70
     1
 43
0.0
 10
193.7999999999999
 20
2663.173391009469
 10
201.2999999999999
 20
2663.173391009469
 10
201.2999999999999
 20
2587.173391009469
 10
193.7999999999999
 20
2587.173391009469
  0
TEXT
  5
3C3
330
2
100
AcDbEntity
  8
2-t. Schiebtreppe
 62
     0
100
AcDbText
 10
1313.058683232928
 20
2086.450092806627
 30
0.0
 40
14.19264
  1
EK8D03
  7
TECHNICBOLD
100
AcDbText
  0
ENDSEC
  0
SECTION
  2
OBJECTS
  0
DICTIONARY
  5
9
330
0
100
AcDbDictionary
281
     1
  3
ACAD_COLOR
350
48
  3
ACAD_GROUP
350
35
  3
ACAD_LAYOUT
350
17
  3
ACAD_MATERIAL
350
B
  3
ACAD_MLEADERSTYLE
350
4B
  3
ACAD_MLINESTYLE
350
36
  3
ACAD_PLOTSETTINGS
350
37
  3
ACAD_PLOTSTYLENAME
350
8
  3
ACAD_SCALELIST
350
49
  3
ACAD_TABLESTYLE
350
4A
  3
ACAD_VISUALSTYLE
350
2F
  3
ACDB_RECOMPOSE_DATA
350
3D1
  3
AcDbVariableDictionary
350
3C8
  3
AcDsDecomposeData
350
3D7
  0
DICTIONARY
  5
1F
330
1E
100
AcDbDictionary
280
     1
281
     1
  3
ACAD_LAYERFILTERS
360
20
  3
ACAD_LAYERSTATES
360
21
  3
ACLYDICTIONARY
360
22
  0
DICTIONARY
  5
6C
330
6B
100
AcDbDictionary
280
     1
281
     1
  0
DICTIONARY
  5
3
330
2
100
AcDbDictionary
280
     1
281
     1
  3
ACAD_SORTENTS
360
3C4
  0
DICTIONARY
  5
A9
330
A8
100
AcDbDictionary
280
     1
281
     1
  3
AcDbContextDataManager
360
AA
  0
DICTIONARY
  5
10D
330
10C
100
AcDbDictionary
280
     1
281
     1
  3
AcDbContextDataManager
360
10E
  0
DICTIONARY
  5
1D7
330
1D6
100
AcDbDictionary
280
     1
281
     1
  3
AcDbContextDataManager
360
1D8
  0
DICTIONARY
  5
1DB
330
1DA
100
AcDbDictionary
280
     1
281
     1
  3
AcDbContextDataManager
360
1DC
  0
DICTIONARY
  5
1DF
330
1DE
100
AcDbDictionary
280
     1
281
     1
  3
AcDbContextDataManager
360
1E0
  0
DICTIONARY
  5
1E3
330
1E2
100
AcDbDictionary
280
     1
281
     1
  3
AcDbContextDataManager
360
1E4
  0
DICTIONARY
  5
30B
330
30A
100
AcDbDictionary
280
     1
281
     1
  3
AcDbContextDataManager
360
30C
  0
DICTIONARY
  5
312
330
311
100
AcDbDictionary
280
     1
281
     1
  3
AcDbContextDataManager
360
313
  0
DICTIONARY
  5
48
102
{ACAD_REACTORS
330
9
102
}
330
9
100
AcDbDictionary
281
     1
  0
DICTIONARY
  5
35
102
{ACAD_REACTORS
330
9
102
}
330
9
100
AcDbDictionary
281
     1
  0
DICTIONARY
  5
17
102
{ACAD_REACTORS
330
9
102
}
330
9
100
AcDbDictionary
281
     1
  3
Layout1
350
1D
  3
Model
350
16
  0
DICTIONARY
  5
B
102
{ACAD_REACTORS
330
9
102
}
330
9
100
AcDbDictionary
281
     1
  3
ByBlock
350
40
  3
ByLayer
350
38
  3
Global
350
A
  0
DICTIONARY
  5
4B
102
{ACAD_REACTORS
330
9
102
}
330
9
100
AcDbDictionary
281
     1
  0
DICTIONARY
  5
36
102
{ACAD_REACTORS
330
9
102
}
330
9
100
AcDbDictionary
281
     1
  3
Standard
350
51
  0
DICTIONARY
  5
37
102
{ACAD_REACTORS
330
9
102
}
330
9
100
AcDbDictionary
281
     1
  0
ACDBDICTIONARYWDFLT
  5
8
102
{ACAD_REACTORS
330
9
102
}
330
9
100
AcDbDictionary
281
     1
  3
Normal
350
7
100
AcDbDictionaryWithDefault
340
7
  0
DICTIONARY
  5
49
102
{ACAD_REACTORS
330
9
102
}
330
9
100
AcDbDictionary
281
     1
  3
A0
350
55
  3
A1
350
56
  3
A2
350
57
  3
A3
350
58
  3
A4
350
59
  3
A5
350
5A
  3
A6
350
5B
  3
A7
350
5C
  3
A8
350
5D
  3
A9
350
5E
  3
B0
350
5F
  3
B1
350
60
  3
B2
350
61
  3
B3
350
62
  3
B4
350
63
  3
B5
350
64
  3
B6
350
65
  0
DICTIONARY
  5
4A
102
{ACAD_REACTORS
330
9
102
}
330
9
100
AcDbDictionary
281
     1
  3
Standard
350
52
  0
DICTIONARY
  5
2F
102
{ACAD_REACTORS
330
9
102
}
330
9
100
AcDbDictionary
281
     1
  3
2dWireframe
350
2E
  3
Realistic
350
53
  3
Wireframe
350
54
  0
XRECORD
  5
3D1
102
{ACAD_REACTORS
330
9
102
}
330
9
100
AcDbXrecord
280
     1
 90
        1
330
52
330
10C
330
311
  0
DICTIONARY
  5
3C8
102
{ACAD_REACTORS
330
9
102
}
330
9
100
AcDbDictionary
281
     1
  3
CANNOSCALE
350
3CD
  3
CMLEADERSTYLE
350
3CA
  3
CTABLESTYLE
350
3C9
  3
CVIEWDETAILSTYLE
350
3CB
  3
CVIEWSECTIONSTYLE
350
3CC
  3
XCLIPFRAME
350
3CE
  0
DICTIONARY
  5
3D7
102
{ACAD_REACTORS
330
9
102
}
330
9
100
AcDbDictionary
281
     1
  3
AcDsRecords
350
3D9
  3
AcDsSchemas
350
3D8
1001
ACAD
1070
     2
  0
DICTIONARY
  5
20
102
{ACAD_REACTORS
330
1F
102
}
330
1F
100
AcDbDictionary
281
     1
  0
DICTIONARY
  5
21
102
{ACAD_REACTORS
330
1F
102
}
330
1F
100
AcDbDictionary
281
     1
  0
DICTIONARY
  5
22
102
{ACAD_REACTORS
330
1F
102
}
330
1F
100
AcDbDictionary
281
     1
1001
ACAD
1000
<AllUsed
  0
SORTENTSTABLE
  5
3C4
102
{ACAD_REACTORS
330
3
102
}
330
3
100
AcDbSortentsTable
330
2
  0
DICTIONARY
  5
AA
102
{ACAD_REACTORS
330
A9
102
}
330
A9
100
AcDbDictionary
281
     1
  3
ACDB_ANNOTATIONSCALES
350
AB
  0
DICTIONARY
  5
10E
102
{ACAD_REACTORS
330
10D
102
}
330
10D
100
AcDbDictionary
281
     1
  3
ACDB_ANNOTATIONSCALES
350
10F
  0
DICTIONARY
  5
1D8
102
{ACAD_REACTORS
330
1D7
102
}
330
1D7
100
AcDbDictionary
281
     1
  3
ACDB_ANNOTATIONSCALES
350
1D9
  0
DICTIONARY
  5
1DC
102
{ACAD_REACTORS
330
1DB
102
}
330
1DB
100
AcDbDictionary
281
     1
  3
ACDB_ANNOTATIONSCALES
350
1DD
  0
DICTIONARY
  5
1E0
102
{ACAD_REACTORS
330
1DF
102
}
330
1DF
100
AcDbDictionary
281
     1
  3
ACDB_ANNOTATIONSCALES
350
1E1
  0
DICTIONARY
  5
1E4
102
{ACAD_REACTORS
330
1E3
102
}
330
1E3
100
AcDbDictionary
281
     1
  3
ACDB_ANNOTATIONSCALES
350
1E5
  0
DICTIONARY
  5
30C
102
{ACAD_REACTORS
330
30B
102
}
330
30B
100
AcDbDictionary
281
     1
  3
ACDB_ANNOTATIONSCALES
350
30D
  0
DICTIONARY
  5
313
102
{ACAD_REACTORS
330
312
102
}
330
312
100
AcDbDictionary
281
     1
  3
ACDB_ANNOTATIONSCALES
350
314
  0
LAYOUT
  5
1D
102
{ACAD_REACTORS
330
17
102
}
330
17
100
AcDbPlotSettings
  1

  2
HP Color LaserJet CP2020 Series PCL 6
  4

  6

 40
0.0
 41
0.0
 42
0.0
 43
0.0
 44
0.0
 45
0.0
 46
0.0
 47
0.0
 48
0.0
 49
0.0
140
0.0
141
0.0
142
1.0
143
1.0
 70
   688
 72
     0
 73
     0
 74
     5
  7
monochrome.ctb
 75
    16
147
1.0
 76
     0
 77
     2
 78
   300
148
0.0
149
0.0
100
AcDbLayout
  1
Layout1
 70
     1
 71
     1
 10
0.0
 20
0.0
 11
12.0
 21
9.0
 12
0.0
 22
0.0
 32
0.0
 14
1.000000000000000E+20
 24
1.000000000000000E+20
 34
1.000000000000000E+20
 15
-1.000000000000000E+20
 25
-1.000000000000000E+20
 35
-1.000000000000000E+20
146
0.0
 13
0.0
 23
0.0
 33
0.0
 16
1.0
 26
0.0
 36
0.0
 17
0.0
 27
1.0
 37
0.0
 76
     0
330
1A
  0
LAYOUT
  5
16
102
{ACAD_XDICTIONARY
360
18
102
}
102
{ACAD_REACTORS
330
17
102
}
330
17
100
AcDbPlotSettings
  1

  2
none_device
  4
Letter_(8.50_x_11.00_Inches)
  6

 40
6.349999904632568
 41
6.349999904632568
 42
6.350006103515625
 43
6.350006103515625
 44
215.8999938964844
 45
279.3999938964844
 46
0.0
 47
0.0
 48
0.0
 49
0.0
140
0.0
141
0.0
142
1.0
143
64.78996994265674
 70
 11952
 72
     0
 73
     1
 74
     0
  7
monochrome.ctb
 75
     0
147
0.0154344877900864
 76
     0
 77
     2
 78
   300
148
-2617.719647371877
149
1317.048691221335
100
AcDbLayout
  1
Model
 70
     1
 71
     0
 10
0.0
 20
0.0
 11
12.0
 21
9.0
 12
0.0
 22
0.0
 32
0.0
 14
0.0
 24
0.0
 34
0.0
 15
0.0
 25
0.0
 35
0.0
146
0.0
 13
0.0
 23
0.0
 33
0.0
 16
1.0
 26
0.0
 36
0.0
 17
0.0
 27
1.0
 37
0.0
 76
     0
330
2
331
2D
1001
ACAD_PSEXT
1000
Kein
1000
Kein
1000
Nicht anwendbar
1000
Das Layout wird erst geplottet, wenn ein neuer Plotter-Konfigurationsname ausgewählt wird.
1070
     0
  0
MATERIAL
  5
40
102
{ACAD_XDICTIONARY
360
41
102
}
102
{ACAD_REACTORS
330
B
102
}
330
B
100
AcDbMaterial
  1
ByBlock
 72
     0
 43
0.0208333333333333
 43
0.0
 43
0.0
 43
0.0
 43
0.0
 43
0.0208333333333333
 43
0.0
 43
0.0
 43
0.0
 43
0.0
 43
1.0
 43
0.0
 43
0.0
 43
0.0
 43
0.0
 43
1.0
 77
     0
 47
0.0208333333333333
 47
0.0
 47
0.0
 47
0.0
 47
0.0
 47
0.0208333333333333
 47
0.0
 47
0.0
 47
0.0
 47
0.0
 47
1.0
 47
0.0
 47
0.0
 47
0.0
 47
0.0
 47
1.0
171
     0
 49
0.0208333333333333
 49
0.0
 49
0.0
 49
0.0
 49
0.0
 49
0.0208333333333333
 49
0.0
 49
0.0
 49
0.0
 49
0.0
 49
1.0
 49
0.0
 49
0.0
 49
0.0
 49
0.0
 49
1.0
175
     0
142
0.0208333333333333
142
0.0
142
0.0
142
0.0
142
0.0
142
0.0208333333333333
142
0.0
142
0.0
142
0.0
142
0.0
142
1.0
142
0.0
142
0.0
142
0.0
142
0.0
142
1.0
179
     0
144
0.0208333333333333
144
0.0
144
0.0
144
0.0
144
0.0
144
0.0208333333333333
144
0.0
144
0.0
144
0.0
144
0.0
144
1.0
144
0.0
144
0.0
144
0.0
144
0.0
144
1.0
147
0.0208333333333333
147
0.0
147
0.0
147
0.0
147
0.0
147
0.0208333333333333
147
0.0
147
0.0
147
0.0
147
0.0
147
1.0
147
0.0
147
0.0
147
0.0
147
0.0
147
1.0
  0
MATERIAL
  5
38
102
{ACAD_XDICTIONARY
360
39
102
}
102
{ACAD_REACTORS
330
B
102
}
330
B
100
AcDbMaterial
  1
ByLayer
 72
     0
 43
0.0208333333333333
 43
0.0
 43
0.0
 43
0.0
 43
0.0
 43
0.0208333333333333
 43
0.0
 43
0.0
 43
0.0
 43
0.0
 43
1.0
 43
0.0
 43
0.0
 43
0.0
 43
0.0
 43
1.0
 77
     0
 47
0.0208333333333333
 47
0.0
 47
0.0
 47
0.0
 47
0.0
 47
0.0208333333333333
 47
0.0
 47
0.0
 47
0.0
 47
0.0
 47
1.0
 47
0.0
 47
0.0
 47
0.0
 47
0.0
 47
1.0
171
     0
 49
0.0208333333333333
 49
0.0
 49
0.0
 49
0.0
 49
0.0
 49
0.0208333333333333
 49
0.0
 49
0.0
 49
0.0
 49
0.0
 49
1.0
 49
0.0
 49
0.0
 49
0.0
 49
0.0
 49
1.0
175
     0
142
0.0208333333333333
142
0.0
142
0.0
142
0.0
142
0.0
142
0.0208333333333333
142
0.0
142
0.0
142
0.0
142
0.0
142
1.0
142
0.0
142
0.0
142
0.0
142
0.0
142
1.0
179
     0
144
0.0208333333333333
144
0.0
144
0.0
144
0.0
144
0.0
144
0.0208333333333333
144
0.0
144
0.0
144
0.0
144
0.0
144
1.0
144
0.0
144
0.0
144
0.0
144
0.0
144
1.0
147
0.0208333333333333
147
0.0
147
0.0
147
0.0
147
0.0
147
0.0208333333333333
147
0.0
147
0.0
147
0.0
147
0.0
147
1.0
147
0.0
147
0.0
147
0.0
147
0.0
147
1.0
  0
MATERIAL
  5
A
102
{ACAD_XDICTIONARY
360
C
102
}
102
{ACAD_REACTORS
330
B
102
}
330
B
100
AcDbMaterial
  1
Global
 72
     0
 43
0.0208333333333333
 43
0.0
 43
0.0
 43
0.0
 43
0.0
 43
0.0208333333333333
 43
0.0
 43
0.0
 43
0.0
 43
0.0
 43
1.0
 43
0.0
 43
0.0
 43
0.0
 43
0.0
 43
1.0
 77
     0
 47
0.0208333333333333
 47
0.0
 47
0.0
 47
0.0
 47
0.0
 47
0.0208333333333333
 47
0.0
 47
0.0
 47
0.0
 47
0.0
 47
1.0
 47
0.0
 47
0.0
 47
0.0
 47
0.0
 47
1.0
171
     0
 49
0.0208333333333333
 49
0.0
 49
0.0
 49
0.0
 49
0.0
 49
0.0208333333333333
 49
0.0
 49
0.0
 49
0.0
 49
0.0
 49
1.0
 49
0.0
 49
0.0
 49
0.0
 49
0.0
 49
1.0
175
     0
142
0.0208333333333333
142
0.0
142
0.0
142
0.0
142
0.0
142
0.0208333333333333
142
0.0
142
0.0
142
0.0
142
0.0
142
1.0
142
0.0
142
0.0
142
0.0
142
0.0
142
1.0
179
     0
144
0.0208333333333333
144
0.0
144
0.0
144
0.0
144
0.0
144
0.0208333333333333
144
0.0
144
0.0
144
0.0
144
0.0
144
1.0
144
0.0
144
0.0
144
0.0
144
0.0
144
1.0
147
0.0208333333333333
147
0.0
147
0.0
147
0.0
147
0.0
147
0.0208333333333333
147
0.0
147
0.0
147
0.0
147
0.0
147
1.0
147
0.0
147
0.0
147
0.0
147
0.0
147
1.0
  0
MLINESTYLE
  5
51
102
{ACAD_REACTORS
330
36
102
}
330
36
100
AcDbMlineStyle
  2
STANDARD
 70
     0
  3

 62
   256
 51
90.0
 52
90.0
 71
     2
 49
0.5
 62
   256
  6
BYLAYER
 49
-0.5
 62
   256
  6
BYLAYER
  0
ACDBPLACEHOLDER
  5
7
102
{ACAD_REACTORS
330
8
102
}
330
8
  0
SCALE
  5
55
102
{ACAD_REACTORS
330
49
102
}
330
49
100
AcDbScale
 70
     0
300
1:1
140
1.0
141
1.0
290
     1
  0
SCALE
  5
56
102
{ACAD_REACTORS
330
49
102
}
330
49
100
AcDbScale
 70
     0
300
1/128" = 1'-0"
140
0.0078125
141
12.0
290
     0
  0
SCALE
  5
57
102
{ACAD_REACTORS
330
49
102
}
330
49
100
AcDbScale
 70
     0
300
1/64" = 1'-0"
140
0.015625
141
12.0
290
     0
  0
SCALE
  5
58
102
{ACAD_REACTORS
330
49
102
}
330
49
100
AcDbScale
 70
     0
300
1/32" = 1'-0"
140
0.03125
141
12.0
290
     0
  0
SCALE
  5
59
102
{ACAD_REACTORS
330
49
102
}
330
49
100
AcDbScale
 70
     0
300
1/16" = 1'-0"
140
0.0625
141
12.0
290
     0
  0
SCALE
  5
5A
102
{ACAD_REACTORS
330
49
102
}
330
49
100
AcDbScale
 70
     0
300
3/32" = 1'-0"
140
0.09375
141
12.0
290
     0
  0
SCALE
  5
5B
102
{ACAD_REACTORS
330
49
102
}
330
49
100
AcDbScale
 70
     0
300
1/8" = 1'-0"
140
0.125
141
12.0
290
     0
  0
SCALE
  5
5C
102
{ACAD_REACTORS
330
49
102
}
330
49
100
AcDbScale
 70
     0
300
3/16" = 1'-0"
140
0.1875
141
12.0
290
     0
  0
SCALE
  5
5D
102
{ACAD_REACTORS
330
49
102
}
330
49
100
AcDbScale
 70
     0
300
1/4" = 1'-0"
140
0.25
141
12.0
290
     0
  0
SCALE
  5
5E
102
{ACAD_REACTORS
330
49
102
}
330
49
100
AcDbScale
 70
     0
300
3/8" = 1'-0"
140
0.375
141
12.0
290
     0
  0
SCALE
  5
5F
102
{ACAD_REACTORS
330
49
102
}
330
49
100
AcDbScale
 70
     0
300
1/2" = 1'-0"
140
0.5
141
12.0
290
     0
  0
SCALE
  5
60
102
{ACAD_REACTORS
330
49
102
}
330
49
100
AcDbScale
 70
     0
300
3/4" = 1'-0"
140
0.75
141
12.0
290
     0
  0
SCALE
  5
61
102
{ACAD_REACTORS
330
49
102
}
330
49
100
AcDbScale
 70
     0
300
1" = 1'-0"
140
1.0
141
12.0
290
     0
  0
SCALE
  5
62
102
{ACAD_REACTORS
330
49
102
}
330
49
100
AcDbScale
 70
     0
300
1-1/2" = 1'-0"
140
1.5
141
12.0
290
     0
  0
SCALE
  5
63
102
{ACAD_REACTORS
330
49
102
}
330
49
100
AcDbScale
 70
     0
300
3" = 1'-0"
140
3.0
141
12.0
290
     0
  0
SCALE
  5
64
102
{ACAD_REACTORS
330
49
102
}
330
49
100
AcDbScale
 70
     0
300
6" = 1'-0"
140
6.0
141
12.0
290
     0
  0
SCALE
  5
65
102
{ACAD_REACTORS
330
49
102
}
330
49
100
AcDbScale
 70
     0
300
1'-0" = 1'-0"
140
12.0
141
12.0
290
     0
  0
TABLESTYLE
  5
52
102
{ACAD_XDICTIONARY
360
3CF
102
}
102
{ACAD_REACTORS
330
4A
102
}
330
4A
100
AcDbTableStyle
  3
Standard
 70
     0
 71
     0
 40
0.06
 41
0.06
280
     0
281
     0
  7
STANDARD
140
0.18
170
     2
 62
     0
 63
     7
283
     0
 90
      512
 91
        0
  1

274
    -2
284
     1
 64
     0
275
    -2
285
     1
 65
     0
276
    -2
286
     1
 66
     0
277
    -2
287
     1
 67
     0
278
    -2
288
     1
 68
     0
279
    -2
289
     1
 69
     0
  7
STANDARD
140
0.25
170
     5
 62
     0
 63
     7
283
     0
 90
      512
 91
        0
  1

274
    -2
284
     1
 64
     0
275
    -2
285
     1
 65
     0
276
    -2
286
     1
 66
     0
277
    -2
287
     1
 67
     0
278
    -2
288
     1
 68
     0
279
    -2
289
     1
 69
     0
  7
STANDARD
140
0.18
170
     5
 62
     0
 63
     7
283
     0
 90
      512
 91
        0
  1

274
    -2
284
     1
 64
     0
275
    -2
285
     1
 65
     0
276
    -2
286
     1
 66
     0
277
    -2
287
     1
 67
     0
278
    -2
288
     1
 68
     0
279
    -2
289
     1
 69
     0
  0
VISUALSTYLE
  5
2E
102
{ACAD_XDICTIONARY
360
3DA
102
}
102
{ACAD_REACTORS
330
2F
102
}
330
2F
100
AcDbVisualStyle
  2
2dWireframe
 70
     4
 71
     0
 72
     2
 73
     0
 90
        0
 40
-0.6
 41
-30.0
 62
     5
 63
     7
421
 16777215
 74
     1
 91
        4
 64
     7
 65
   257
 75
     1
175
     1
 42
1.0
 92
        0
 66
   257
 43
1.0
 76
     1
 77
     6
 78
     2
 67
     7
 79
     5
170
     0
171
     0
290
     0
174
     0
 93
        1
 44
0.0
173
     0
291
     0
 45
0.0
1001
ACAD
1000
AcDbSavedByObjectVersion
1070
     0
  0
VISUALSTYLE
  5
53
102
{ACAD_XDICTIONARY
360
3DC
102
}
102
{ACAD_REACTORS
330
2F
102
}
330
2F
100
AcDbVisualStyle
  2
Realistic
 70
     8
 71
     2
 72
     3
 73
     0
 90
        2
 40
-0.6
 41
30.0
 62
     5
 63
     7
421
 16777215
 74
     0
 91
        0
 64
     7
 65
   257
 75
     1
175
     1
 42
1.0
 92
        8
 66
   257
 43
1.0
 76
     1
 77
     6
 78
     2
 67
     7
 79
     3
170
     0
171
     0
290
     0
174
     0
 93
       13
 44
0.0
173
     0
291
     0
 45
0.0
1001
ACAD
1000
AcDbSavedByObjectVersion
1070
     0
  0
VISUALSTYLE
  5
54
102
{ACAD_XDICTIONARY
360
3DE
102
}
102
{ACAD_REACTORS
330
2F
102
}
330
2F
100
AcDbVisualStyle
  2
Wireframe
 70
     5
 71
     0
 72
     2
 73
     0
 90
        0
 40
-0.6
 41
-30.0
 62
     5
 63
     7
421
 16777215
 74
     1
 91
        4
 64
     7
 65
   257
 75
     1
175
     1
 42
1.0
 92
        0
 66
   257
 43
1.0
 76
     1
 77
     6
 78
     2
 67
     7
 79
     3
170
     0
171
     0
290
     0
174
     0
 93
        1
 44
0.0
173
     0
291
     0
 45
0.0
1001
ACAD
1000
AcDbSavedByObjectVersion
1070
     0
  0
DICTIONARYVAR
  5
3CD
102
{ACAD_REACTORS
330
3C8
102
}
330
3C8
100
DictionaryVariables
280
     0
  1
1:1
  0
DICTIONARYVAR
  5
3CA
102
{ACAD_REACTORS
330
3C8
102
}
330
3C8
100
DictionaryVariables
280
     0
  1
STANDARD
  0
DICTIONARYVAR
  5
3C9
102
{ACAD_REACTORS
330
3C8
102
}
330
3C8
100
DictionaryVariables
280
     0
  1
STANDARD
  0
DICTIONARYVAR
  5
3CB
102
{ACAD_REACTORS
330
3C8
102
}
330
3C8
100
DictionaryVariables
280
     0
  1

  0
DICTIONARYVAR
  5
3CC
102
{ACAD_REACTORS
330
3C8
102
}
330
3C8
100
DictionaryVariables
280
     0
  1

  0
DICTIONARYVAR
  5
3CE
102
{ACAD_REACTORS
330
3C8
102
}
330
3C8
100
DictionaryVariables
280
     0
  1
2
  0
DICTIONARY
  5
3D9
102
{ACAD_REACTORS
330
3D7
102
}
330
3D7
100
AcDbDictionary
281
     1
  0
DICTIONARY
  5
3D8
102
{ACAD_REACTORS
330
3D7
102
}
330
3D7
100
AcDbDictionary
281
     1
  3
1769570592
350
3D2
  3
1769570608
350
3D3
  3
1769570624
350
3D4
  3
1769570640
350
3D5
  3
1769570656
350
3D6
  0
DICTIONARY
  5
AB
102
{ACAD_REACTORS
330
AA
102
}
330
AA
100
AcDbDictionary
281
     1
  0
DICTIONARY
  5
10F
102
{ACAD_REACTORS
330
10E
102
}
330
10E
100
AcDbDictionary
281
     1
  0
DICTIONARY
  5
1D9
102
{ACAD_REACTORS
330
1D8
102
}
330
1D8
100
AcDbDictionary
281
     1
  0
DICTIONARY
  5
1DD
102
{ACAD_REACTORS
330
1DC
102
}
330
1DC
100
AcDbDictionary
281
     1
  0
DICTIONARY
  5
1E1
102
{ACAD_REACTORS
330
1E0
102
}
330
1E0
100
AcDbDictionary
281
     1
  0
DICTIONARY
  5
1E5
102
{ACAD_REACTORS
330
1E4
102
}
330
1E4
100
AcDbDictionary
281
     1
  0
DICTIONARY
  5
30D
102
{ACAD_REACTORS
330
30C
102
}
330
30C
100
AcDbDictionary
281
     1
  0
DICTIONARY
  5
314
102
{ACAD_REACTORS
330
313
102
}
330
313
100
AcDbDictionary
281
     1
  0
DICTIONARY
  5
18
330
16
100
AcDbDictionary
280
     1
281
     1
  0
DICTIONARY
  5
41
330
40
100
AcDbDictionary
280
     1
281
     1
  3
BUMPTILE
360
42
  3
DIFFUSETILE
360
43
  3
OPACITYTILE
360
44
  3
REFLECTIONTILE
360
45
  3
REFRACTIONTILE
360
46
  3
SPECULARTILE
360
47
  0
DICTIONARY
  5
39
330
38
100
AcDbDictionary
280
     1
281
     1
  3
BUMPTILE
360
3A
  3
DIFFUSETILE
360
3B
  3
OPACITYTILE
360
3C
  3
REFLECTIONTILE
360
3D
  3
REFRACTIONTILE
360
3E
  3
SPECULARTILE
360
3F
  0
DICTIONARY
  5
C
330
A
100
AcDbDictionary
280
     1
281
     1
  3
BUMPTILE
360
D
  3
DIFFUSETILE
360
E
  3
FBXASSET
360
F
  3
OPACITYTILE
360
10
  3
REFLECTIONTILE
360
11
  3
REFRACTIONTILE
360
12
  3
SPECULARTILE
360
13
  0
DICTIONARY
  5
3CF
330
52
100
AcDbDictionary
280
     1
281
     1
  3
ACAD_ROUNDTRIP_2008_TABLESTYLE_CELLSTYLEMAP
360
3D0
  0
DICTIONARY
  5
3DA
330
2E
100
AcDbDictionary
280
     1
281
     1
  3
ACAD_XREC_ROUNDTRIP
360
3DB
  0
DICTIONARY
  5
3DC
330
53
100
AcDbDictionary
280
     1
281
     1
  3
ACAD_XREC_ROUNDTRIP
360
3DD
  0
DICTIONARY
  5
3DE
330
54
100
AcDbDictionary
280
     1
281
     1
  3
ACAD_XREC_ROUNDTRIP
360
3DF
  0
XRECORD
  5
3D2
102
{ACAD_REACTORS
330
3D8
102
}
330
3D8
100
AcDbXrecord
280
     1
  1
AcDb_Thumbnail_Schema
102
{ATTRRECORD
341
3D3
  2
AcDbDs::TreatedAsObjectData
280
     1
291
     1
102
ATTRRECORD}
102
{ATTRRECORD
341
3D4
  2
AcDbDs::Legacy
280
     1
291
     1
102
ATTRRECORD}
  2
AcDbDs::ID
280
    10
 91
        8
102
{ATTRRECORD
341
3D5
  2
AcDs:Indexable
280
     1
291
     1
102
ATTRRECORD}
102
{ATTRRECORD
341
3D6
  2
AcDbDs::HandleAttribute
280
     7
282
     1
102
ATTRRECORD}
  2
Thumbnail_Data
280
    15
 91
        0
  0
XRECORD
  5
3D3
102
{ACAD_REACTORS
330
3D8
102
}
330
3D8
100
AcDbXrecord
280
     1
  1
AcDbDs::TreatedAsObjectDataSchema
  2
AcDbDs::TreatedAsObjectData
280
     1
 91
        0
  0
XRECORD
  5
3D4
102
{ACAD_REACTORS
330
3D8
102
}
330
3D8
100
AcDbXrecord
280
     1
  1
AcDbDs::LegacySchema
  2
AcDbDs::Legacy
280
     1
 91
        0
  0
XRECORD
  5
3D5
102
{ACAD_REACTORS
330
3D8
102
}
330
3D8
100
AcDbXrecord
280
     1
  1
AcDbDs::IndexedPropertySchema
  2
AcDs:Indexable
280
     1
 91
        0
  0
XRECORD
  5
3D6
102
{ACAD_REACTORS
330
3D8
102
}
330
3D8
100
AcDbXrecord
280
     1
  1
AcDbDs::HandleAttributeSchema
  2
AcDbDs::HandleAttribute
280
     7
 91
        1
284
     1
  0
XRECORD
  5
42
102
{ACAD_REACTORS
330
41
102
}
330
41
100
AcDbXrecord
280
     1
270
     1
271
     1
  0
XRECORD
  5
43
102
{ACAD_REACTORS
330
41
102
}
330
41
100
AcDbXrecord
280
     1
270
     1
271
     1
  0
XRECORD
  5
44
102
{ACAD_REACTORS
330
41
102
}
330
41
100
AcDbXrecord
280
     1
270
     1
271
     1
  0
XRECORD
  5
45
102
{ACAD_REACTORS
330
41
102
}
330
41
100
AcDbXrecord
280
     1
270
     1
271
     1
  0
XRECORD
  5
46
102
{ACAD_REACTORS
330
41
102
}
330
41
100
AcDbXrecord
280
     1
270
     1
271
     1
  0
XRECORD
  5
47
102
{ACAD_REACTORS
330
41
102
}
330
41
100
AcDbXrecord
280
     1
270
     1
271
     1
  0
XRECORD
  5
3A
102
{ACAD_REACTORS
330
39
102
}
330
39
100
AcDbXrecord
280
     1
270
     1
271
     1
  0
XRECORD
  5
3B
102
{ACAD_REACTORS
330
39
102
}
330
39
100
AcDbXrecord
280
     1
270
     1
271
     1
  0
XRECORD
  5
3C
102
{ACAD_REACTORS
330
39
102
}
330
39
100
AcDbXrecord
280
     1
270
     1
271
     1
  0
XRECORD
  5
3D
102
{ACAD_REACTORS
330
39
102
}
330
39
100
AcDbXrecord
280
     1
270
     1
271
     1
  0
XRECORD
  5
3E
102
{ACAD_REACTORS
330
39
102
}
330
39
100
AcDbXrecord
280
     1
270
     1
271
     1
  0
XRECORD
  5
3F
102
{ACAD_REACTORS
330
39
102
}
330
39
100
AcDbXrecord
280
     1
270
     1
271
     1
  0
XRECORD
  5
D
102
{ACAD_REACTORS
330
C
102
}
330
C
100
AcDbXrecord
280
     1
270
     1
271
     1
  0
XRECORD
  5
E
102
{ACAD_REACTORS
330
C
102
}
330
C
100
AcDbXrecord
280
     1
270
     1
271
     1
  0
XRECORD
  5
F
102
{ACAD_REACTORS
330
C
102
}
330
C
100
AcDbXrecord
280
     1
 70
     1
 90
1959938040
 71
     1
  1
F44A0810-B26C-4682-979A-DA08BE24BBD2
311
504B03041400060808005A6C9D44BD36FA00D9000000200100004F00000035443431313144412D313443312D343944382D423034412D3434423737383344373845342F4173736574446174612F446566696E6974696F6E4974657261746F7250726F706572746965732E62696E454E3D6FC23010351D5A75E8D07F80D85DC7
311
8E8BEA08A8680C4C65A15317743807447212142752C78EFDD7AD4F5071D2BB779FEFEE8731F67BB118B241C477F40F915758635BBA8D3B6205EC962ABED981BFBBF66E6248A9C53DF4BEA3ADF73238F41E6A6CFAF0781D1D56D04539F04FB4741FF15F08A470381FA3FBEB087A89188A53F60A21603715FBDD9730726E9559
311
18AE749E729D5BCBE732513C1FDBB1B17A295F166FA2C5D0F4ADC3209448B617E5EDA93E94C56CD295150E6BA8703A722DC69F8AD14C2552F34473653E649AA53A7B569F1341937F504B03041400060808005A6C9D448CF4DB661C010000300200004500000035443431313144412D313443312D343944382D423034412D34
311
34423737383344373845342F4173736574446174612F496E7374616E636550726F706572746965732E62696E6D51BB4E844014BD3E121B35FB09165BACC52430CCB24B050C0F1BB316B4360430BB89A241CCC68ED2CEEFB1F51BFC003F81C65ACFB02CAC616F72EF39F7CC393309BC11D16F5BA07480AE30CF8057599E15AB
311
244A96D9433C86100AE16A735D63929B1E13E69C336B66B9CC872A032EA4F4F9491F541143177EC0A7169B0A6120C2752643E9337D66689EE979961B58B035EFD2E5EDFBE7CFE4CB061E42ABD0DBBD41ECA8DADEB889460E8D1AA91963A7E77B19829BEAC85E1BC4CE501F61ABD06DF4BBC55348C352DFB13FE92E1918D30F
311
67A0FD13865175F564C753DBC7D8D4DF3A4747EBB84C964C16719E66A93AF129A3674AA8A0153D5189F948395D5004BD042E806BE00D989A21DD013DB8EED1C50E7F69B66BA45E71D31F504B03041400060808005A6C9D4428BB58AF800100009E0500003D00000035443431313144412D313443312D343944382D42303441
311
2D3434423737383344373845342F536368656D61732F436F6D6D6F6E536368656D612E786D6CBD544D4FC23018BEFB2B96DE15493C78601010A34B880709DEDFB52FD0D8B54BD70DF6EFED3AC0B12E6442E2716BFB3CEFF3D18E26FB440405EA8C2B1992E1C323095052C5B8DC842437EBFB673219DF8DA659866649B798C0
311
78B48AE6410122242F2A4994AC7F93815DF85C049C8564CA0A901499DD886B2EB9B1E02448F358701A9235880C49A0119892A20C89D1B9FD768815CAD268CB5E0355B40B1E47F3E37A2020464BED06AA57CE8FCC20C3C3446D46761A2632A8C1283D07031EFF2AE7CCB1BFEEE916E406DFAC8E36FFD99A9D60A6944090EEDC
311
3B670C7DC13DE86B6B2C5C240D6E503BB85ACD579D513F1B9F9A69DC9CC22AFA80C426D40AF0B21EA168559156B6276F0F726A6BFF04DCD513A87A62CAD41FB24FCB2858B3952E3D852084DA25B9303C15687973CC8E8AAE11DF2836C38C6A9E765E8C1BA1BFB1DC29CDFE518C8B5A7655A4ED7E77291ABEB80DBD82EC866A
311
DE1B8D05AF9E35CF09D7A061F38A986D9EC412B8F0F65E5D81534D9B231D1E5A8FE577A241F3A5FD01504B03041400060808005A6C9D442CCEBD668A040000E01200003E00000035443431313144412D313443312D343944382D423034412D3434423737383344373845342F536368656D61732F47656E6572696353636865
311
6D612E786D6CD5586D6FDB380CFE7EBF42F0F7A649B70E1B90744856B4970F450FCD7A5F05459613EDE4174872DADCAF3F522F8ED3B88D2F1D06AC4050DBA2493EE4438AF2F8EB73AEC8466823CB62928C06C384888297A92C5693A4B6D9D9E7E4EBD51FE3A931C22EF85AE4EC6AFC38BF261BA626C9AD288496DC3F4FCEAF
311
C63366845F7A10452AF41DB320C0D44EC26EAB20918735565582695670811A6A49643A49A6E9069FA4604A64B29016DC4B48552F95E4932463CA888468C1D2B250DB4962750DF7CE273069CE8363F1FF4EDB00E0A21999574AE4A2B00C353B93F3BD4777B8A61ED8F604ABFEDD79CE56A2B7BDFBDBC50996E0ADDE16FED262
311
23C5D30956C29BDF4A55EA686E5E58B112DA45CE67F76F4FA27EFA3FB672FD7372FC388FAECDCA5209E693CAD167BADCD272F943701B3812F8A3D852008B1D2E32DB927B2F833C6EA95879925356D254582695095A3CE982924720BE5774A3CB9CDCDB350427D2DF20DA1B5532EBE2D5D6288D75D4F7E4FD9890A0EF8E3D93
311
EBB8F8BA4758158EF6FB90A6F9520281C93DE7AAC6D24607DA296BB96018123F821A7D6A5C5884050C475DA4865442732C8B95684A50165CBB3A32F25F783A4A480ED59AD7F924B968AEA50131F46303223E6A397B0E52976030DC1DCA81D7E7C1EDEEA42C19FF27635C505E2BD5198A599020DF50A2330FCB3AAF28CB0124
311
108429553EF1B228802E2265D8F7CC2401042B155BCC7070F1E5C55F13B4A9577362CCCE46C32174E010C3C378C44841A4BDA00FE3A12006CE11EE6AEC59894D3526DDE1CD59D503ECC324017F8061B7F162162FA62EDD81AE3308617770796DCBDAD2B2625C5AE8A63DE20B2C8AA5E95E76E5730823955956E33E705425A2
311
187C185D36489A1B44D3DCEC2172F6BA2105C3546287A7194B2331768EBBE64F6E70A9930ABE0ADEA89E9E2C38523B810287AD67A54A039C1606EAFE68F8304610BB9093DBDDABC0B2AE4E290DCDA15376D7E39F72B556F0B32EAB5D3D498B4C41ABADEC3A1434C422D87E8025A84BDCB2B1417ED750FAE4DA8976863974C5
311
77C7F902D3F156AD354DEA3540DE6BEAE2BEA52F7A2EB4CA43802ECE5BF2CE2EDC9347179FFB023CE412E60BE16DA0BE29B374988A553F561DC04615DD35F7D2C8979F60E5955CE93DF29DED8AFA1EE6642D53418086C03C47C377910F75F7E8F5EF665F70B60FFB22AEDF897D119E8423C773E819A3C1E55E550599EE6EDC
311
A34D0C86FD72057DF2CD46F16A470682471C164E4346D5306BF12D7D12D82CFF673D41636C347443FEB51B50D72EA171A8E4A58623A4A16E0FA2B8B10A0D23268D87C33896EE8FB73305A74BF224EDBADFA0BD674AB354D63DB7BD5D83426761C077DE767728235446A552754EB93B755891C3C4CC6CADE37CF0E912A7BB38
311
DBA010F9DE1282EDF470CA69A9CDA482E334C4A6EA4107987980B17E72F31730EBF88BBD39E7C629F56797A3C0009C2C5AE7951D9A05A02773440F02EEB4DE396A3B6A570C72CCFBCD823B0B8ED3F1D5CEDDFED772FA70236C83FB7D86C385D570B87107535572A60A96035F8F7C6A7192F13007246BBE0521855E6AC46F3E
311
27689CEE7D186A6FD679D98CDCAD13333E04EBE7ED6F55FF01504B03041400060808005A6C9D446180134D5F0100006B0300004500000035443431313144412D313443312D343944382D423034412D3434423737383344373845342F536368656D61732F52656E6465724D6174657269616C536368656D612E786D6CA5934D
311
6FC2300C86EFFB1551EEE343DBA41D1A103009551ADAD40EAE28A4A68D9426284961FCFBE5A340113B2071746D3F765EBF4DC6BFB5407BD0862B49F0B037C0082453059725C18DDD3EBFE3F1E829991803366715D474942CD30FB4A782E00C64017A412D684E454CE3FE28995203B162A6EA5AC94B66997D225E109CD63B01
311
35484BAD1B3C07E9080CA35DB3119C11BCA5C200461A68A1A438126C75E3E230D40FF81FB3F03C91D1E3A3A0AF79FE28E25BC39EC3E17E4C2A2D94A0833A51AF55BCCA7D88572FCBAC529C4140B020FC3AAFA886621DCED7EAD7664CC86024E806DC297DA1BB393E4156543457A4537DB8817349A70F8ACBF09B3EEE2CB2F3
311
3E91B65D60786E4E3B39B77E3FEEEF5650424525DA657FB8B46BE6BF064646F0A0F7327C0BC1BC1B4CBBC1C419FA3CCB23500007872A2580CAAE5461865565294E4EDB4617B62FF579DF9A5B2F54E834076A597573A020912FED777F9B3F504B03041400060808005A6C9D4413AAFB614F0000005700000047000000354434
311
31313144412D313443312D343944382D423034412D3434423737383344373845342F4173736574446174612F41737365745461626C654F66436F6E74656E74732E62696E536160607033317134B03034D075323273D63531B330D2B534B774D475018A3AB91A993839B9180901D5E52696A4166526E6241614A4261625E625
311
A70205C1801748BAA7E601659383933352731301504B03041400060808005A6C9D44F865834058000000680000004500000035443431313144412D313443312D343944382D423034412D3434423737383344373845342F4173736574446174612F53747265616D56657273696F6E5461626C652E696E66558CBD0A80300C06
311
F73E4B117FB66E451741D041DC5BF98480A492E4FDD18EAEC7DD4555D89EF28DF51A0B1BD8340C4DE7DD848B988C0ACF0649566493F2408C508DDEBB99D5129FF8F1AF8CF5B9503E20FAE5A16B5AF702504B03041400060808005A6C9D44D34D23E9350100009A0400003600000035443431313144412D313443312D343944
311
382D423034412D3434423737383344373845342F4173736574446174612F636E782E786D6CCD94314FC3301085FF4AE43D769216092AC71582A51348540C6C57E752AC3A76645F10FC7BEC3603A888A943D7F3BBF3F327BF93EBCFC1161F18A2F1AE6535AF58814EFBCEB87DCB26EACB5B56AC950CDED30F192B1C0CD8B25C
311
664AEE839FC6B9D4610F93CD556BDC612EDEC788B4859DC5A7FEC13B42479115DA428C2D8BFA1D07E03091EF301E780704BCE601A39F82C63489CC80F3241D10083BA69AAA5E96D5B26CEEB6F562B558AE6E9A3729B252C99DF776D69B7459F063A14FB7325549918F959C829935F92D4CFDE591EF8C932229958C141293B9
311
83BEC6D401E3688D064AE884D784542611C220C549ACA4C80C7E9178C4DE38935B36C918900FCFC91E0632787544FEF37A79321B17099CC6EBE571EEF0F2145E8E3FE8F514C86362AE2D27E70EB971FD0552228E6B2485266F15F50D504B03041400060808005A6C9D44E965D292090100004F030000340000003544343131
311
3144412D313443312D343944382D423034412D3434423737383344373845342F536368656D61732F636E782E786D6CCD93BD4E042114855F6542BF30333B26BA61D8C2C2CA46ADEC10EEAE64813BE1C7E8DB0B23C56E62A7C57670F842CE395CF8FED3D9EE034234E86732D09E74E0156AE38F33C9E9B0B925DD5EF08098CE
311
30D279E960265526821F03E6A5491A0E32DBAA5AE34F4DBC47E7D03FAB77709274CACA186712D72D9539A18678A25A2649071A20620E0ACA0DC9386837A80032812662EC8769D34F9BF1EE65D8EEB6D3EE667CE5AC9282BF21DAC61B9F20E0D2292C0B5FECF49CD563C173308DA9198838F7464B1B9C1542F09842E9A091E9
311
6B29A45C166B944CA52AB6823F8CE0AC46BD08FC001E8251D799F8C2DCBF457E02AF213C96570A46DAEB4CFE9BC7BF15C0D6D92F2350BF82F806504B03041400060808005A6C9D44410A3D5871000000A40000002C00000035443431313144412D313443312D343944382D423034412D3434423737383344373845342F636E
311
782E786D6C55CC4D0E82301086E1AB34B31774E7A22D31F1069E60020334B633A63FC6E34B0909B07DDE2F9FEE7EC1AB2FC5E4840DDC9A2B28E25E06C7938192C7CB1D54677514C9871928C640062A83D55394F2D968A0118BAFEA1DBF377CA444F98919176EAB9FEAAB9F2960DA5BBB1E2ED3FA6FFF504B03041400060808
311
005A6C9D44F74C325A7D000000A300000007000000636E782E786D6C4D8C510BC2201446FF8ADC776B976E68A08E2DFB21A3B9216D1A36A39F9FC61E7AFAE0F09DA3DACFBAB0B74B2F1F83063C34C05CB8C7D1875943DE262E81B546A518B7BF1BB030AC4E43C560D49C627EEE6874D390974A171F1E3B3C5B4244DB71A42B
311
72BA58C9FB863A4ED40B214F56C81B15E3589532BF5ED99A375F504B03041400060808005A6C9D4416E99B5DA600000035010000130000005B436F6E74656E745F54797065735D2E786D6C9590410E82301045AFD2740F4517C6180A0BF5065E60AC53688469D30E066F6F91AD9AB89CF9FFFD3F99BA9DC7413C3026E749CB
311
4D59498164FCCD51A7E5C4B6D84BD136F5E5193089ECA5A465CF1C0E4A25D3E308A9F401292BD6C711388FB15301CC1D3A54DBAADA29E38991B8E0254336F5092D4C038BF39CD76B6FC6A538AEBEA54A4B08617006389FA516557DE4AE8E7E70DE30729138228C5F021CD93F02D4FB0DCD0B504B03041400060808005A6C9D
311
443DEE336E64000000790000001B0000006175746F6465736B2D64657369676E2D7061636B6167652E786D6C35CBC10E83200C00D05F21DCA56CA76D41FC96062B120735B69A7DBE268BB7777961F8D5AF396893C2ADB70FE7ADA196782C2DF776D7A97B5933C430F15651E5469C55D70F80A4992A3ADC954792C525AE70A1
311
E4D6AD9816CC044FEFDF01FE3FDE907802504B03041400060808005A6C9D44E7F3CE6AF8000000960100003700000035443431313144412D313443312D343944382D423034412D3434423737383344373845342F4173736574446174612F636F72652E786D6C8550CB6E833010FC15B477F38684C8382A02BEA0A7DE2CDB21
311
56828DFCA8FAF9B50395DA534FBB9A9D99DD1D7CFD5A9FC9A730566AD54391E69008C534976AE9C1BB1B3A437225D868ED7ED1205174153D4418085E8CF6DB0131AD9C5011559A8B03A4D60A07097B86A607CBEE62A529F52E30EC23DD287BD045A445BAF308F65EF2432A79709337290C90A199A6763ECDA83D3739AABBBC
311
46433BB5681CEA7CEABA711E4E0DCEA2986027D79FEDCC08EA040752E6458D82A8ECDE8BEA52D597A6FCC05964126C9D093F1F4BE37740DEE2D523751467FBF48FABDFF8FFAE5E2A579587EBAEB0408A70E46B407016530AE51561A83151F20D504B03041400060808005A6C9D447A155802F6000000940100003500000035
311
443431313144412D313443312D343944382D423034412D3434423737383344373845342F536368656D61732F636F72652E786D6C8550CB6E833010FC15B477F38684C838120AFC407BEACDB21D6225D8C88FAA9F5F1BA8D49E7ADAD5ECCCECEEE0EBD7F24A3E85B152AB1E8A34874428A6B954730FDEDDD119922BC1466BF7
311
8B0689A28BE821C240F06CB45F0F8869E5848AA8D25C1C20B5563848D82B343D58F6100B4DA97781619FE94AD993CE222DD29D47B0F7921F52C9839BBC4B61800CCD38B6D36942EDB9C951DDE5351ADAB145B7A1CEC7AEBB4DC3A9C1591413ECE4F2B39D19419DE040CABCA8511095DD7B515DAAFAD2941F388B4C82AD33E1
311
E76369FC0EC8DB76A7C5D93EFBE3E957FEBFA797CA55E5E1B92B2C90229CB80D08CE6246A16C01861AF324DF504B03041400060808005A6C9D44A70A468100010000D70100002D00000035443431313144412D313443312D343944382D423034412D3434423737383344373845342F636F72652E786D6C95914D6EC3201085
311
AF82D8631B9B284E848992BA37E8AA3B0A131725068B9FAAC72FD4AEDAEEDA15E8F1BD19DE0C3FBDCF77F4063E1867074CAB0623B0CA6963A701A778253D4627C1BD73F107869195330CB8C858F0C9BBB46C927236822DAA751A36518600112375CF970107F50AB3AC648A9908B76A91EA2627A868B5728247337F59950719
311
4163D13694918691F6F044BB63C78EBBF699D785143C191BBB766B06F30B68E496982361B1E3F5FA9AA964F4C6189DFF68AE067C264646291DCF84B2074AD861ECC9A56167C2D865BFEFBB71DF3FB25C249B050FD1E7C96C45CA0CFE6A5F8DBF92A545FF33D9EA0858D0EF507519B3E0F5E70EF25956223E00504B03041400
311
060808005A6C9D442DF2EEBA06010000B201000008000000636F72652E786D6C8D50CB6EC32010FC15B4776CFC4C1C612259B1BFA0A7DEA8210E8A0D9681A8FDFB42E24AEDADA745F3D819969E3F97193DE46695D12D64090124F56884D2530BDE5DF111D099D1CD18F74B0648F345B610616074DA8C5F776834DA491D516D
311
84DC416EAD7480C6393C5AB0E34D2E3CE1DE0585BD272B1FEF7C924996BC748C3AB5FC58C74D722705B09C64252625CE9BB7AC3815E5A9CADF691A958C7AAFC41EA5444857572537605DD5F7F57018707DAC082E9BE0EEEABEC697AE247DD35C86EE50D1349A19B56E0B7FDE97849E0E59FE88B9347D518C7E1833EF82504A
311
20A3E72F6084A691F853DAAFE21FA5957645BE2F7C392CB02C147A1221385E308CE779C38CD766DF504B010214001400060808005A6C9D44BD36FA00D9000000200100004F000000000000000000000000000000000035443431313144412D313443312D343944382D423034412D3434423737383344373845342F41737365
311
74446174612F446566696E6974696F6E4974657261746F7250726F706572746965732E62696E504B010214001400060808005A6C9D448CF4DB661C0100003002000045000000000000000000000000004601000035443431313144412D313443312D343944382D423034412D3434423737383344373845342F417373657444
311
6174612F496E7374616E636550726F706572746965732E62696E504B010214001400060808005A6C9D4428BB58AF800100009E0500003D00000000000000000000000000C502000035443431313144412D313443312D343944382D423034412D3434423737383344373845342F536368656D61732F436F6D6D6F6E53636865
311
6D612E786D6C504B010214001400060808005A6C9D442CCEBD668A040000E01200003E00000000000000000000000000A004000035443431313144412D313443312D343944382D423034412D3434423737383344373845342F536368656D61732F47656E65726963536368656D612E786D6C504B010214001400060808005A
311
6C9D446180134D5F0100006B03000045000000000000000000000000008609000035443431313144412D313443312D343944382D423034412D3434423737383344373845342F536368656D61732F52656E6465724D6174657269616C536368656D612E786D6C504B010214001400060808005A6C9D4413AAFB614F00000057
311
0000004700000000000000000000000000480B000035443431313144412D313443312D343944382D423034412D3434423737383344373845342F4173736574446174612F41737365745461626C654F66436F6E74656E74732E62696E504B010214001400060808005A6C9D44F8658340580000006800000045000000000000
311
00000000000000FC0B000035443431313144412D313443312D343944382D423034412D3434423737383344373845342F4173736574446174612F53747265616D56657273696F6E5461626C652E696E66504B010214001400060808005A6C9D44D34D23E9350100009A0400003600000000000000000000000000B70C000035
311
443431313144412D313443312D343944382D423034412D3434423737383344373845342F4173736574446174612F636E782E786D6C504B010214001400060808005A6C9D44E965D292090100004F0300003400000000000000000000000000400E000035443431313144412D313443312D343944382D423034412D34344237
311
37383344373845342F536368656D61732F636E782E786D6C504B010214001400060808005A6C9D44410A3D5871000000A40000002C000000000000000000000000009B0F000035443431313144412D313443312D343944382D423034412D3434423737383344373845342F636E782E786D6C504B010214001400060808005A
311
6C9D44F74C325A7D000000A3000000070000000000000000000000000056100000636E782E786D6C504B010214001400060808005A6C9D4416E99B5DA6000000350100001300000000000000000000000000F81000005B436F6E74656E745F54797065735D2E786D6C504B010214001400060808005A6C9D443DEE336E6400
311
0000790000001B00000000000000000000000000CF1100006175746F6465736B2D64657369676E2D7061636B6167652E786D6C504B010214001400060808005A6C9D44E7F3CE6AF80000009601000037000000000000000000000000006C12000035443431313144412D313443312D343944382D423034412D343442373738
311
3344373845342F4173736574446174612F636F72652E786D6C504B010214001400060808005A6C9D447A155802F6000000940100003500000000000000000000000000B913000035443431313144412D313443312D343944382D423034412D3434423737383344373845342F536368656D61732F636F72652E786D6C504B01
311
0214001400060808005A6C9D44A70A468100010000D70100002D000000000000000000000000000215000035443431313144412D313443312D343944382D423034412D3434423737383344373845342F636F72652E786D6C504B010214001400060808005A6C9D442DF2EEBA06010000B20100000800000000000000000000
311
0000004D160000636F72652E786D6C504B050600000000110011005A060000791700000000
310
504B03041400060808005A6C9D44000000000000000000000000370000006662782F35363344393546352D313032422D343036372D383739342D4637453330393130443936392F617474726962757465732E62696E504B03041400060808005A6C9D44000000000000000000000000350000006662782F3536334439354635
310
2D313032422D343036372D383739342D4637453330393130443936392F76657274696365732E62696E504B03041400060808005A6C9D44F270F1330600000004000000360000006662782F35363344393546352D313032422D343036372D383739342D4637453330393130443936392F747269616E676C65732E62696E6366
310
60600000504B03041400060808005A6C9D4451464CB48900000043010000360000006662782F35363344393546352D313032422D343036372D383739342D4637453330393130443936392F6469726563746F72792E786D6C9D8F310EC2300C45AF127987122606C71DD918B841D4B851A43646695A717C52A85029031293A5
310
A76FBF6FACEF7DA7264E43906840EF0FA03836E242F406C6DCEE4EA06AC22492573150D1F66C60C640E8938CB705396EEDD86DE9B5042FE27813D640EA63BB001C722AF6E55CB61E4863F58284D5D3F53DD715CE1C3985E63FD7F1B7EBDD617E9F1E504B03041400060808005A6C9D44D2B1F83536070000201C0000340000
310
006662782F35363344393546352D313032422D343036372D383739342D4637453330393130443936392F6F626A656374732E786D6CDD59DB6EDB3810FD1542FBB2FB60DD7CA95D282E7C490AA3485BD4E862DF045AA61D6E74032925CE7EFD0E29529664D956B22D506C0A340E4D0D67CECC9C198EBC0F8728444F84719AC4
310
378663DA062271906C69BCBF31F26CD71B1BE8C314792C49B2CA3E03C5382237865836A6DE9E2579AA96B66487F3B0B97A37FF0BF180C4C440418839BF3178F040226CE23C4BB6843F9A5B9C6173BF3B988E596CAC8BDD339C3E348E4A31237106AAC27A0C5294064EFD4F30C99A7A96D850DBE676DBD6BFB0CD9286D715A5
310
31CF701C9C68D590E376D3AAEF0C96B7EE70D21B0E06FDDE60E43ABDF9DD7CD973DEF5EDC568B198CC6E27069A7A9B24094B07A424DE82175F8CA9E359E29BD27C85429BDE4112C7245068B66DD812259712DEC4A406AC234DAB38A4B0B5B2D0EF68FC996D9D40A9A954435B1BA77F57A337D9FC0D20F02E51CA381151CE33
310
06BE56D817F9607B56B15AF30BE528C21961148728A41B86193808B6160EAA8911D92244218199F4A29657D51502FB7A2EB569B9CBC350E4AF319599E6433E928C4BCDE83F841DB5AF9E063A81B5398DB3B132367B4941C4C4B3E462F15DDF555F1640A25D88F7102D60A6D8D4771B782D0417AC96C6F4D3DDE6B016FCD07E
310
78CA9294B04C449E4C669577DA8395D082E0EB004A816BDD774754BE01F49F01F95217E481E7183D0C0E036D3BC331DF252C02EF201BF56CF8CF46E2E3C927CF2A1F9E2254E3CA739842DAFE204C6B66D4CEAE403AF59E20E813D657C6AD031C424CDFD358E439040A0A135802BEDF6D0EC67405640A8BF0140EC17AF8E759
310
E223825F851CE09B8687DAE8B783A374C234F3ECE8AB8F10338C06A5AB6A369EC377F843F09D2DD79FD639DBE180DCABC45E921D8D6906C5B45DA11AE8B594FFBEFA2C33F2C49EDAAE00CED92782385AFCB2567E41D231A08AA8C3856BE4CA3D85740F431C9324E76ABD8DA882244C98BF79F18B1C6E3DEB4F1D04C56190DF
310
22025AC90CAA7BC0682A4031A6CABC9209CD234E82075500EE0BA7FA1B1C3C0A78FD0018EB2D7A40D462D6149A47A98FA3248F057D9F8677D334B36FCB1FC799B8F6C41D4F46DA582EC5EBECD1D4502A2FCE89707AE69045CD5B8A35B4E4228F06C0966D1604D033E5999FA438A0597B2C348C50190A605F54794B77BB9C03
310
A9B7C2D2D0D8EC3B436457FE2F0FB9ACBD3AC4A711DE137F8745856B3DAF0650295C5BD08ACC3E4C38A731E1B2433961AE062AB6094450C4AD96DA128494FB11C9F05BE24F96BC46F831B20B7DE8A532D1CD5E8F3EADA0AA9EE7248ACE2D897D69FF8BCF7194864597760D03C76D9CD08AAB505A1CF104F1E6E3CCB7B74436
310
DDD7A497BCA0F1ED247DF266F167E061F8A7C3A38FA0D07A438DBCEE59C71C3A13F1330652190D9DFE3BED886B58E9A332D1838439744DC18BFF4CE8FEA11BA1753A879370E7D330CC23BFA8071989A005C359CE3AE5EB68689F385FF14223212A27ED68080D7267D294BD87EE3EC02AD97C9C23CDCA3160148DE18ED6C990
310
132B5A4358FA42DE47C5B5EBBAF75F2FF53FF365F59EF2485E9E13B66DD5B4DE46E80E4C370C822E55852BE3484A9E7AD5E48BE4C5E53A0E032D44F15B714B5011C2C81315830979036ABD3FF0679C0540A46BF9BB37878CD892EDB1A7A88953630E630A876A69BA4FADDE7480EC44F9A8355E2B41A8114C1BB0E0D97BF121
310
FC86C1D5D0F9714B753556B1BE1285CD84C1CA518F0BB2BE7C5C37A4C04AE7A7BF0A8CC87343825A5D8846EE82A8EFAB63BFDA90A02CFABEBAF078F690479B185351194558E06DFAFE83BC4BDE587051B026CE6CE94E6E273D77B080D9C562B9ECCD1CDBED2D46CBD16439B873C6B7738B119EE42C20DC722DDBD7BD531AEF
310
756014D075B951C054E1FAD54FC773D3C1FFE31B45986CF0B958FC552F1465BB271AB2462E76BD50B412F5E675DDBF7342D4ED45EC559D73312BD0017EB96C0119E97ADFBDB5D0A27527D1AE73A522BEB2F09EBDADFCF41A5323F4D6FA50DBD146F9752E86D9534B95D2B75BC96B7783C1CC1E3B766FEE8E1630831DBBBDC9
310
BBC9ACB784D5F9AD3B98CF976513DD64AB6B75E597E0505D042B63349806F324A43094275BB42709DC8060EAD0815F5944B8BCD94003A0CAB87E23D0E1E9A762A69AE14DA89F0E1E300CA6435591F30086A270EBB831D43AFA0DC6A06212298753E623141E15ED06CA19BD312004320AF5C5DCC0384B0E0FA5F4C6B8120217
310
C77B71672A9E2AFF3E3E26D0815839DA55EEE9828BB2AC169D301C48E57B02603BDD90BCDD74AD0EC2197CDCE45969CC71E1688D0241BF10288C83A9DFA382F700C473D92EC7947B6A90749ACC5F8C83426A2FC36C2FC7EB15BC67CBAF96988CAFBEA034CCF7C29D97EA7D4D524FF419615E0CA13C080C65668AC53D7CF1DE
310
FACA1278C514A13B0A41807E3F8C477F588B248A92B858B266EA45155A3FC06BA7ADA5477ED0B8D8CED0927D8F1AEBC3DC8A13136FF9232C806B1915B3D102E25A0094F4540900ED11E10B78ACB67FB544AA08545AD82AC50878E44C1F4122897739226DAA1B2A0348C805D04A7E79FCA0173C8BC1107CFA2F504B03041400
310
060808005A6C9D4469AD3A343F01000046050000300000006662782F35363344393546352D313032422D343036372D383739342D4637453330393130443936392F636E782E786D6CCD944D4EC3301085AF12791FE7A74582CA7125169C800562E738D360EA78227B82E8EDB14B5A40A88845A576678DDF48EF9B791AB17E1F
310
6CF6063E18740DAB78C932701A3BE3FA864DB4C96F59B696C223D23719CB9C1AA061A9CCA4E83D4EE35CEA60A3269BAAD6B8ED5C5444DEB413416099B62A848605FD0283E26A22EC206C79A748F18A7B0838790DB19FCC0073BFF6A0083A26EBB25AE6E532AFEF1EABC56AB15CDDD4CFA2484A295A443BEB8D23F038661AE3
310
C34533A528D2B7149337B3261130F9E58CB7C68922FE4B11A25BD7CF3ADA8D49378ED66845714C056A02CAA308D4208A4FB11445E2FD41FD70FF74709075C68326F4BB0B0DA03A3580A3311E93F03FFEBDF06F6C6C5F23EEA5B67D1276B67536D4435A438CEBEFFDC71429D7DBEB0BFDD1D8F9331F4F09197D7DC8075F6722
310
2EF6272F2E3D5D40F901504B03041400060808005A6C9D44B44C81B57E000000A30000000B0000006662782F636E782E786D6C4D8CD10AC22018465F45FE7B4BDBD409EA20D6DE63343724A761337AFC3476D1D50787EF1CD57F368FDE36BD5C0C1AE88900B2E11E6717560D795F7007A8372AC5B8FFDD008569B31A2A06A3
310
D614F3F340B35DA6EC2BF52E3C0EC878334836324CC9E58A5BC205EE846CF1286E0D91940C92CB629CAB52E6D72B5BF3E60B504B03041400060808005A6C9D44A6D797065F0000008200000007000000636E782E786D6C4DCB3B0E80201045D1AD90E9FD7516806B51190811670C8A61F982B1B0BAC9C97B72CA7B1037C6D3
310
332918DA1E04D2CAC69353902EDB8C20262D23F3F59B81A079470595414B17391D1F19B4730A5583A7ED43BBE4025D9592775E5ADFFA01504B03041400060808005A6C9D444FEB6A7CA0000000F4000000130000005B436F6E74656E745F54797065735D2E786D6C7D8F4B0EC2300C44AF1279DFA6B0400835ED02B8011730
310
C16D239A8F121795DB93D02D6269CFBC19BBED573B8B17C564BC53B0AB1B10E4B47F18372A5878A88E20FAAEBDBD032591BD2E299898C349CAA427B2986A1FC86565F0D122E7318E32A07EE24872DF3407A9BD63725C71C980AEBDD080CBCCE2BAE6F5D69B7110E7CD57AA146008B3D1C8F92C5954F993BB1BF787F39A89AB
310
C491D09600F9FDA2FB00504B03041400060808005A6C9D443DEE336E64000000790000001B0000006175746F6465736B2D64657369676E2D7061636B6167652E786D6C35CBC10E83200C00D05F21DCA56CA76D41FC96062B120735B69A7DBE268BB7777961F8D5AF396893C2ADB70FE7ADA196782C2DF776D7A97B5933C430
310
F15651E5469C55D70F80A4992A3ADC954792C525AE70A1E4D6AD9816CC044FEFDF01FE3FDE907802504B03041400060808005A6C9D44E0264E04FA000000960100003B0000006662782F35363344393546352D313032422D343036372D383739342D4637453330393130443936392F7265736F75726365732F636F72652E78
310
6D6C8550CB6E833010FC15B477430C46249171441E7C414FBD596643AD043BF2A3EAE7D74EA8D49E7ADAD5ECCCECEEF0C3D7722F3ED1796D4D0FB4DC408146D9499BB98718AE640BC54170676DF84583C2C8057BC830083E3B1B1F2BA4AC0968326AEC842B28BDC70085BAA7A607AF3E7091A58C2131FCAD7C4875933396B4
310
7CF1048F514FAB544FC94D5F353A10DB9176ECC4067219DA96B0D3C8C8D07547B23B1F87533B8E97EE7CE655160B1EF4F2B35D3994012710F58632B261A4DEBDD166DFB07D5BBFF32A3305F7C1A59FD7A5F93B100EBD8D4EA1E7D56BFAC7353EA6FF5DA336A1A957D797C283A0E9C8E740F02AA794CA33C25473A2E21B504B
310
03041400060808005A6C9D44B371068AF1000000B1010000310000006662782F35363344393546352D313032422D343036372D383739342D4637453330393130443936392F636F72652E786D6C8D50CB6EC32010FC156BEFD8E0671C61225569BEA0A7DE10100725068B47D5CF2FC4AED4DE725A343BC3CC0E3D7D2F8FE24B
310
39AFAD998094180A658495DACC13C4704507284E8C3A6BC31F1A14862F6A820C03A3B3B371DD21614D5026A3C64AB583DC7B15A0108FF498C08B9B5A78C963480C7F2F572EEE7C562529371EA3412FBF52E1140F4A02AB3169116E513D7E90E6D8B4C7AEFEA45566321AA396BB9596C95D5FB572C0BABE398FDDA54304D76F
310
A8C5FD800EC3D8A2CBF0DEE091E0F3D88FB4CA62467D70E9E6FD937CDDABF24DF82F735CE50B99B5094DBD1B6E0A0F8CA43CCF05A3552E308D67BB69E6B2D90F504B03041400060808005A6C9D44915F53E054010000DD0200000C0000006662782F636F72652E786D6C8D52DB8E832014FC15C33BDE8AB16D90C65EFC827D
310
DA37AAD425553008A69FBFE025AE0FDBDD98209973CECC9909F8F46A1B6F60AAE7526420F243E03151CA8A8B3A03463FE01E7827829594FA471BF0046D59061C0C08AE9534DD0C955268261C2A64C56690F63DD3C02B1B7BC9405F7EB196FAD468DBD13FFD8E964F5A333FF2A73E828DE1D53CCA2BCBC61F9C2940F64594A2
310
0BCAE12D4F12882E0582799A9EE1E17ACE2F4951DCD2EB15076E9860CDDB45BD548C6A5601128711822182F1E123DA1D77E898C49F38709D04F75A59CFB3A87307C8E3FEC2C1846FF84C57FDCD67B8D0BB78E69B267A4022BBDE58203870F9D8DF18DE36432B6CF3D3F4DE2C169E161A58A9A542B65249B39606DA1866A943
310
6FFC7030552DF348F01B4FFC86E73D870D8A8ADAAE46B5BDDE8D76EADB9D3AA6E0A05F9E90AAA5CDBADCB4E27AAE421B4BCB78291BA9FE33BD585DC20CDCC324DF504B03041400060808005A6C9D442DBAA79008010000B201000008000000636F72652E786D6C8D50CB6EC32010FC15B477FCC472126122C78EBFA0A7DEA8
310
210E8A0D96C151FBF785D895DA5B4F8B66667786A1E7CF69444FB95865740569940092BA3742E9A182D5DDF001D099D1C518F74B0648F349561060607458CC3AEF506FB4933AA0DA08B983DC5AE900F5A37F5460FBBB9C78C457E715F611CDBC7FF0414669B4E918756AFA59ED17C99D14C0B224253821383BBEA5F92927A7
310
227BA7715032BAAE4AEC564A78777553720176E8D29234A4C6D7BA2830693A82EBB2BCE0637BA99BA2EBAE65DBD2382C336ADDE2FFBC1FF1391DB2FC197C69BC518C7E1833EE021F4A20A3C72F60098D03F127F43A8B7F8456DAE5D97E70DBB0C0521FE84578E3D0A01FAF7AFD0C6DB36F504B010214001400060808005A6C
310
9D440000000000000000000000003700000000000000000000000000000000006662782F35363344393546352D313032422D343036372D383739342D4637453330393130443936392F617474726962757465732E62696E504B010214001400060808005A6C9D44000000000000000000000000350000000000000000000000
310
0000550000006662782F35363344393546352D313032422D343036372D383739342D4637453330393130443936392F76657274696365732E62696E504B010214001400060808005A6C9D44F270F13306000000040000003600000000000000000000000000A80000006662782F35363344393546352D313032422D34303637
310
2D383739342D4637453330393130443936392F747269616E676C65732E62696E504B010214001400060808005A6C9D4451464CB489000000430100003600000000000000000000000000020100006662782F35363344393546352D313032422D343036372D383739342D4637453330393130443936392F6469726563746F72
310
792E786D6C504B010214001400060808005A6C9D44D2B1F83536070000201C00003400000000000000000000000000DF0100006662782F35363344393546352D313032422D343036372D383739342D4637453330393130443936392F6F626A656374732E786D6C504B010214001400060808005A6C9D4469AD3A343F010000
310
460500003000000000000000000000000000670900006662782F35363344393546352D313032422D343036372D383739342D4637453330393130443936392F636E782E786D6C504B010214001400060808005A6C9D44B44C81B57E000000A30000000B00000000000000000000000000F40A00006662782F636E782E786D6C
310
504B010214001400060808005A6C9D44A6D797065F0000008200000007000000000000000000000000009B0B0000636E782E786D6C504B010214001400060808005A6C9D444FEB6A7CA0000000F400000013000000000000000000000000001F0C00005B436F6E74656E745F54797065735D2E786D6C504B01021400140006
310
0808005A6C9D443DEE336E64000000790000001B00000000000000000000000000F00C00006175746F6465736B2D64657369676E2D7061636B6167652E786D6C504B010214001400060808005A6C9D44E0264E04FA000000960100003B000000000000000000000000008D0D00006662782F35363344393546352D31303242
310
2D343036372D383739342D4637453330393130443936392F7265736F75726365732F636F72652E786D6C504B010214001400060808005A6C9D44B371068AF1000000B10100003100000000000000000000000000E00E00006662782F35363344393546352D313032422D343036372D383739342D4637453330393130443936
310
392F636F72652E786D6C504B010214001400060808005A6C9D44915F53E054010000DD0200000C00000000000000000000000000201000006662782F636F72652E786D6C504B010214001400060808005A6C9D442DBAA79008010000B201000008000000000000000000000000009E110000636F72652E786D6C504B050600
310
0000000E000E0080040000CC1200000000
  0
XRECORD
  5
10
102
{ACAD_REACTORS
330
C
102
}
330
C
100
AcDbXrecord
280
     1
270
     1
271
     1
  0
XRECORD
  5
11
102
{ACAD_REACTORS
330
C
102
}
330
C
100
AcDbXrecord
280
     1
270
     1
271
     1
  0
XRECORD
  5
12
102
{ACAD_REACTORS
330
C
102
}
330
C
100
AcDbXrecord
280
     1
270
     1
271
     1
  0
XRECORD
  5
13
102
{ACAD_REACTORS
330
C
102
}
330
C
100
AcDbXrecord
280
     1
270
     1
271
     1
  0
CELLSTYLEMAP
  5
3D0
102
{ACAD_REACTORS
330
3CF
102
}
330
3CF
100
AcDbCellStyleMap
 90
        3
300
CELLSTYLE
  1
TABLEFORMAT_BEGIN
 90
        5
170
     1
 91
        0
 92
    32768
 62
   257
 93
        1
300
CONTENTFORMAT
  1
CONTENTFORMAT_BEGIN
 90
        0
 91
        0
 92
      512
 93
        0
300

 40
0.0
140
1.0
 94
        5
 62
     0
340
25
144
0.25
309
CONTENTFORMAT_END
171
     0
 94
        0
309
TABLEFORMAT_END
  1
CELLSTYLE_BEGIN
 90
        1
 91
        1
300
_TITLE
309
CELLSTYLE_END
300
CELLSTYLE
  1
TABLEFORMAT_BEGIN
 90
        5
170
     1
 91
        0
 92
        0
 62
   257
 93
        1
300
CONTENTFORMAT
  1
CONTENTFORMAT_BEGIN
 90
        0
 91
        0
 92
      512
 93
        0
300

 40
0.0
140
1.0
 94
        5
 62
     0
340
25
144
0.18
309
CONTENTFORMAT_END
171
     0
 94
        0
309
TABLEFORMAT_END
  1
CELLSTYLE_BEGIN
 90
        2
 91
        1
300
_HEADER
309
CELLSTYLE_END
300
CELLSTYLE
  1
TABLEFORMAT_BEGIN
 90
        5
170
     1
 91
        0
 92
        0
 62
   257
 93
        1
300
CONTENTFORMAT
  1
CONTENTFORMAT_BEGIN
 90
        0
 91
        0
 92
      512
 93
        0
300

 40
0.0
140
1.0
 94
        2
 62
     0
340
25
144
0.18
309
CONTENTFORMAT_END
171
     0
 94
        0
309
TABLEFORMAT_END
  1
CELLSTYLE_BEGIN
 90
        3
 91
        2
300
_DATA
309
CELLSTYLE_END
  0
XRECORD
  5
3DB
102
{ACAD_REACTORS
330
3DA
102
}
330
3DA
100
AcDbXrecord
280
     1
102
RTVSPost2010Prop28
280
     1
102
RTVSPost2010PropOp28
 70
     1
102
RTVSPost2010Prop29
280
     1
102
RTVSPost2010PropOp29
 70
     1
102
RTVSPost2010Prop30
280
     0
102
RTVSPost2010PropOp30
 70
     1
102
RTVSPost2010Prop31
280
     0
102
RTVSPost2010PropOp31
 70
     1
102
RTVSPost2010Prop32
280
     0
102
RTVSPost2010PropOp32
 70
     1
102
RTVSPost2010Prop33
280
     0
102
RTVSPost2010PropOp33
 70
     1
102
RTVSPost2010Prop34
280
     0
102
RTVSPost2010PropOp34
 70
     1
102
RTVSPost2010Prop35
280
     0
102
RTVSPost2010PropOp35
 70
     1
102
RTVSPost2010Prop36
280
     0
102
RTVSPost2010PropOp36
 70
     1
102
RTVSPost2010Prop37
 90
       50
102
RTVSPost2010PropOp37
 70
     1
102
RTVSPost2010Prop38
140
0.0
102
RTVSPost2010PropOp38
 70
     1
102
RTVSPost2010Prop39
140
1.0
102
RTVSPost2010PropOp39
 70
     1
102
RTVSPost2010Prop40
 90
        0
102
RTVSPost2010PropOp40
 70
     1
102
RTVSPost2010Prop41ColorIndex
 90
       18
102
RTVSPost2010Prop41ColorRGB
 90
        0
102
RTVSPost2010PropOp41
 70
     1
102
RTVSPost2010Prop42
 90
       50
102
RTVSPost2010PropOp42
 70
     1
102
RTVSPost2010Prop43
 90
        3
102
RTVSPost2010PropOp43
 70
     1
102
RTVSPost2010Prop44ColorIndex
 90
        5
102
RTVSPost2010Prop44ColorRGB
 90
      255
102
RTVSPost2010PropOp44
 70
     1
102
RTVSPost2010Prop45
280
     0
102
RTVSPost2010PropOp45
 70
     1
102
RTVSPost2010Prop46
 90
       50
102
RTVSPost2010PropOp46
 70
     1
102
RTVSPost2010Prop47
 90
       50
102
RTVSPost2010PropOp47
 70
     1
102
RTVSPost2010Prop48
 90
       50
102
RTVSPost2010PropOp48
 70
     1
102
RTVSPost2010Prop49
280
     0
102
RTVSPost2010PropOp49
 70
     1
102
RTVSPost2010Prop50
 90
       50
102
RTVSPost2010PropOp50
 70
     1
102
RTVSPost2010Prop51ColorIndex
 90
      256
102
RTVSPost2010Prop51ColorRGB
 90
-16777216
102
RTVSPost2010PropOp51
 70
     0
102
RTVSPost2010Prop52
140
1.0
102
RTVSPost2010PropOp52
 70
     0
102
RTVSPost2010Prop53
 90
        2
102
RTVSPost2010PropOp53
 70
     1
102
RTVSPost2010Prop54
  1
strokes_ogs.tif
102
RTVSPost2010PropOp54
 70
     1
102
RTVSPost2010Prop55
280
     0
102
RTVSPost2010PropOp55
 70
     1
102
RTVSPost2010Prop56
140
1.0
102
RTVSPost2010PropOp56
 70
     1
102
RTVSPost2010Prop57
140
1.0
102
RTVSPost2010PropOp57
 70
     1
102
RTVSPropertyOp0
 70
     1
102
RTVSPropertyOp1
 70
     1
102
RTVSPropertyOp2
 70
     1
102
RTVSPropertyOp3
 70
     1
102
RTVSPropertyOp4
 70
     1
102
RTVSPropertyOp5
 70
     1
102
RTVSPropertyOp6
 70
     1
102
RTVSPropertyOp7
 70
     1
102
RTVSPropertyOp8
 70
     1
102
RTVSPropertyOp9
 70
     1
102
RTVSPropertyOp10
 70
     1
102
RTVSPropertyOp11
 70
     1
102
RTVSPropertyOp12
 70
     1
102
RTVSPropertyOp13
 70
     1
102
RTVSPropertyOp14
 70
     1
102
RTVSPropertyOp15
 70
     1
102
RTVSPropertyOp16
 70
     1
102
RTVSPropertyOp17
 70
     1
102
RTVSPropertyOp18
 70
     1
102
RTVSPropertyOp19
 70
     1
102
RTVSPropertyOp20
 70
     1
102
RTVSPropertyOp21
 70
     1
102
RTVSPropertyOp22
 70
     1
102
RTVSPropertyOp23
 70
     1
102
RTVSPropertyOp24
 70
     1
102
RTVSPropertyOp25
 70
     1
102
RTVSPropertyOp26
 70
     1
102
RTVSPropertyOp27
 70
     1
102
RTVSPropertyOp28
 70
     1
102
RTVSPropertyOp29
 70
     1
102
RTVSPropertyOp30
 70
     1
102
RTVSPropertyOp31
 70
     1
102
RTVSPropertyOp32
 70
     1
102
RTVSPropertyOp33
 70
     1
102
RTVSPropertyOp34
 70
     1
102
RTVSPropertyOp35
 70
     1
102
RTVSPropertyOp36
 70
     1
102
RTVSPropertyOp37
 70
     1
102
RTVSPropertyOp38
 70
     1
102
RTVSPropertyOp39
 70
     1
102
RTVSPropertyOp40
 70
     1
102
RTVSPropertyOp41
 70
     1
102
RTVSPropertyOp42
 70
     1
102
RTVSPropertyOp43
 70
     1
102
RTVSPropertyOp44
 70
     1
102
RTVSPropertyOp45
 70
     1
102
RTVSPropertyOp46
 70
     1
102
RTVSPropertyOp47
 70
     1
102
RTVSPropertyOp48
 70
     1
102
RTVSPropertyOp49
 70
     1
102
RTVSPropertyOp50
 70
     1
102
RTVSPropertyOp51
 70
     0
102
RTVSPropertyOp52
 70
     0
102
RTVSPropertyOp53
 70
     1
102
RTVSPropertyOp54
 70
     1
102
RTVSPropertyOp55
 70
     1
102
RTVSPropertyOp56
 70
     1
102
RTVSPropertyOp57
 70
     1
102
RTVSPropertyOp58
 70
     1
102
RTVSPropertyOp59
 70
     1
102
RTVSPropertyOp60
 70
     1
102
RTVSPropertyOp61
 70
     1
102
RTVSPropertyOp62
 70
     1
  0
XRECORD
  5
3DD
102
{ACAD_REACTORS
330
3DC
102
}
330
3DC
100
AcDbXrecord
280
     1
102
RTVSPost2010Prop28
280
     0
102
RTVSPost2010PropOp28
 70
     1
102
RTVSPost2010Prop29
280
     1
102
RTVSPost2010PropOp29
 70
     1
102
RTVSPost2010Prop30
280
     1
102
RTVSPost2010PropOp30
 70
     1
102
RTVSPost2010Prop31
280
     0
102
RTVSPost2010PropOp31
 70
     1
102
RTVSPost2010Prop32
280
     0
102
RTVSPost2010PropOp32
 70
     1
102
RTVSPost2010Prop33
280
     0
102
RTVSPost2010PropOp33
 70
     1
102
RTVSPost2010Prop34
280
     0
102
RTVSPost2010PropOp34
 70
     1
102
RTVSPost2010Prop35
280
     0
102
RTVSPost2010PropOp35
 70
     1
102
RTVSPost2010Prop36
280
     0
102
RTVSPost2010PropOp36
 70
     1
102
RTVSPost2010Prop37
 90
       50
102
RTVSPost2010PropOp37
 70
     1
102
RTVSPost2010Prop38
140
0.0
102
RTVSPost2010PropOp38
 70
     1
102
RTVSPost2010Prop39
140
1.0
102
RTVSPost2010PropOp39
 70
     1
102
RTVSPost2010Prop40
 90
        0
102
RTVSPost2010PropOp40
 70
     1
102
RTVSPost2010Prop41ColorIndex
 90
       18
102
RTVSPost2010Prop41ColorRGB
 90
        0
102
RTVSPost2010PropOp41
 70
     1
102
RTVSPost2010Prop42
 90
       50
102
RTVSPost2010PropOp42
 70
     1
102
RTVSPost2010Prop43
 90
        3
102
RTVSPost2010PropOp43
 70
     1
102
RTVSPost2010Prop44ColorIndex
 90
        5
102
RTVSPost2010Prop44ColorRGB
 90
      255
102
RTVSPost2010PropOp44
 70
     1
102
RTVSPost2010Prop45
280
     0
102
RTVSPost2010PropOp45
 70
     1
102
RTVSPost2010Prop46
 90
       50
102
RTVSPost2010PropOp46
 70
     1
102
RTVSPost2010Prop47
 90
       50
102
RTVSPost2010PropOp47
 70
     1
102
RTVSPost2010Prop48
 90
       50
102
RTVSPost2010PropOp48
 70
     1
102
RTVSPost2010Prop49
280
     0
102
RTVSPost2010PropOp49
 70
     1
102
RTVSPost2010Prop50
 90
       50
102
RTVSPost2010PropOp50
 70
     1
102
RTVSPost2010Prop51ColorIndex
 90
      256
102
RTVSPost2010Prop51ColorRGB
 90
-16777216
102
RTVSPost2010PropOp51
 70
     0
102
RTVSPost2010Prop52
140
1.0
102
RTVSPost2010PropOp52
 70
     0
102
RTVSPost2010Prop53
 90
        2
102
RTVSPost2010PropOp53
 70
     1
102
RTVSPost2010Prop54
  1
strokes_ogs.tif
102
RTVSPost2010PropOp54
 70
     1
102
RTVSPost2010Prop55
280
     0
102
RTVSPost2010PropOp55
 70
     1
102
RTVSPost2010Prop56
140
1.0
102
RTVSPost2010PropOp56
 70
     1
102
RTVSPost2010Prop57
140
1.0
102
RTVSPost2010PropOp57
 70
     1
102
RTVSPropertyOp0
 70
     1
102
RTVSPropertyOp1
 70
     1
102
RTVSPropertyOp2
 70
     1
102
RTVSPropertyOp3
 70
     1
102
RTVSPropertyOp4
 70
     1
102
RTVSPropertyOp5
 70
     1
102
RTVSPropertyOp6
 70
     1
102
RTVSPropertyOp7
 70
     1
102
RTVSPropertyOp8
 70
     1
102
RTVSPropertyOp9
 70
     1
102
RTVSPropertyOp10
 70
     1
102
RTVSPropertyOp11
 70
     1
102
RTVSPropertyOp12
 70
     1
102
RTVSPropertyOp13
 70
     1
102
RTVSPropertyOp14
 70
     1
102
RTVSPropertyOp15
 70
     1
102
RTVSPropertyOp16
 70
     1
102
RTVSPropertyOp17
 70
     1
102
RTVSPropertyOp18
 70
     1
102
RTVSPropertyOp19
 70
     1
102
RTVSPropertyOp20
 70
     1
102
RTVSPropertyOp21
 70
     1
102
RTVSPropertyOp22
 70
     1
102
RTVSPropertyOp23
 70
     1
102
RTVSPropertyOp24
 70
     1
102
RTVSPropertyOp25
 70
     1
102
RTVSPropertyOp26
 70
     1
102
RTVSPropertyOp27
 70
     1
102
RTVSPropertyOp28
 70
     1
102
RTVSPropertyOp29
 70
     1
102
RTVSPropertyOp30
 70
     1
102
RTVSPropertyOp31
 70
     1
102
RTVSPropertyOp32
 70
     1
102
RTVSPropertyOp33
 70
     1
102
RTVSPropertyOp34
 70
     1
102
RTVSPropertyOp35
 70
     1
102
RTVSPropertyOp36
 70
     1
102
RTVSPropertyOp37
 70
     1
102
RTVSPropertyOp38
 70
     1
102
RTVSPropertyOp39
 70
     1
102
RTVSPropertyOp40
 70
     1
102
RTVSPropertyOp41
 70
     1
102
RTVSPropertyOp42
 70
     1
102
RTVSPropertyOp43
 70
     1
102
RTVSPropertyOp44
 70
     1
102
RTVSPropertyOp45
 70
     1
102
RTVSPropertyOp46
 70
     1
102
RTVSPropertyOp47
 70
     1
102
RTVSPropertyOp48
 70
     1
102
RTVSPropertyOp49
 70
     1
102
RTVSPropertyOp50
 70
     1
102
RTVSPropertyOp51
 70
     0
102
RTVSPropertyOp52
 70
     0
102
RTVSPropertyOp53
 70
     1
102
RTVSPropertyOp54
 70
     1
102
RTVSPropertyOp55
 70
     1
102
RTVSPropertyOp56
 70
     1
102
RTVSPropertyOp57
 70
     1
102
RTVSPropertyOp58
 70
     1
102
RTVSPropertyOp59
 70
     1
102
RTVSPropertyOp60
 70
     1
102
RTVSPropertyOp61
 70
     1
102
RTVSPropertyOp62
 70
     1
  0
XRECORD
  5
3DF
102
{ACAD_REACTORS
330
3DE
102
}
330
3DE
100
AcDbXrecord
280
     1
102
RTVSPost2010Prop28
280
     0
102
RTVSPost2010PropOp28
 70
     1
102
RTVSPost2010Prop29
280
     1
102
RTVSPost2010PropOp29
 70
     1
102
RTVSPost2010Prop30
280
     1
102
RTVSPost2010PropOp30
 70
     1
102
RTVSPost2010Prop31
280
     0
102
RTVSPost2010PropOp31
 70
     1
102
RTVSPost2010Prop32
280
     0
102
RTVSPost2010PropOp32
 70
     1
102
RTVSPost2010Prop33
280
     0
102
RTVSPost2010PropOp33
 70
     1
102
RTVSPost2010Prop34
280
     0
102
RTVSPost2010PropOp34
 70
     1
102
RTVSPost2010Prop35
280
     0
102
RTVSPost2010PropOp35
 70
     1
102
RTVSPost2010Prop36
280
     0
102
RTVSPost2010PropOp36
 70
     1
102
RTVSPost2010Prop37
 90
       50
102
RTVSPost2010PropOp37
 70
     1
102
RTVSPost2010Prop38
140
0.0
102
RTVSPost2010PropOp38
 70
     1
102
RTVSPost2010Prop39
140
1.0
102
RTVSPost2010PropOp39
 70
     1
102
RTVSPost2010Prop40
 90
        0
102
RTVSPost2010PropOp40
 70
     1
102
RTVSPost2010Prop41ColorIndex
 90
       18
102
RTVSPost2010Prop41ColorRGB
 90
        0
102
RTVSPost2010PropOp41
 70
     1
102
RTVSPost2010Prop42
 90
       50
102
RTVSPost2010PropOp42
 70
     1
102
RTVSPost2010Prop43
 90
        3
102
RTVSPost2010PropOp43
 70
     1
102
RTVSPost2010Prop44ColorIndex
 90
        5
102
RTVSPost2010Prop44ColorRGB
 90
      255
102
RTVSPost2010PropOp44
 70
     1
102
RTVSPost2010Prop45
280
     0
102
RTVSPost2010PropOp45
 70
     1
102
RTVSPost2010Prop46
 90
       50
102
RTVSPost2010PropOp46
 70
     1
102
RTVSPost2010Prop47
 90
       50
102
RTVSPost2010PropOp47
 70
     1
102
RTVSPost2010Prop48
 90
       50
102
RTVSPost2010PropOp48
 70
     1
102
RTVSPost2010Prop49
280
     0
102
RTVSPost2010PropOp49
 70
     1
102
RTVSPost2010Prop50
 90
       50
102
RTVSPost2010PropOp50
 70
     1
102
RTVSPost2010Prop51ColorIndex
 90
      256
102
RTVSPost2010Prop51ColorRGB
 90
-16777216
102
RTVSPost2010PropOp51
 70
     0
102
RTVSPost2010Prop52
140
1.0
102
RTVSPost2010PropOp52
 70
     0
102
RTVSPost2010Prop53
 90
        2
102
RTVSPost2010PropOp53
 70
     1
102
RTVSPost2010Prop54
  1
strokes_ogs.tif
102
RTVSPost2010PropOp54
 70
     1
102
RTVSPost2010Prop55
280
     0
102
RTVSPost2010PropOp55
 70
     1
102
RTVSPost2010Prop56
140
1.0
102
RTVSPost2010PropOp56
 70
     1
102
RTVSPost2010Prop57
140
1.0
102
RTVSPost2010PropOp57
 70
     1
102
RTVSPropertyOp0
 70
     1
102
RTVSPropertyOp1
 70
     1
102
RTVSPropertyOp2
 70
     1
102
RTVSPropertyOp3
 70
     1
102
RTVSPropertyOp4
 70
     1
102
RTVSPropertyOp5
 70
     1
102
RTVSPropertyOp6
 70
     1
102
RTVSPropertyOp7
 70
     1
102
RTVSPropertyOp8
 70
     1
102
RTVSPropertyOp9
 70
     1
102
RTVSPropertyOp10
 70
     1
102
RTVSPropertyOp11
 70
     1
102
RTVSPropertyOp12
 70
     1
102
RTVSPropertyOp13
 70
     1
102
RTVSPropertyOp14
 70
     1
102
RTVSPropertyOp15
 70
     1
102
RTVSPropertyOp16
 70
     1
102
RTVSPropertyOp17
 70
     1
102
RTVSPropertyOp18
 70
     1
102
RTVSPropertyOp19
 70
     1
102
RTVSPropertyOp20
 70
     1
102
RTVSPropertyOp21
 70
     1
102
RTVSPropertyOp22
 70
     1
102
RTVSPropertyOp23
 70
     1
102
RTVSPropertyOp24
 70
     1
102
RTVSPropertyOp25
 70
     1
102
RTVSPropertyOp26
 70
     1
102
RTVSPropertyOp27
 70
     1
102
RTVSPropertyOp28
 70
     1
102
RTVSPropertyOp29
 70
     1
102
RTVSPropertyOp30
 70
     1
102
RTVSPropertyOp31
 70
     1
102
RTVSPropertyOp32
 70
     1
102
RTVSPropertyOp33
 70
     1
102
RTVSPropertyOp34
 70
     1
102
RTVSPropertyOp35
 70
     1
102
RTVSPropertyOp36
 70
     1
102
RTVSPropertyOp37
 70
     1
102
RTVSPropertyOp38
 70
     1
102
RTVSPropertyOp39
 70
     1
102
RTVSPropertyOp40
 70
     1
102
RTVSPropertyOp41
 70
     1
102
RTVSPropertyOp42
 70
     1
102
RTVSPropertyOp43
 70
     1
102
RTVSPropertyOp44
 70
     1
102
RTVSPropertyOp45
 70
     1
102
RTVSPropertyOp46
 70
     1
102
RTVSPropertyOp47
 70
     1
102
RTVSPropertyOp48
 70
     1
102
RTVSPropertyOp49
 70
     1
102
RTVSPropertyOp50
 70
     1
102
RTVSPropertyOp51
 70
     0
102
RTVSPropertyOp52
 70
     0
102
RTVSPropertyOp53
 70
     1
102
RTVSPropertyOp54
 70
     1
102
RTVSPropertyOp55
 70
     1
102
RTVSPropertyOp56
 70
     1
102
RTVSPropertyOp57
 70
     1
102
RTVSPropertyOp58
 70
     1
102
RTVSPropertyOp59
 70
     1
102
RTVSPropertyOp60
 70
     1
102
RTVSPropertyOp61
 70
     1
102
RTVSPropertyOp62
 70
     1
  0
ENDSEC
  0
EOF
