  0
SECTION
  2
HEADER
  9
$ACADVER
  1
AC1021
  9
$ACADMAINTVER
 70
    50
  9
$DWGCODEPAGE
  3
ANSI_1252
  9
$INSBASE
 10
0.0000000000001137
 20
2082.0
 30
0.0
  9
$EXTMIN
 10
0.0
 20
-305.1597132008355
 30
-0.0000000000009771
  9
$EXTMAX
 10
22639.47139040284
 20
4968.571492988363
 30
0.0000000000004079
  9
$LIMMIN
 10
0.0
 20
0.0
  9
$LIMMAX
 10
297.0
 20
210.0
  9
$ORTHOMODE
 70
     0
  9
$REGENMODE
 70
     1
  9
$FILLMODE
 70
     1
  9
$QTEXTMODE
 70
     0
  9
$MIRRTEXT
 70
     1
  9
$LTSCALE
 40
10.0
  9
$ATTMODE
 70
     1
  9
$TEXTSIZE
 40
3.5
  9
$TRACEWID
 40
0.05
  9
$TEXTSTYLE
  7
SIMPLEX
  9
$CLAYER
  8
0
  9
$CELTYPE
  6
ByLayer
  9
$CECOLOR
 62
   256
  9
$CELTSCALE
 40
1.0
  9
$DISPSILH
 70
     0
  9
$DIMSCALE
 40
1.0
  9
$DIMASZ
 40
3.5
  9
$DIMEXO
 40
0.1
  9
$DIMDLI
 40
0.4
  9
$DIMRND
 40
0.0
  9
$DIMDLE
 40
0.0
  9
$DIMEXE
 40
1.8
  9
$DIMTP
 40
0.0
  9
$DIMTM
 40
0.0
  9
$DIMTXT
 40
3.5
  9
$DIMCEN
 40
5.0
  9
$DIMTSZ
 40
0.0
  9
$DIMTOL
 70
     0
  9
$DIMLIM
 70
     0
  9
$DIMTIH
 70
     0
  9
$DIMTOH
 70
     0
  9
$DIMSE1
 70
     0
  9
$DIMSE2
 70
     0
  9
$DIMTAD
 70
     1
  9
$DIMZIN
 70
     8
  9
$DIMBLK
  1

  9
$DIMASO
 70
     1
  9
$DIMSHO
 70
     1
  9
$DIMPOST
  1

  9
$DIMAPOST
  1

  9
$DIMALT
 70
     0
  9
$DIMALTD
 70
     2
  9
$DIMALTF
 40
25.4
  9
$DIMLFAC
 40
1.0
  9
$DIMTOFL
 70
     1
  9
$DIMTVP
 40
0.0
  9
$DIMTIX
 70
     0
  9
$DIMSOXD
 70
     0
  9
$DIMSAH
 70
     1
  9
$DIMBLK1
  1

  9
$DIMBLK2
  1

  9
$DIMSTYLE
  2
BEMASSUNG
  9
$DIMCLRD
 70
     1
  9
$DIMCLRE
 70
     1
  9
$DIMCLRT
 70
     1
  9
$DIMTFAC
 40
0.5714285714285714
  9
$DIMGAP
 40
0.1
  9
$DIMJUST
 70
     0
  9
$DIMSD1
 70
     0
  9
$DIMSD2
 70
     0
  9
$DIMTOLJ
 70
     1
  9
$DIMTZIN
 70
     8
  9
$DIMALTZ
 70
     8
  9
$DIMALTTZ
 70
     8
  9
$DIMUPT
 70
     0
  9
$DIMDEC
 70
     1
  9
$DIMTDEC
 70
     1
  9
$DIMALTU
 70
     2
  9
$DIMALTTD
 70
     2
  9
$DIMTXSTY
  7
STANDARD
  9
$DIMAUNIT
 70
     0
  9
$DIMADEC
 70
     0
  9
$DIMALTRND
 40
0.0
  9
$DIMAZIN
 70
     0
  9
$DIMDSEP
 70
    46
  9
$DIMATFIT
 70
     3
  9
$DIMFRAC
 70
     0
  9
$DIMLDRBLK
  1

  9
$DIMLUNIT
 70
     2
  9
$DIMLWD
 70
    -2
  9
$DIMLWE
 70
    -2
  9
$DIMTMOVE
 70
     2
  9
$DIMFXL
 40
1.0
  9
$DIMFXLON
 70
     0
  9
$DIMJOGANG
 40
0.7853981633974483
  9
$DIMTFILL
 70
     0
  9
$DIMTFILLCLR
 70
     0
  9
$DIMARCSYM
 70
     0
  9
$DIMLTYPE
  6

  9
$DIMLTEX1
  6

  9
$DIMLTEX2
  6

  9
$LUNITS
 70
     2
  9
$LUPREC
 70
     1
  9
$SKETCHINC
 40
12.0
  9
$FILLETRAD
 40
0.0
  9
$AUNITS
 70
     0
  9
$AUPREC
 70
     0
  9
$MENU
  1
acad
  9
$ELEVATION
 40
0.0
  9
$PELEVATION
 40
0.0
  9
$THICKNESS
 40
0.0
  9
$LIMCHECK
 70
     0
  9
$CHAMFERA
 40
0.0
  9
$CHAMFERB
 40
0.0
  9
$CHAMFERC
 40
0.0
  9
$CHAMFERD
 40
0.0
  9
$SKPOLY
 70
     0
  9
$TDCREATE
 40
2449974.465972223
  9
$TDUCREATE
 40
2449974.382643287
  9
$TDUPDATE
 40
2458162.344710648
  9
$TDUUPDATE
 40
2458162.303043982
  9
$TDINDWG
 40
2.0743928935
  9
$TDUSRTIMER
 40
2.0743928935
  9
$USRTIMER
 70
     1
  9
$ANGBASE
 50
0.0
  9
$ANGDIR
 70
     0
  9
$PDMODE
 70
    34
  9
$PDSIZE
 40
0.0
  9
$PLINEWID
 40
0.0
  9
$SPLFRAME
 70
     0
  9
$SPLINETYPE
 70
     6
  9
$SPLINESEGS
 70
     8
  9
$HANDSEED
  5
3DF
  9
$SURFTAB1
 70
     6
  9
$SURFTAB2
 70
     6
  9
$SURFTYPE
 70
     6
  9
$SURFU
 70
     6
  9
$SURFV
 70
     6
  9
$UCSBASE
  2

  9
$UCSNAME
  2

  9
$UCSORG
 10
0.0
 20
0.0
 30
0.0
  9
$UCSXDIR
 10
1.0
 20
0.0
 30
0.0
  9
$UCSYDIR
 10
0.0
 20
1.0
 30
0.0
  9
$UCSORTHOREF
  2

  9
$UCSORTHOVIEW
 70
     0
  9
$UCSORGTOP
 10
0.0
 20
0.0
 30
0.0
  9
$UCSORGBOTTOM
 10
0.0
 20
0.0
 30
0.0
  9
$UCSORGLEFT
 10
0.0
 20
0.0
 30
0.0
  9
$UCSORGRIGHT
 10
0.0
 20
0.0
 30
0.0
  9
$UCSORGFRONT
 10
0.0
 20
0.0
 30
0.0
  9
$UCSORGBACK
 10
0.0
 20
0.0
 30
0.0
  9
$PUCSBASE
  2

  9
$PUCSNAME
  2

  9
$PUCSORG
 10
0.0
 20
0.0
 30
0.0
  9
$PUCSXDIR
 10
1.0
 20
0.0
 30
0.0
  9
$PUCSYDIR
 10
0.0
 20
1.0
 30
0.0
  9
$PUCSORTHOREF
  2

  9
$PUCSORTHOVIEW
 70
     0
  9
$PUCSORGTOP
 10
0.0
 20
0.0
 30
0.0
  9
$PUCSORGBOTTOM
 10
0.0
 20
0.0
 30
0.0
  9
$PUCSORGLEFT
 10
0.0
 20
0.0
 30
0.0
  9
$PUCSORGRIGHT
 10
0.0
 20
0.0
 30
0.0
  9
$PUCSORGFRONT
 10
0.0
 20
0.0
 30
0.0
  9
$PUCSORGBACK
 10
0.0
 20
0.0
 30
0.0
  9
$USERI1
 70
     0
  9
$USERI2
 70
     0
  9
$USERI3
 70
     0
  9
$USERI4
 70
     0
  9
$USERI5
 70
     0
  9
$USERR1
 40
0.0
  9
$USERR2
 40
0.0
  9
$USERR3
 40
0.0
  9
$USERR4
 40
0.0
  9
$USERR5
 40
0.0
  9
$WORLDVIEW
 70
     1
  9
$SHADEDGE
 70
     3
  9
$SHADEDIF
 70
    70
  9
$TILEMODE
 70
     1
  9
$MAXACTVP
 70
    16
  9
$PINSBASE
 10
0.0
 20
0.0
 30
0.0
  9
$PLIMCHECK
 70
     0
  9
$PEXTMIN
 10
1.000000000000000E+20
 20
1.000000000000000E+20
 30
1.000000000000000E+20
  9
$PEXTMAX
 10
-1.000000000000000E+20
 20
-1.000000000000000E+20
 30
-1.000000000000000E+20
  9
$PLIMMIN
 10
0.0
 20
0.0
  9
$PLIMMAX
 10
12.0
 20
9.0
  9
$UNITMODE
 70
     0
  9
$VISRETAIN
 70
     0
  9
$PLINEGEN
 70
     0
  9
$PSLTSCALE
 70
     1
  9
$TREEDEPTH
 70
  3020
  9
$CMLSTYLE
  2
Standard
  9
$CMLJUST
 70
     0
  9
$CMLSCALE
 40
1.0
  9
$PROXYGRAPHICS
 70
     1
  9
$MEASUREMENT
 70
     0
  9
$CELWEIGHT
370
    -1
  9
$ENDCAPS
280
     0
  9
$JOINSTYLE
280
     0
  9
$LWDISPLAY
290
     0
  9
$INSUNITS
 70
     0
  9
$HYPERLINKBASE
  1

  9
$STYLESHEET
  1

  9
$XEDIT
290
     1
  9
$CEPSNTYPE
380
     0
  9
$PSTYLEMODE
290
     1
  9
$FINGERPRINTGUID
  2
{5E4C4619-BF4F-2C4F-BC05-FA263CB05A77}
  9
$VERSIONGUID
  2
{F6C5CA87-3CFF-6949-8513-421FFB68747B}
  9
$EXTNAMES
290
     1
  9
$PSVPSCALE
 40
0.0
  9
$OLESTARTUP
290
     0
  9
$SORTENTS
280
   127
  9
$INDEXCTL
280
     0
  9
$HIDETEXT
280
     1
  9
$XCLIPFRAME
290
     0
  9
$HALOGAP
280
     0
  9
$OBSCOLOR
 70
   257
  9
$OBSLTYPE
280
     0
  9
$INTERSECTIONDISPLAY
280
     0
  9
$INTERSECTIONCOLOR
 70
   257
  9
$DIMASSOC
280
     2
  9
$PROJECTNAME
  1

  9
$CAMERADISPLAY
290
     0
  9
$LENSLENGTH
 40
50.0
  9
$CAMERAHEIGHT
 40
0.0
  9
$STEPSPERSEC
 40
2.0
  9
$STEPSIZE
 40
6.0
  9
$3DDWFPREC
 40
2.0
  9
$PSOLWIDTH
 40
0.25
  9
$PSOLHEIGHT
 40
4.0
  9
$LOFTANG1
 40
1.570796326794896
  9
$LOFTANG2
 40
1.570796326794896
  9
$LOFTMAG1
 40
0.0
  9
$LOFTMAG2
 40
0.0
  9
$LOFTPARAM
 70
     7
  9
$LOFTNORMALS
280
     1
  9
$LATITUDE
 40
37.795
  9
$LONGITUDE
 40
-122.394
  9
$NORTHDIRECTION
 40
0.0
  9
$TIMEZONE
 70
 -8000
  9
$LIGHTGLYPHDISPLAY
280
     1
  9
$TILEMODELIGHTSYNCH
280
     1
  9
$CMATERIAL
347
38
  9
$SOLIDHIST
280
     0
  9
$SHOWHIST
280
     1
  9
$DWFFRAME
280
     2
  9
$DGNFRAME
280
     0
  9
$REALWORLDSCALE
290
     1
  9
$INTERFERECOLOR
 62
     1
  9
$INTERFEREOBJVS
345
50
  9
$INTERFEREVPVS
346
51
  9
$CSHADOW
280
     0
  9
$SHADOWPLANELOCATION
 40
0.0
  0
ENDSEC
  0
SECTION
  2
CLASSES
  0
CLASS
  1
ACDBDICTIONARYWDFLT
  2
AcDbDictionaryWithDefault
  3
ObjectDBX Classes
 90
        0
 91
        1
280
     0
281
     0
  0
CLASS
  1
MATERIAL
  2
AcDbMaterial
  3
ObjectDBX Classes
 90
     1153
 91
        3
280
     0
281
     0
  0
CLASS
  1
VISUALSTYLE
  2
AcDbVisualStyle
  3
ObjectDBX Classes
 90
     4095
 91
        3
280
     0
281
     0
  0
CLASS
  1
SCALE
  2
AcDbScale
  3
ObjectDBX Classes
 90
     1153
 91
       17
280
     0
281
     0
  0
CLASS
  1
TABLESTYLE
  2
AcDbTableStyle
  3
ObjectDBX Classes
 90
     4095
 91
        1
280
     0
281
     0
  0
CLASS
  1
MLEADERSTYLE
  2
AcDbMLeaderStyle
  3
ACDB_MLEADERSTYLE_CLASS
 90
     4095
 91
        0
280
     0
281
     0
  0
CLASS
  1
ACDB_TEXTOBJECTCONTEXTDATA_CLASS
  2
AcDbTextObjectContextData
  3
ObjectDBX Classes
 90
     1153
 91
        0
280
     0
281
     0
  0
CLASS
  1
SORTENTSTABLE
  2
AcDbSortentsTable
  3
ObjectDBX Classes
 90
        0
 91
        2
280
     0
281
     0
  0
CLASS
  1
DICTIONARYVAR
  2
AcDbDictionaryVar
  3
ObjectDBX Classes
 90
        0
 91
        6
280
     0
281
     0
  0
CLASS
  1
ACDBSECTIONVIEWSTYLE
  2
AcDbSectionViewStyle
  3
ObjectDBX Classes
 90
     1025
 91
        0
280
     0
281
     0
  0
CLASS
  1
ACDBDETAILVIEWSTYLE
  2
AcDbDetailViewStyle
  3
ObjectDBX Classes
 90
     1025
 91
        0
280
     0
281
     0
  0
CLASS
  1
DIMASSOC
  2
AcDbDimAssoc
  3
"AcDbDimAssoc|Product Desc:     AcDim ARX App For Dimension|Company:          Autodesk, Inc.|WEB Address:      www.autodesk.com"
 90
        0
 91
        0
280
     0
281
     0
  0
CLASS
  1
MULTILEADER
  2
AcDbMLeader
  3
ACDB_MLEADER_CLASS
 90
     1025
 91
        0
280
     0
281
     1
  0
CLASS
  1
ACDB_MLEADEROBJECTCONTEXTDATA_CLASS
  2
AcDbMLeaderObjectContextData
  3
ObjectDBX Classes
 90
     1153
 91
        0
280
     0
281
     0
  0
CLASS
  1
ACDB_MTEXTOBJECTCONTEXTDATA_CLASS
  2
AcDbMTextObjectContextData
  3
ObjectDBX Classes
 90
     1153
 91
        0
280
     0
281
     0
  0
CLASS
  1
SOLID_BACKGROUND
  2
AcDbSolidBackground
  3
SCENEOE
 90
     4095
 91
        0
280
     0
281
     0
  0
CLASS
  1
NPOCOLLECTION
  2
AcDbImpNonPersistentObjectsCollection
  3
ObjectDBX Classes
 90
     1153
 91
        0
280
     0
281
     0
  0
CLASS
  1
CELLSTYLEMAP
  2
AcDbCellStyleMap
  3
ObjectDBX Classes
 90
     1152
 91
        1
280
     0
281
     0
  0
ENDSEC
  0
SECTION
  2
TABLES
  0
TABLE
  2
VPORT
  5
2C
330
0
100
AcDbSymbolTable
 70
     1
  0
VPORT
  5
2D
330
2C
100
AcDbSymbolTableRecord
100
AcDbViewportTableRecord
  2
*ACTIVE
 70
     0
 10
0.0
 20
0.0
 11
1.0
 21
1.0
 12
1635.886872841285
 22
2603.017495968567
 13
0.0
 23
0.0
 14
1.0
 24
1.0
 15
10.0
 25
10.0
 16
0.0
 26
0.0
 36
1.0
 17
0.0
 27
0.0
 37
0.0
 40
2738.156608471345
 41
2.294776119402984
 42
50.0
 43
0.0
 44
0.0
 50
0.0
 51
0.0
 71
     0
 72
  2000
 73
     1
 74
     0
 75
     0
 76
     0
 77
     0
 78
     0
281
     0
 65
     1
110
0.0
120
0.0
130
0.0
111
1.0
121
0.0
131
0.0
112
0.0
122
1.0
132
0.0
 79
     0
146
0.0
348
2E
 60
     3
 61
     5
292
     1
282
     0
141
0.0
142
0.0
 63
   250
421
  3355443
1001
ACAD_NAV_VCDISPLAY
1070
     3
  0
ENDTAB
  0
TABLE
  2
LTYPE
  5
27
330
0
100
AcDbSymbolTable
 70
     4
  0
LTYPE
  5
28
330
27
100
AcDbSymbolTableRecord
100
AcDbLinetypeTableRecord
  2
ByBlock
 70
     0
  3

 72
    65
 73
     0
 40
0.0
  0
LTYPE
  5
29
330
27
100
AcDbSymbolTableRecord
100
AcDbLinetypeTableRecord
  2
ByLayer
 70
     0
  3

 72
    65
 73
     0
 40
0.0
  0
LTYPE
  5
14
330
27
100
AcDbSymbolTableRecord
100
AcDbLinetypeTableRecord
  2
CONTINUOUS
 70
     0
  3
Durchgezogene Linie
 72
    65
 73
     0
 40
0.0
  0
LTYPE
  5
2B9
330
27
100
AcDbSymbolTableRecord
100
AcDbLinetypeTableRecord
  2
STRICHPUNKT2
 70
     0
  3
_._._._._._._._._._._._._._._._._._._._._._._._
 72
    65
 73
     4
 40
0.5
 49
0.25
 74
     0
 49
-0.125
 74
     0
 49
0.0
 74
     0
 49
-0.125
 74
     0
  0
LTYPE
  5
CC
330
27
100
AcDbSymbolTableRecord
100
AcDbLinetypeTableRecord
  2
VERDECKT
 70
     0
  3
__ __ __ __ __ __ __ __ __ __ __ __ __ __ __ __
 72
    65
 73
     2
 40
0.375
 49
0.25
 74
     0
 49
-0.125
 74
     0
  0
LTYPE
  5
29D
330
27
100
AcDbSymbolTableRecord
100
AcDbLinetypeTableRecord
  2
STRICHPUNKT
 70
     0
  3
__ . __ . __ . __ . __ . __ . __ . __ . __ . __
 72
    65
 73
     4
 40
1.0
 49
0.5
 74
     0
 49
-0.25
 74
     0
 49
0.0
 74
     0
 49
-0.25
 74
     0
  0
ENDTAB
  0
TABLE
  2
LAYER
  5
1E
102
{ACAD_XDICTIONARY
360
1F
102
}
330
0
100
AcDbSymbolTable
 70
     6
  0
LAYER
  5
6
330
1E
100
AcDbSymbolTableRecord
100
AcDbLayerTableRecord
  2
0
 70
     0
 62
     7
  6
CONTINUOUS
370
    -3
390
7
347
A
  0
LAYER
  5
12D
330
1E
100
AcDbSymbolTableRecord
100
AcDbLayerTableRecord
  2
Beschriftung
 70
     0
 62
     1
  6
CONTINUOUS
370
    -3
390
7
347
A
  0
LAYER
  5
6B
102
{ACAD_XDICTIONARY
360
6C
102
}
330
1E
100
AcDbSymbolTableRecord
100
AcDbLayerTableRecord
  2
Plankopf
 70
     0
 62
     7
  6
CONTINUOUS
370
     9
390
7
347
A
1001
AcAecLayerStandard
1000

1000

  0
LAYER
  5
A9
330
1E
100
AcDbSymbolTableRecord
100
AcDbLayerTableRecord
  2
Kasten
 70
     0
 62
     7
  6
CONTINUOUS
370
    30
390
7
347
A
1001
AcAecLayerStandard
1000

1000

1001
AcCmTransparency
1071
        0
  0
LAYER
  5
64
330
1E
100
AcDbSymbolTableRecord
100
AcDbLayerTableRecord
  2
Bauseitig_Beton
 70
     0
 62
     3
  6
CONTINUOUS
370
     5
390
7
347
A
1001
AcAecLayerStandard
1000

1000

1001
AcCmTransparency
1071
        0
  0
LAYER
  5
BA
330
1E
100
AcDbSymbolTableRecord
100
AcDbLayerTableRecord
  2
2-t. Schiebtreppe
 70
     0
 62
     7
  6
CONTINUOUS
370
    20
390
7
347
A
1001
AcAecLayerStandard
1000

1000

1001
AcCmTransparency
1071
        0
  0
ENDTAB
  0
TABLE
  2
STYLE
  5
24
330
0
100
AcDbSymbolTable
 70
     4
  0
STYLE
  5
25
330
24
100
AcDbSymbolTableRecord
100
AcDbTextStyleTableRecord
  2
STANDARD
 70
     0
 40
0.0
 41
1.0
 50
0.0
 71
     0
 42
3.5
  3
txt
  4

  0
STYLE
  5
4C
330
24
100
AcDbSymbolTableRecord
100
AcDbTextStyleTableRecord
  2
SIMPLEX
 70
     0
 40
0.0
 41
1.0
 50
0.0
 71
     0
 42
3.5
  3
C:\ACADWIN\FONTS\ISO.SHX
  4

1001
AcadAnnotative
1000
AnnotativeData
1002
{
1070
     1
1070
     1
1002
}
  0
STYLE
  5
83
330
24
100
AcDbSymbolTableRecord
100
AcDbTextStyleTableRecord
  2
TECHNICBOLD
 70
     0
 40
0.0
 41
1.0
 50
0.0
 71
     0
 42
3.5
  3
teb_____.pfb
  4

  0
STYLE
  5
133
330
24
100
AcDbSymbolTableRecord
100
AcDbTextStyleTableRecord
  2
Arial
 70
     0
 40
25.0
 41
1.0
 50
0.0
 71
     0
 42
25.0
  3
arial.ttf
  4

1001
ACAD
1000
Arial
1071
       34
  0
ENDTAB
  0
TABLE
  2
VIEW
  5
2A
330
0
100
AcDbSymbolTable
 70
     0
  0
ENDTAB
  0
TABLE
  2
UCS
  5
2B
330
0
100
AcDbSymbolTable
 70
     0
  0
ENDTAB
  0
TABLE
  2
APPID
  5
31
330
0
100
AcDbSymbolTable
 70
     9
  0
APPID
  5
23
330
31
100
AcDbSymbolTableRecord
100
AcDbRegAppTableRecord
  2
ACAD
 70
     0
  0
APPID
  5
4D
330
31
100
AcDbSymbolTableRecord
100
AcDbRegAppTableRecord
  2
AcadAnnotative
 70
     0
  0
APPID
  5
30
330
31
100
AcDbSymbolTableRecord
100
AcDbRegAppTableRecord
  2
ACAD_NAV_VCDISPLAY
 70
     0
  0
APPID
  5
67
330
31
100
AcDbSymbolTableRecord
100
AcDbRegAppTableRecord
  2
GradientColor1ACI
 70
     0
  0
APPID
  5
68
330
31
100
AcDbSymbolTableRecord
100
AcDbRegAppTableRecord
  2
GradientColor2ACI
 70
     0
  0
APPID
  5
19
330
31
100
AcDbSymbolTableRecord
100
AcDbRegAppTableRecord
  2
ACAD_PSEXT
 70
     0
  0
APPID
  5
65
330
31
100
AcDbSymbolTableRecord
100
AcDbRegAppTableRecord
  2
AcAecLayerStandard
 70
     0
  0
APPID
  5
C8
330
31
100
AcDbSymbolTableRecord
100
AcDbRegAppTableRecord
  2
AcDbBlockRepETag
 70
     0
  0
APPID
  5
66
330
31
100
AcDbSymbolTableRecord
100
AcDbRegAppTableRecord
  2
AcCmTransparency
 70
     0
  0
ENDTAB
  0
TABLE
  2
DIMSTYLE
  5
32
330
0
100
AcDbSymbolTable
 70
     1
100
AcDbDimStyleTable
 71
     1
340
33
  0
DIMSTYLE
105
33
330
32
100
AcDbSymbolTableRecord
100
AcDbDimStyleTableRecord
  2
BEMASSUNG
 70
     0
 41
3.5
 42
0.1
 43
0.4
 44
1.8
 73
     0
 74
     0
 77
     1
 78
     8
140
3.5
141
5.0
146
0.5714285714285714
147
0.1
172
     1
176
     1
177
     1
178
     1
271
     1
272
     1
279
     2
284
     8
285
     8
286
     8
340
25
  0
ENDTAB
  0
TABLE
  2
BLOCK_RECORD
  5
1
330
0
100
AcDbSymbolTable
 70
     0
  0
BLOCK_RECORD
  5
2
102
{ACAD_XDICTIONARY
360
3
102
}
330
1
100
AcDbSymbolTableRecord
100
AcDbBlockTableRecord
  2
*Model_Space
340
16
 70
     0
280
     1
281
     0
  0
BLOCK_RECORD
  5
1A
330
1
100
AcDbSymbolTableRecord
100
AcDbBlockTableRecord
  2
*Paper_Space
340
1D
 70
     0
280
     1
281
     0
  0
ENDTAB
  0
ENDSEC
  0
SECTION
  2
BLOCKS
  0
BLOCK
  5
5
330
2
100
AcDbEntity
  8
0
100
AcDbBlockBegin
  2
*Model_Space
 70
     0
 10
0.0
 20
0.0
 30
0.0
  3
*Model_Space
  1

  0
ENDBLK
  5
15
330
2
100
AcDbEntity
  8
0
100
AcDbBlockEnd
  0
BLOCK
  5
1B
330
1A
100
AcDbEntity
 67
     1
  8
0
100
AcDbBlockBegin
  2
*Paper_Space
 70
     0
 10
0.0
 20
0.0
 30
0.0
  3
*Paper_Space
  1

  0
ENDBLK
  5
1C
330
1A
100
AcDbEntity
 67
     1
  8
0
100
AcDbBlockEnd
  0
ENDSEC
  0
SECTION
  2
ENTITIES
  0
HATCH
  5
63
330
2
100
AcDbEntity
  8
Bauseitig_Beton
100
AcDbHatch
 10
0.0
 20
0.0
 30
0.0
210
0.0
220
0.0
230
1.0
  2
ANSI33
 70
     0
 71
     1
 91
        1
 92
        1
 93
        4
 72
     1
 10
191.2999999999997
 20
2500.893391009475
 11
92.10336926743593
 21
2500.893391009475
 72
     1
 10
92.10336926743593
 20
2500.893391009475
 11
92.10336926743593
 21
2742.893391009475
 72
     1
 10
92.10336926743593
 20
2742.893391009475
 11
191.2999999999997
 21
2742.893391009475
 72
     1
 10
191.2999999999997
 20
2742.893391009475
 11
191.2999999999997
 21
2500.893391009475
 97
        1
330
13A
 75
     1
 76
     1
 52
90.0
 41
40.0
 77
     0
 78
     2
 53
135.0
 43
0.0000000000004547
 44
2057.000000000002
 45
-7.071067811865475
 46
-7.071067811865475
 79
     0
 53
135.0
 43
0.0000000000004547
 44
2064.071067800001
 45
-7.071067811865475
 46
-7.071067811865475
 79
     2
 49
5.0
 49
-2.5
 98
        1
 10
0.0000000000004547
 20
2057.000000000002
1001
GradientColor1ACI
1070
     5
1001
GradientColor2ACI
1070
     2
1001
ACAD
1010
0.0
1020
0.0
1030
0.0
  0
HATCH
  5
69
330
2
100
AcDbEntity
  8
Bauseitig_Beton
100
AcDbHatch
 10
0.0
 20
0.0
 30
0.0
210
0.0
220
0.0
230
1.0
  2
ANSI33
 70
     0
 71
     1
 91
        1
 92
        1
 93
        4
 72
     1
 10
1305.496220898765
 20
2500.893391009475
 11
1206.299590166201
 21
2500.893391009475
 72
     1
 10
1206.299590166201
 20
2500.893391009475
 11
1206.299590166201
 21
2742.893391009476
 72
     1
 10
1206.299590166201
 20
2742.893391009476
 11
1305.496220898765
 21
2742.893391009476
 72
     1
 10
1305.496220898765
 20
2742.893391009476
 11
1305.496220898765
 21
2500.893391009475
 97
        1
330
1EC
 75
     1
 76
     1
 52
90.0
 41
40.0
 77
     0
 78
     2
 53
135.0
 43
1114.196220898765
 44
2057.000000000002
 45
-7.071067811865475
 46
-7.071067811865475
 79
     0
 53
135.0
 43
1114.196220898765
 44
2064.071067800002
 45
-7.071067811865475
 46
-7.071067811865475
 79
     2
 49
5.0
 49
-2.5
 98
        1
 10
1114.196220898765
 20
2057.000000000002
1001
GradientColor1ACI
1070
     5
1001
GradientColor2ACI
1070
     2
1001
ACAD
1010
0.0
1020
0.0
1030
0.0
  0
LWPOLYLINE
  5
6A
330
2
100
AcDbEntity
  8
Plankopf
100
AcDbPolyline
 90
        4
 70
     1
 43
0.0
 10
0.0000000000001137
 20
2082.0
 10
1397.6
 20
2082.0
 10
1397.6
 20
3057.0
 10
0.0000000000001137
 20
3057.0
  0
LINE
  5
6D
330
2
100
AcDbEntity
  8
Plankopf
 62
     0
100
AcDbLine
 10
1144.159999999999
 20
2129.684265728
 30
0.0
 11
1310.303999999999
 21
2129.684265728
 31
0.0
  0
LINE
  5
6E
330
2
100
AcDbEntity
  8
Plankopf
 62
     0
100
AcDbLine
 10
1144.159999999999
 20
2141.60531456
 30
0.0
 11
1397.6
 21
2141.60531456
 31
0.0
  0
LINE
  5
6F
330
2
100
AcDbEntity
  8
Plankopf
 62
     0
100
AcDbLine
 10
1003.359999999999
 20
2117.7632
 30
0.0
 11
1397.6
 21
2117.7632
 31
0.0
  0
LINE
  5
70
330
2
100
AcDbEntity
  8
Plankopf
 62
     0
100
AcDbLine
 10
862.5599999999993
 20
2153.5264
 30
0.0
 11
1353.952
 21
2153.5264
 31
0.0
  0
LINE
  5
71
330
2
100
AcDbEntity
  8
Plankopf
 62
     0
100
AcDbLine
 10
862.5599999999989
 20
2177.4624
 30
0.0
 11
1397.6
 21
2177.4624
 31
0.0
  0
LINE
  5
72
330
2
100
AcDbEntity
  8
Plankopf
 62
     0
100
AcDbLine
 10
862.5599999999989
 20
2177.4624
 30
0.0
 11
862.5599999999989
 21
2153.5264
 31
0.0
  0
LINE
  5
73
330
2
100
AcDbEntity
  8
Plankopf
 62
     0
100
AcDbLine
 10
862.5599999999989
 20
2153.5264
 30
0.0
 11
862.5599999999993
 21
2082.0
 31
0.0
  0
LINE
  5
74
330
2
100
AcDbEntity
  8
Plankopf
 62
     0
100
AcDbLine
 10
948.4479999999994
 20
2153.5264
 30
0.0
 11
948.4479999999994
 21
2177.4624
 31
0.0
  0
LINE
  5
75
330
2
100
AcDbEntity
  8
Plankopf
 62
     0
100
AcDbLine
 10
1062.495999999999
 20
2153.5264
 30
0.0
 11
1062.495999999999
 21
2177.4624
 31
0.0
  0
LINE
  5
76
330
2
100
AcDbEntity
  8
Plankopf
 62
     0
100
AcDbLine
 10
890.7199999999994
 20
2153.5264
 30
0.0
 11
890.7199999999994
 21
2177.4624
 31
0.0
  0
LINE
  5
77
330
2
100
AcDbEntity
  8
Plankopf
 62
     0
100
AcDbLine
 10
925.9199999999994
 20
2153.5264
 30
0.0
 11
925.9199999999994
 21
2177.4624
 31
0.0
  0
LINE
  5
78
330
2
100
AcDbEntity
  8
Plankopf
 62
     0
100
AcDbLine
 10
1003.359999999999
 20
2129.684265728
 30
0.0
 11
1144.159999999999
 21
2129.684265728
 31
0.0
  0
LINE
  5
79
330
2
100
AcDbEntity
  8
Plankopf
 62
     0
100
AcDbLine
 10
1025.888
 20
2141.5584
 30
0.0
 11
1144.159999999999
 21
2141.5584
 31
0.0
  0
LINE
  5
7A
330
2
100
AcDbEntity
  8
Plankopf
 62
     0
100
AcDbLine
 10
1003.359999999999
 20
2082.0
 30
0.0
 11
1003.359999999999
 21
2153.5264
 31
0.0
  0
LINE
  5
7B
330
2
100
AcDbEntity
  8
Plankopf
 62
     0
100
AcDbLine
 10
1039.968
 20
2117.7632
 30
0.0
 11
1039.968
 21
2129.684265728
 31
0.0
  0
LINE
  5
7C
330
2
100
AcDbEntity
  8
Plankopf
 62
     0
100
AcDbLine
 10
1197.067143682837
 20
2117.7632
 30
0.0
 11
1197.067143682837
 21
2153.5264
 31
0.0
  0
LINE
  5
7D
330
2
100
AcDbEntity
  8
Plankopf
 62
     0
100
AcDbLine
 10
1144.159999999999
 20
2117.7632
 30
0.0
 11
1144.159999999999
 21
2153.5264
 31
0.0
  0
LINE
  5
7E
330
2
100
AcDbEntity
  8
Plankopf
 62
     0
100
AcDbLine
 10
1353.952
 20
2117.7632
 30
0.0
 11
1353.952
 21
2153.5264
 31
0.0
  0
LINE
  5
7F
330
2
100
AcDbEntity
  8
Plankopf
 62
     0
100
AcDbLine
 10
1353.952
 20
2153.5264
 30
0.0
 11
1353.952
 21
2177.4624
 31
0.0
  0
LINE
  5
80
330
2
100
AcDbEntity
  8
Plankopf
 62
     0
100
AcDbLine
 10
1259.0528
 20
2153.5264
 30
0.0
 11
1259.0528
 21
2141.60531456
 31
0.0
  0
LINE
  5
81
330
2
100
AcDbEntity
  8
Plankopf
 62
     0
100
AcDbLine
 10
1310.303999999999
 20
2117.7632
 30
0.0
 11
1310.303999999999
 21
2141.60531456
 31
0.0
  0
TEXT
  5
82
330
2
100
AcDbEntity
  8
Plankopf
 62
     0
100
AcDbText
 10
915.4192174273019
 20
2125.286359070174
 30
0.0
 40
5.588351999999999
  1
Columbus Treppen AG
  7
TECHNICBOLD
100
AcDbText
  0
TEXT
  5
84
330
2
100
AcDbEntity
  8
Plankopf
 62
     0
100
AcDbText
 10
915.4192174273019
 20
2116.903831070174
 30
0.0
 40
5.588351999999999
  1
Industrie Haslen 12
  7
TECHNICBOLD
100
AcDbText
  0
TEXT
  5
85
330
2
100
AcDbEntity
  8
Plankopf
 62
     0
100
AcDbText
 10
915.4192174273019
 20
2108.521303070174
 30
0.0
 40
5.588351999999999
  1
9245 Oberbüren
  7
TECHNICBOLD
100
AcDbText
  0
TEXT
  5
86
330
2
100
AcDbEntity
  8
Plankopf
 62
     0
100
AcDbText
 10
914.8296937720649
 20
2100.138775070174
 30
0.0
 40
5.588351999999999
  1
Tel. 071 - 955 96 00
  7
TECHNICBOLD
100
AcDbText
  0
TEXT
  5
87
330
2
100
AcDbEntity
  8
Plankopf
 62
     0
100
AcDbText
 10
915.4192174273019
 20
2091.756247070174
 30
0.0
 40
5.588351999999999
  1
Fax 071 - 955 96 60
  7
TECHNICBOLD
100
AcDbText
  0
TEXT
  5
88
330
2
100
AcDbEntity
  8
Plankopf
 62
     0
100
AcDbText
 10
873.4612291465452
 20
2139.679837904296
 30
0.0
 40
8.0256
  1
COLUMBUS TREPPEN
  7
TECHNICBOLD
100
AcDbText
  0
ARC
  5
89
330
2
100
AcDbEntity
  8
Plankopf
 62
     0
100
AcDbCircle
 10
888.2564556567038
 20
2109.160313296623
 30
0.0
 40
7.73696
100
AcDbArc
 50
27.00000000000177
 51
332.9999999999982
  0
ARC
  5
8A
330
2
100
AcDbEntity
  8
Plankopf
 62
     0
100
AcDbCircle
 10
888.2564556567038
 20
2109.160313296623
 30
0.0
 40
13.11552
100
AcDbArc
 50
27.00000000000177
 51
332.9999999999982
  0
ARC
  5
8B
330
2
100
AcDbEntity
  8
Plankopf
 62
     0
100
AcDbCircle
 10
888.2564556567038
 20
2109.160313296623
 30
0.0
 40
20.33856
100
AcDbArc
 50
207.0000000000017
 51
152.9999999999982
  0
ARC
  5
8C
330
2
100
AcDbEntity
  8
Plankopf
 62
     0
100
AcDbCircle
 10
888.2564556567038
 20
2109.160313296623
 30
0.0
 40
14.96
100
AcDbArc
 50
207.0000000000017
 51
152.9999999999982
  0
LWPOLYLINE
  5
8D
330
2
100
AcDbEntity
  8
Plankopf
 62
     0
100
AcDbPolyline
 90
        2
 70
     0
 43
5.378559999999999
 10
877.830215656704
 20
2109.160313296623
 42
0.7883364345850938
 10
897.5463035194577
 20
2104.426899388619
 42
1.0
  0
LWPOLYLINE
  5
8E
330
2
100
AcDbEntity
  8
Plankopf
 62
     0
100
AcDbPolyline
 90
        2
 70
     0
 43
5.378559999999999
 10
897.5463035194577
 20
2113.893727204628
 42
0.7883364345850913
 10
877.830215656704
 20
2109.160313296623
 42
1.0
  0
LWPOLYLINE
  5
8F
330
2
100
AcDbEntity
  8
Plankopf
 62
     0
100
AcDbPolyline
 90
        3
 70
     0
 43
5.378560000000001
 10
872.5308320294768
 20
2101.14770784938
 42
0.7883364345850931
 10
905.9057356567043
 20
2109.160313296623
 42
0.7883364345850921
 10
872.5308320294768
 20
2117.172918743866
 42
1.0
  0
LINE
  5
90
330
2
100
AcDbEntity
  8
Plankopf
 62
     0
100
AcDbLine
 10
874.9269980548458
 20
2102.36861542052
 30
0.0
 11
870.1346660041069
 21
2099.92680027824
 31
0.0
  0
LINE
  5
91
330
2
100
AcDbEntity
  8
Plankopf
 62
     0
100
AcDbLine
 10
874.9269980548458
 20
2115.952011172727
 30
0.0
 11
870.1346660041069
 21
2118.393826315006
 31
0.0
  0
CIRCLE
  5
92
330
2
100
AcDbEntity
  8
Plankopf
 62
     0
100
AcDbCircle
 10
888.2564556567038
 20
2109.160313296623
 30
0.0
 40
5.892480000000001
  0
LWPOLYLINE
  5
93
330
2
100
AcDbEntity
  8
Plankopf
 62
     0
100
AcDbPolyline
 90
        2
 70
     1
 43
5.892480000000001
 10
885.3102156567036
 20
2109.160313296623
 42
1.0
 10
891.2026956567039
 20
2109.160313296623
 42
1.0
  0
LINE
  5
94
330
2
100
AcDbEntity
  8
Plankopf
 62
     0
100
AcDbLine
 10
895.1501374940887
 20
2105.647806959758
 30
0.0
 11
899.9424695448267
 21
2103.205991817479
 31
0.0
  0
LINE
  5
95
330
2
100
AcDbEntity
  8
Plankopf
 62
     0
100
AcDbLine
 10
895.1501374940887
 20
2112.672819633488
 30
0.0
 11
899.9424695448267
 21
2115.114634775767
 31
0.0
  0
CIRCLE
  5
96
330
2
100
AcDbEntity
  8
Plankopf
 62
     0
100
AcDbCircle
 10
996.2238317771232
 20
2144.321588139085
 30
0.0
 40
3.223971823094429
  0
TEXT
  5
97
330
2
100
AcDbEntity
  8
Plankopf
 62
     0
100
AcDbText
 10
994.558454369864
 20
2142.699851632732
 30
0.0
 40
4.35950592
  1
c
  7
TECHNICBOLD
100
AcDbText
  0
TEXT
  5
98
330
2
100
AcDbEntity
  8
Plankopf
 62
     0
100
AcDbText
 10
1006.158304045347
 20
2120.90771456
 30
0.0
 40
5.632
  1
Sach-Nr.
  7
TECHNICBOLD
100
AcDbText
  0
TEXT
  5
99
330
2
100
AcDbEntity
  8
Plankopf
 62
     0
100
AcDbText
 10
1007.865599999998
 20
2108.986666666669
 30
0.0
 40
5.632
  1
Benennung
  7
TECHNICBOLD
100
AcDbText
  0
TEXT
  5
9A
330
2
100
AcDbEntity
  8
Plankopf
 62
     0
100
AcDbText
 10
1146.068742732146
 20
2132.828780288
 30
0.0
 40
5.632
  1
Ursprung
  7
TECHNICBOLD
100
AcDbText
  0
TEXT
  5
9B
330
2
100
AcDbEntity
  8
Plankopf
 62
     0
100
AcDbText
 10
1146.068742732146
 20
2120.90771456
 30
0.0
 40
5.632
  1
Ersatz für
  7
TECHNICBOLD
100
AcDbText
  0
TEXT
  5
9C
330
2
100
AcDbEntity
  8
Plankopf
 62
     0
100
AcDbText
 10
1146.068742732146
 20
2144.74982912
 30
0.0
 40
5.632
  1
Gezeichnet
  7
TECHNICBOLD
100
AcDbText
  0
TEXT
  5
9D
330
2
100
AcDbEntity
  8
Plankopf
 62
     0
100
AcDbText
 10
1311.804732345299
 20
2133.485838553405
 30
0.0
 40
4.5056
  1
Anzahl Blatt
  7
TECHNICBOLD
100
AcDbText
  0
TEXT
  5
9E
330
2
100
AcDbEntity
  8
Plankopf
 62
     0
100
AcDbText
 10
1362.532152321873
 20
2133.485838553405
 30
0.0
 40
4.5056
  1
Blatt-Nr.
  7
TECHNICBOLD
100
AcDbText
  0
TEXT
  5
9F
330
2
100
AcDbEntity
  8
Plankopf
 62
     0
100
AcDbText
 10
1358.457599999997
 20
2168.685866666669
 30
0.0
 40
5.632
  1
Massstab
  7
TECHNICBOLD
100
AcDbText
  0
TEXT
  5
A0
330
2
100
AcDbEntity
  8
Plankopf
 62
     0
100
AcDbText
 10
874.4497777777757
 20
2161.789649839667
 30
0.0
 40
5.632
  1
*
  7
TECHNICBOLD
 72
     1
 11
876.6399999999981
 21
2161.789649839667
 31
0.0
100
AcDbText
  0
TEXT
  5
A1
330
2
100
AcDbEntity
  8
Plankopf
 62
     0
100
AcDbText
 10
906.1297777777756
 20
2161.789649839667
 30
0.0
 40
5.632
  1
*
  7
TECHNICBOLD
 72
     1
 11
908.3199999999978
 21
2161.789649839667
 31
0.0
100
AcDbText
  0
TEXT
  5
A2
330
2
100
AcDbEntity
  8
Plankopf
 62
     0
100
AcDbText
 10
1366.44607233358
 20
2148.776242037114
 30
0.0
 40
12.672
  1
1:5
  7
TECHNICBOLD
100
AcDbText
  0
TEXT
  5
A3
330
2
100
AcDbEntity
  8
Plankopf
 62
     0
100
AcDbText
 10
1326.794390702388
 20
2124.193875544901
 30
0.0
 40
4.5056
  1
1
  7
TECHNICBOLD
100
AcDbText
  0
TEXT
  5
A4
330
2
100
AcDbEntity
  8
Plankopf
 62
     0
100
AcDbText
 10
1377.521810678961
 20
2124.193875544901
 30
0.0
 40
4.5056
  1
1
  7
TECHNICBOLD
100
AcDbText
  0
LINE
  5
A5
330
2
100
AcDbEntity
  8
Plankopf
 62
     0
100
AcDbLine
 10
1039.968
 20
2129.5904
 30
0.0
 11
1039.968
 21
2153.5264
 31
0.0
  0
LINE
  5
A6
330
2
100
AcDbEntity
  8
Plankopf
 62
     0
100
AcDbLine
 10
1025.888
 20
2129.5904
 30
0.0
 11
1025.888
 21
2153.5264
 31
0.0
  0
TEXT
  5
A7
330
2
100
AcDbEntity
  8
Plankopf
 62
     0
100
AcDbText
 10
1005.905951342073
 20
2139.600120536971
 30
0.0
 40
5.632
  1
änd.
  7
TECHNICBOLD
 72
     1
 11
1013.917553681255
 21
2139.600120536971
 31
0.0
100
AcDbText
  0
LWPOLYLINE
  5
A8
330
2
100
AcDbEntity
  8
Kasten
100
AcDbPolyline
 90
        4
 70
     1
 43
0.0
 10
198.7999999999996
 20
2492.893391009476
 10
217.7999999999996
 20
2492.893391009476
 10
217.7999999999996
 20
2742.893391009476
 10
198.7999999999996
 20
2742.893391009476
  0
LWPOLYLINE
  5
AA
330
2
100
AcDbEntity
  8
Kasten
100
AcDbPolyline
 90
        4
 70
     1
 43
0.0
 10
1179.8
 20
2492.893391009476
 10
1160.8
 20
2492.893391009476
 10
1160.8
 20
2742.893391009476
 10
1179.8
 20
2742.893391009476
  0
LWPOLYLINE
  5
AB
330
2
100
AcDbEntity
  8
Kasten
100
AcDbPolyline
 90
        4
 70
     1
 43
0.0
 10
1198.8
 20
2492.893391009476
 10
1179.8
 20
2492.893391009476
 10
1179.8
 20
2742.893391009476
 10
1198.8
 20
2742.893391009476
  0
LINE
  5
AC
330
2
100
AcDbEntity
  8
Kasten
100
AcDbLine
 10
217.7999999999996
 20
2742.893391009476
 30
0.0
 11
1160.8
 21
2742.893391009476
 31
0.0
  0
TEXT
  5
AD
102
{ACAD_XDICTIONARY
360
AE
102
}
330
2
100
AcDbEntity
  8
Plankopf
 62
     0
100
AcDbText
 10
1125.604206366644
 20
2164.480007550543
 30
0.0
 40
7.601428799999998
  1
Deckenanschluss 3 Schnitt längs
  7
TECHNICBOLD
100
AcDbText
1001
AcadAnnotative
1000
AnnotativeData
1002
{
1070
     1
1070
     0
1002
}
  0
LWPOLYLINE
  5
B1
330
2
100
AcDbEntity
  8
Kasten
100
AcDbPolyline
 90
        4
 70
     1
 43
0.0
 10
155.3000000000001
 20
2489.893391009476
 10
215.3000000000001
 20
2489.893391009476
 10
215.3000000000001
 20
2492.893391009476
 10
155.3000000000001
 20
2492.893391009476
  0
LWPOLYLINE
  5
B2
330
2
100
AcDbEntity
  8
Kasten
100
AcDbPolyline
 90
        4
 70
     1
 43
0.0
 10
1163.3
 20
2489.893391009476
 10
1223.3
 20
2489.893391009476
 10
1223.3
 20
2492.893391009476
 10
1163.3
 20
2492.893391009476
  0
TEXT
  5
B3
330
2
100
AcDbEntity
  8
Plankopf
 62
     0
100
AcDbText
 10
1200.613235401876
 20
2144.702914560001
 30
0.0
 40
5.632
  1
01.05.14 EK
  7
TECHNICBOLD
100
AcDbText
  0
TEXT
  5
B4
330
2
100
AcDbEntity
  8
Plankopf
 62
     0
100
AcDbText
 10
1303.793488042719
 20
2108.986666666669
 30
0.0
 40
5.632
  1
Zeichnungs-Nr.
  7
TECHNICBOLD
100
AcDbText
  0
TEXT
  5
B5
102
{ACAD_XDICTIONARY
360
B6
102
}
330
2
100
AcDbEntity
  8
Plankopf
 62
     0
100
AcDbText
 10
1113.501233420661
 20
2104.510638620435
 30
0.0
 40
8.001503999999998
  1
Schnitt Längs
  7
TECHNICBOLD
100
AcDbText
1001
AcadAnnotative
1000
AnnotativeData
1002
{
1070
     1
1070
     0
1002
}
  0
TEXT
  5
B9
330
2
100
AcDbEntity
  8
2-t. Schiebtreppe
 62
     0
100
AcDbText
 10
1313.058683232928
 20
2086.450092806627
 30
0.0
 40
14.19264
  1
EK3D05
  7
TECHNICBOLD
100
AcDbText
  0
TEXT
  5
BB
102
{ACAD_XDICTIONARY
360
BC
102
}
330
2
100
AcDbEntity
  8
Plankopf
 62
     0
100
AcDbText
 10
1040.184754423902
 20
2090.452385438282
 30
0.0
 40
8.001503999999998
  1
Deckenanschluss 3, 80mm Isolation U=0.3
  7
TECHNICBOLD
100
AcDbText
1001
AcadAnnotative
1000
AnnotativeData
1002
{
1070
     1
1070
     0
1002
}
  0
LINE
  5
BF
330
2
100
AcDbEntity
  8
Plankopf
 62
     0
100
AcDbLine
 10
1297.6
 20
2082.0
 30
0.0
 11
1297.6
 21
2117.7632
 31
0.0
  0
TEXT
  5
C0
330
2
100
AcDbEntity
  8
Plankopf
 62
     0
100
AcDbText
 10
1043.100412597009
 20
2144.712339535727
 30
0.0
 40
4.5056
  1
01.02.18 EK  SW-Deckel
  7
TECHNICBOLD
100
AcDbText
  0
TEXT
  5
C1
330
2
100
AcDbEntity
  8
Plankopf
 62
     0
100
AcDbText
 10
1031.716376303637
 20
2144.70291456
 30
0.0
 40
5.632
  1
1
  7
TECHNICBOLD
100
AcDbText
  0
TEXT
  5
C2
102
{ACAD_XDICTIONARY
360
C3
102
}
330
2
100
AcDbEntity
  8
Plankopf
 62
     0
100
AcDbText
 10
960.5533978357053
 20
2162.566276299163
 30
0.0
 40
7.5
  1
Stand: Februar 18
  7
TECHNICBOLD
100
AcDbText
1001
AcadAnnotative
1000
AnnotativeData
1002
{
1070
     1
1070
     0
1002
}
  0
HATCH
  5
C6
330
2
100
AcDbEntity
  8
Kasten
 62
     9
100
AcDbHatch
 10
0.0
 20
0.0
 30
0.0
210
0.0
220
0.0
230
1.0
  2
AR-SAND
 70
     0
 71
     0
 91
        2
 92
        7
 72
     1
 73
     1
 93
       14
 10
1107.800000000001
 20
2580.893391009473
 42
0.0
 10
270.7999999999996
 20
2580.893391009473
 42
0.0
 10
270.7999999999996
 20
2549.893391009476
 42
0.0
 10
291.629411764707
 20
2549.893391009476
 42
0.0
 10
291.629411764707
 20
2525.393391009476
 42
0.0
 10
276.0294117647082
 20
2525.393391009476
 42
0.0
 10
276.0294117647082
 20
2500.893391009478
 42
0.0
 10
1107.800000000001
 20
2500.893391009474
 42
0.0
 10
1107.800000000001
 20
2507.893391009472
 42
0.0
 10
1053.296009438149
 20
2507.893391009472
 42
-0.4142135623730951
 10
1040.796009438149
 20
2520.393391009472
 42
0.0
 10
1040.796009438149
 20
2530.893391009472
 42
-0.4142135623731012
 10
1053.296009438149
 20
2543.393391009472
 42
0.0
 10
1107.800000000001
 20
2543.393391009471
 42
0.0
 97
        0
 92
       23
 72
     1
 73
     1
 93
        6
 10
1107.800000000001
 20
2543.393391009471
 42
0.0
 10
1053.296009438149
 20
2543.393391009472
 42
0.4142135623730999
 10
1040.796009438149
 20
2530.893391009472
 42
0.0
 10
1040.796009438149
 20
2520.393391009472
 42
0.4142135623730951
 10
1053.296009438149
 20
2507.893391009472
 42
0.0
 10
1107.800000000001
 20
2507.893391009472
 42
0.0
 97
        0
 75
     1
 76
     1
 52
0.0
 41
3.0
 77
     0
 78
     4
 53
37.5
 43
-0.0000000000001137
 44
0.0
 45
-0.1889800743288245
 46
5.780471307039475
 79
     6
 49
0.0
 49
-4.56
 49
0.0
 49
-5.099999999999999
 49
0.0
 49
-4.875
 53
7.499999999999999
 43
-0.0000000000001137
 44
0.0
 45
5.309330115803181
 46
8.466438195689221
 79
     6
 49
0.0
 49
-2.459999999999999
 49
0.0
 49
-4.11
 49
0.0
 49
-1.575
 53
327.5
 43
-3.690000000000168
 44
0.0
 45
9.342425585254485
 46
0.0169771606108948
 79
     6
 49
0.0
 49
-1.5
 49
0.0
 49
-5.4
 49
0.0
 49
-7.05
 53
317.5
 43
-3.690000000000168
 44
0.0
 45
9.01837981371688
 46
2.633026694802747
 79
     6
 49
0.0
 49
-0.75
 49
0.0
 49
-3.54
 49
0.0
 49
-4.05
 47
0.8938168004147341
 98
        2
 10
1064.05318931966
 20
2563.356494668206
 10
1075.680943684863
 20
2532.072917444217
1001
GradientColor1ACI
1070
     5
1001
GradientColor2ACI
1070
     2
1001
ACAD
1010
0.0
1020
0.0
1030
0.0
  0
LWPOLYLINE
  5
C7
330
2
100
AcDbEntity
  8
Kasten
100
AcDbPolyline
 90
        4
 70
     1
 43
0.0
 10
220.7999999999996
 20
2500.893391009478
 10
1157.800000000001
 20
2500.893391009474
 10
1157.799999999999
 20
2492.893391009476
 10
220.7999999999996
 20
2492.893391009476
1001
AcDbBlockRepETag
1070
     1
1071
        9
1005
0
  0
HATCH
  5
C9
330
2
100
AcDbEntity
  8
Kasten
 62
     7
100
AcDbHatch
 10
0.0
 20
0.0
 30
0.0
210
0.0
220
0.0
230
1.0
  2
ANSI31
 70
     0
 71
     0
 91
        1
 92
        7
 72
     0
 73
     1
 93
       23
 10
228.5013781846632
 20
2510.45075871701
 10
228.1700705057013
 20
2512.856732916493
 10
224.5000000000004
 20
2512.371756316805
 10
224.5000000000004
 20
2514.371756316805
 10
225.4393811773665
 20
2514.177944543142
 10
225.6978272336713
 20
2514.69728765746
 10
224.5000000000004
 20
2515.747974658947
 10
224.5000000000004
 20
2516.871756316805
 10
225.4393811773665
 20
2516.677944543142
 10
225.6751561411587
 20
2517.215313961346
 10
223.7999999999996
 20
2518.447974658946
 10
221.9248438588405
 20
2517.215313961346
 10
222.1606188226346
 20
2516.677944543143
 10
223.1000000000007
 20
2516.871756316805
 10
223.1000000000007
 20
2515.747974658947
 10
221.9021727663279
 20
2514.69728765746
 10
222.1000000000007
 20
2514.171756316804
 10
223.1000000000007
 20
2514.371756316805
 10
223.0999999999971
 20
2512.371756316805
 10
219.3752808235298
 20
2512.901615808642
 10
218.0865620003737
 20
2507.907717318936
 10
223.5040262304395
 20
2508.984810342882
 10
225.5999204822423
 20
2507.922552325479
 97
        0
 75
     1
 76
     1
 52
0.0
 41
1.0
 77
     0
 78
     1
 53
45.0
 43
15.62480240390539
 44
-368.5272276701071
 45
-0.0883883476483184
 46
0.0883883476483185
 79
     0
 47
0.0849248499850866
 98
        1
 10
226.6636261061907
 20
2510.604852914184
1001
GradientColor1ACI
1070
     5
1001
GradientColor2ACI
1070
     2
1001
ACAD
1010
0.0
1020
0.0
1030
0.0
  0
LWPOLYLINE
  5
CA
330
2
100
AcDbEntity
  8
Kasten
100
AcDbPolyline
 90
       24
 70
     0
 43
0.0
 10
219.3752808235298
 20
2512.901615808642
 10
218.0865620003737
 20
2507.907717318936
 10
223.5040262304395
 20
2508.984810342882
 10
225.5999204822423
 20
2507.922552325479
 10
228.5013781846632
 20
2510.45075871701
 10
228.1700705057013
 20
2512.856732916493
 10
224.5000000000004
 20
2512.371756316805
 10
224.5000000000004
 20
2514.371756316805
 10
225.4393811773665
 20
2514.177944543142
 10
225.6978272336713
 20
2514.69728765746
 10
224.5000000000004
 20
2515.747974658947
 10
224.5000000000004
 20
2516.871756316805
 10
225.4393811773665
 20
2516.677944543142
 10
225.6751561411587
 20
2517.215313961346
 10
223.7999999999996
 20
2518.447974658946
 10
221.9248438588405
 20
2517.215313961346
 10
222.1606188226346
 20
2516.677944543143
 10
223.1000000000007
 20
2516.871756316805
 10
223.1000000000007
 20
2515.747974658947
 10
221.9021727663279
 20
2514.69728765746
 10
222.1000000000007
 20
2514.171756316804
 10
223.1000000000007
 20
2514.371756316805
 10
223.0999999999971
 20
2512.371756316805
 10
219.3752808235298
 20
2512.901615808642
  0
LWPOLYLINE
  5
CB
330
2
100
AcDbEntity
  8
Kasten
  6
VERDECKT
100
AcDbPolyline
 90
        4
 70
     1
 43
0.0
 10
249.0294117647067
 20
2492.893391009476
 10
278.0294117647085
 20
2492.893391009476
 10
278.0294117647085
 20
2494.393391009476
 10
249.0294117647067
 20
2494.393391009476
  0
LWPOLYLINE
  5
CD
330
2
100
AcDbEntity
  8
Kasten
  6
VERDECKT
100
AcDbPolyline
 90
        4
 70
     1
 43
0.0
 10
251.0294117647067
 20
2494.393391009476
 10
276.0294117647084
 20
2494.393391009476
 10
276.0294117647084
 20
2525.393391009476
 10
251.0294117647067
 20
2525.393391009476
  0
LWPOLYLINE
  5
CE
330
2
100
AcDbEntity
  8
Kasten
  6
VERDECKT
100
AcDbPolyline
 90
        4
 70
     1
 43
0.0
 10
237.629411764707
 20
2525.393391009476
 10
291.629411764707
 20
2525.393391009476
 10
291.629411764707
 20
2549.893391009476
 10
237.629411764707
 20
2549.893391009476
  0
LWPOLYLINE
  5
CF
330
2
100
AcDbEntity
  8
Kasten
  6
VERDECKT
100
AcDbPolyline
 90
        4
 70
     1
 43
0.0
 10
236.0294117647066
 20
2521.643391009476
 10
237.629411764707
 20
2521.643391009476
 10
237.629411764707
 20
2553.643391009476
 10
236.0294117647066
 20
2553.643391009476
  0
LWPOLYLINE
  5
D0
330
2
100
AcDbEntity
  8
Kasten
100
AcDbPolyline
 90
        3
 70
     1
 43
0.0
 10
237.629411764707
 20
2546.893391009476
 42
0.2467759312970799
 10
225.2294117647074
 20
2532.893391009476
 10
237.629411764707
 20
2532.893391009476
  0
LWPOLYLINE
  5
D1
330
2
100
AcDbEntity
  8
Kasten
100
AcDbPolyline
 90
        9
 70
     1
 43
0.0
 10
259.2844563159255
 20
2492.893391009476
 10
260.6776669290127
 20
2482.980182396212
 42
0.3738846794848048
 10
270.5803476164298
 20
2474.371913405813
 10
294.0604485510473
 20
2474.371913405813
 42
-0.3748546500691097
 10
299.0141282171559
 20
2470.050925751492
 42
2.199255981382728
 10
314.1228511987853
 20
2487.371913405814
 10
274.0574945676932
 20
2487.371913405813
 42
-0.3738846794848003
 10
273.0672264989522
 20
2488.232740304852
 10
272.412214758668
 20
2492.893391009476
  0
LWPOLYLINE
  5
D2
330
2
100
AcDbEntity
  8
Kasten
100
AcDbPolyline
 90
        4
 70
     1
 43
0.0
 10
232.2608490458464
 20
2555.548107804141
 10
229.7266015015924
 20
2511.621150370415
 10
231.7232813849263
 20
2511.505957300222
 10
234.2575289291784
 20
2555.432914733949
  0
LINE
  5
D3
330
2
100
AcDbEntity
  8
Kasten
100
AcDbLine
 10
231.8597736483884
 20
2548.596134248201
 30
0.0
 11
233.8564535317204
 21
2548.480941178008
 31
0.0
  0
LINE
  5
D4
330
2
100
AcDbEntity
  8
Kasten
100
AcDbLine
 10
230.9519307019331
 20
2532.860189842988
 30
0.0
 11
232.9486105852669
 21
2532.744996772795
 31
0.0
  0
LWPOLYLINE
  5
D5
330
2
100
AcDbEntity
  8
Kasten
100
AcDbPolyline
 90
        6
 70
     0
 43
0.0
 10
1140.796009438149
 20
2543.39339100947
 10
1053.296009438149
 20
2543.393391009472
 42
0.4142135623731009
 10
1040.796009438149
 20
2530.893391009472
 10
1040.796009438149
 20
2520.393391009472
 42
0.4142135623730946
 10
1053.296009438149
 20
2507.893391009472
 10
1140.796009438149
 20
2507.893391009472
1001
AcDbBlockRepETag
1070
     1
1071
       16
1005
0
  0
LWPOLYLINE
  5
D6
330
2
100
AcDbEntity
  8
Kasten
100
AcDbPolyline
 90
        9
 70
     0
 43
0.0
 10
1140.796009438149
 20
2543.39339100947
 10
1140.796009438147
 20
2505.393391009472
 10
1151.807809438151
 20
2505.393391009472
 10
1151.807809438149
 20
2492.893391009471
 10
1154.307809438147
 20
2492.893391009474
 10
1154.307809438149
 20
2507.893391009474
 10
1143.296009438151
 20
2507.893391009474
 10
1143.296009438151
 20
2543.393391009472
 10
1140.796009438149
 20
2543.39339100947
1001
AcDbBlockRepETag
1070
     1
1071
       34
1005
0
  0
CIRCLE
  5
D7
330
2
100
AcDbEntity
  8
Kasten
100
AcDbCircle
 10
1157.557809438149
 20
2492.893391009474
 30
0.0
 40
3.249999999999999
1001
AcDbBlockRepETag
1070
     1
1071
       35
1005
0
  0
LWPOLYLINE
  5
D8
330
2
100
AcDbEntity
  8
Kasten
100
AcDbPolyline
 90
        4
 70
     0
 43
0.0
 10
1160.8
 20
2497.636807499731
 10
1160.8
 20
2556.89339100948
 10
1163.29219056185
 20
2556.89339100948
 10
1163.299999972606
 20
2492.893952314812
1001
AcDbBlockRepETag
1070
     1
1071
        7
1005
0
  0
CIRCLE
  5
D9
330
2
100
AcDbEntity
  8
Kasten
100
AcDbCircle
 10
1157.55
 20
2492.89339100948
 30
0.0
 40
5.75
1001
AcDbBlockRepETag
1070
     1
1071
        8
1005
0
  0
LWPOLYLINE
  5
DA
330
2
100
AcDbEntity
  8
Kasten
100
AcDbPolyline
 90
       16
 70
     1
 43
0.0
 10
217.7999999999996
 20
2599.893391009479
 10
217.7999999999996
 20
2512.893391009476
 10
217.7999999999996
 20
2512.893391009476
 10
217.7999999999996
 20
2512.893391009476
 10
221.7999999999996
 20
2512.893391009476
 10
221.7999999999996
 20
2520.893391009476
 10
225.7999999999996
 20
2520.893391009476
 10
225.7999999999996
 20
2512.893391009476
 10
229.7999999999996
 20
2512.893391009476
 10
232.7999999999996
 20
2564.893391009476
 10
236.7999999999996
 20
2564.893391009476
 10
236.7999999999996
 20
2572.893391009476
 10
240.7999999999996
 20
2572.893391009476
 10
240.7999999999996
 20
2564.893391009476
 10
244.7999999999996
 20
2564.893391009476
 10
244.7999999999996
 20
2599.893391009479
  0
LWPOLYLINE
  5
DB
330
2
100
AcDbEntity
  8
Kasten
100
AcDbPolyline
 90
       16
 70
     1
 43
0.0
 10
1160.8
 20
2599.893391009479
 10
1160.8
 20
2512.893391009476
 10
1160.8
 20
2512.893391009476
 10
1160.8
 20
2512.893391009476
 10
1156.8
 20
2512.893391009476
 10
1156.8
 20
2520.893391009476
 10
1152.8
 20
2520.893391009476
 10
1152.8
 20
2512.893391009476
 10
1148.8
 20
2512.893391009476
 10
1145.799999999999
 20
2564.893391009476
 10
1141.799999999999
 20
2564.893391009476
 10
1141.799999999999
 20
2572.893391009476
 10
1137.8
 20
2572.893391009476
 10
1137.8
 20
2564.893391009476
 10
1133.799999999999
 20
2564.893391009476
 10
1133.799999999999
 20
2599.893391009479
  0
LINE
  5
DC
330
2
100
AcDbEntity
  8
Kasten
100
AcDbLine
 10
244.7999999999996
 20
2599.893391009479
 30
0.0
 11
1133.799999999999
 21
2599.893391009479
 31
0.0
  0
HATCH
  5
DD
330
2
100
AcDbEntity
  8
Kasten
 62
     7
100
AcDbHatch
 10
0.0
 20
0.0
 30
0.0
210
0.0
220
0.0
230
1.0
  2
ANSI31
 70
     0
 71
     0
 91
        1
 92
        7
 72
     0
 73
     1
 93
       23
 10
243.5013781846631
 20
2562.45075871701
 10
243.1700705057013
 20
2564.856732916493
 10
239.5000000000004
 20
2564.371756316805
 10
239.5000000000004
 20
2566.371756316805
 10
240.4393811773665
 20
2566.177944543142
 10
240.6978272336713
 20
2566.69728765746
 10
239.5000000000004
 20
2567.747974658946
 10
239.5000000000004
 20
2568.871756316805
 10
240.4393811773665
 20
2568.677944543142
 10
240.6751561411587
 20
2569.215313961346
 10
238.7999999999996
 20
2570.447974658946
 10
236.9248438588405
 20
2569.215313961346
 10
237.1606188226345
 20
2568.677944543143
 10
238.1000000000007
 20
2568.871756316805
 10
238.1000000000007
 20
2567.747974658946
 10
236.9021727663279
 20
2566.69728765746
 10
237.1000000000007
 20
2566.171756316805
 10
238.1000000000007
 20
2566.371756316805
 10
238.0999999999971
 20
2564.371756316805
 10
234.3752808235298
 20
2564.901615808642
 10
233.0865620003736
 20
2559.907717318936
 10
238.5040262304396
 20
2560.984810342882
 10
240.5999204822423
 20
2559.922552325479
 97
        0
 75
     1
 76
     1
 52
0.0
 41
1.0
 77
     0
 78
     1
 53
45.0
 43
30.62480240390539
 44
-316.5272276701071
 45
-0.0883883476483184
 46
0.0883883476483185
 79
     0
 47
0.0849248499850866
 98
        1
 10
241.6636261061907
 20
2562.604852914184
1001
GradientColor1ACI
1070
     5
1001
GradientColor2ACI
1070
     2
1001
ACAD
1010
0.0
1020
0.0
1030
0.0
  0
LWPOLYLINE
  5
DE
330
2
100
AcDbEntity
  8
Kasten
100
AcDbPolyline
 90
       24
 70
     0
 43
0.0
 10
234.3752808235298
 20
2564.901615808642
 10
233.0865620003736
 20
2559.907717318936
 10
238.5040262304396
 20
2560.984810342882
 10
240.5999204822423
 20
2559.922552325479
 10
243.5013781846631
 20
2562.45075871701
 10
243.1700705057013
 20
2564.856732916493
 10
239.5000000000004
 20
2564.371756316805
 10
239.5000000000004
 20
2566.371756316805
 10
240.4393811773665
 20
2566.177944543142
 10
240.6978272336713
 20
2566.69728765746
 10
239.5000000000004
 20
2567.747974658946
 10
239.5000000000004
 20
2568.871756316805
 10
240.4393811773665
 20
2568.677944543142
 10
240.6751561411587
 20
2569.215313961346
 10
238.7999999999996
 20
2570.447974658946
 10
236.9248438588405
 20
2569.215313961346
 10
237.1606188226345
 20
2568.677944543143
 10
238.1000000000007
 20
2568.871756316805
 10
238.1000000000007
 20
2567.747974658946
 10
236.9021727663279
 20
2566.69728765746
 10
237.1000000000007
 20
2566.171756316805
 10
238.1000000000007
 20
2566.371756316805
 10
238.0999999999971
 20
2564.371756316805
 10
234.3752808235298
 20
2564.901615808642
  0
HATCH
  5
DF
330
2
100
AcDbEntity
  8
Kasten
 62
     7
100
AcDbHatch
 10
0.0
 20
0.0
 30
0.0
210
0.0
220
0.0
230
1.0
  2
ANSI31
 70
     0
 71
     0
 91
        1
 92
        7
 72
     0
 73
     1
 93
       23
 10
1153.000079517757
 20
2507.922552325479
 10
1155.095973769562
 20
2508.984810342882
 10
1160.513437999627
 20
2507.907717318936
 10
1159.224719176471
 20
2512.901615808642
 10
1155.500000000002
 20
2512.371756316805
 10
1155.5
 20
2514.371756316805
 10
1156.5
 20
2514.171756316804
 10
1156.697827233671
 20
2514.69728765746
 10
1155.5
 20
2515.747974658947
 10
1155.5
 20
2516.871756316805
 10
1156.439381177366
 20
2516.677944543143
 10
1156.675156141159
 20
2517.215313961346
 10
1154.8
 20
2518.447974658946
 10
1152.924843858841
 20
2517.215313961346
 10
1153.160618822634
 20
2516.677944543142
 10
1154.100000000001
 20
2516.871756316805
 10
1154.100000000001
 20
2515.747974658947
 10
1152.902172766328
 20
2514.69728765746
 10
1153.160618822634
 20
2514.177944543142
 10
1154.100000000001
 20
2514.371756316805
 10
1154.100000000001
 20
2512.371756316805
 10
1150.429929494298
 20
2512.856732916493
 10
1150.098621815338
 20
2510.45075871701
 97
        0
 75
     1
 76
     1
 52
0.0
 41
1.0
 77
     0
 78
     1
 53
45.0
 43
15.62480240390539
 44
-368.5272276701071
 45
-0.0883883476483184
 46
0.0883883476483185
 79
     0
 47
0.0849248499850866
 98
        1
 10
1151.936373893808
 20
2510.604852914184
1001
GradientColor1ACI
1070
     5
1001
GradientColor2ACI
1070
     2
1001
ACAD
1010
0.0
1020
0.0
1030
0.0
  0
LWPOLYLINE
  5
E0
330
2
100
AcDbEntity
  8
Kasten
100
AcDbPolyline
 90
       24
 70
     0
 43
0.0
 10
1159.224719176471
 20
2512.901615808642
 10
1160.513437999627
 20
2507.907717318936
 10
1155.095973769562
 20
2508.984810342882
 10
1153.000079517757
 20
2507.922552325479
 10
1150.098621815338
 20
2510.45075871701
 10
1150.429929494298
 20
2512.856732916493
 10
1154.100000000001
 20
2512.371756316805
 10
1154.100000000001
 20
2514.371756316805
 10
1153.160618822634
 20
2514.177944543142
 10
1152.902172766328
 20
2514.69728765746
 10
1154.100000000001
 20
2515.747974658947
 10
1154.100000000001
 20
2516.871756316805
 10
1153.160618822634
 20
2516.677944543142
 10
1152.924843858841
 20
2517.215313961346
 10
1154.8
 20
2518.447974658946
 10
1156.675156141159
 20
2517.215313961346
 10
1156.439381177366
 20
2516.677944543143
 10
1155.5
 20
2516.871756316805
 10
1155.5
 20
2515.747974658947
 10
1156.697827233671
 20
2514.69728765746
 10
1156.5
 20
2514.171756316804
 10
1155.5
 20
2514.371756316805
 10
1155.500000000002
 20
2512.371756316805
 10
1159.224719176471
 20
2512.901615808642
  0
HATCH
  5
E1
330
2
100
AcDbEntity
  8
Kasten
 62
     7
100
AcDbHatch
 10
0.0
 20
0.0
 30
0.0
210
0.0
220
0.0
230
1.0
  2
ANSI31
 70
     0
 71
     0
 91
        1
 92
        7
 72
     0
 73
     1
 93
       23
 10
1138.000079517757
 20
2559.922552325479
 10
1140.095973769561
 20
2560.984810342882
 10
1145.513437999626
 20
2559.907717318936
 10
1144.224719176471
 20
2564.901615808642
 10
1140.500000000002
 20
2564.371756316805
 10
1140.5
 20
2566.371756316805
 10
1141.5
 20
2566.171756316805
 10
1141.697827233671
 20
2566.69728765746
 10
1140.5
 20
2567.747974658946
 10
1140.5
 20
2568.871756316805
 10
1141.439381177366
 20
2568.677944543143
 10
1141.675156141159
 20
2569.215313961346
 10
1139.8
 20
2570.447974658946
 10
1137.92484385884
 20
2569.215313961346
 10
1138.160618822634
 20
2568.677944543142
 10
1139.100000000001
 20
2568.871756316805
 10
1139.100000000001
 20
2567.747974658946
 10
1137.902172766328
 20
2566.69728765746
 10
1138.160618822634
 20
2566.177944543142
 10
1139.100000000001
 20
2566.371756316805
 10
1139.100000000001
 20
2564.371756316805
 10
1135.429929494298
 20
2564.856732916493
 10
1135.098621815338
 20
2562.45075871701
 97
        0
 75
     1
 76
     1
 52
0.0
 41
1.0
 77
     0
 78
     1
 53
45.0
 43
30.62480240390539
 44
-316.5272276701071
 45
-0.0883883476483184
 46
0.0883883476483185
 79
     0
 47
0.0849248499850866
 98
        1
 10
1136.936373893808
 20
2562.604852914184
1001
GradientColor1ACI
1070
     5
1001
GradientColor2ACI
1070
     2
1001
ACAD
1010
0.0
1020
0.0
1030
0.0
  0
LWPOLYLINE
  5
E2
330
2
100
AcDbEntity
  8
Kasten
100
AcDbPolyline
 90
       24
 70
     0
 43
0.0
 10
1144.224719176471
 20
2564.901615808642
 10
1145.513437999626
 20
2559.907717318936
 10
1140.095973769561
 20
2560.984810342882
 10
1138.000079517757
 20
2559.922552325479
 10
1135.098621815338
 20
2562.45075871701
 10
1135.429929494298
 20
2564.856732916493
 10
1139.100000000001
 20
2564.371756316805
 10
1139.100000000001
 20
2566.371756316805
 10
1138.160618822634
 20
2566.177944543142
 10
1137.902172766328
 20
2566.69728765746
 10
1139.100000000001
 20
2567.747974658946
 10
1139.100000000001
 20
2568.871756316805
 10
1138.160618822634
 20
2568.677944543142
 10
1137.92484385884
 20
2569.215313961346
 10
1139.8
 20
2570.447974658946
 10
1141.675156141159
 20
2569.215313961346
 10
1141.439381177366
 20
2568.677944543143
 10
1140.5
 20
2568.871756316805
 10
1140.5
 20
2567.747974658946
 10
1141.697827233671
 20
2566.69728765746
 10
1141.5
 20
2566.171756316805
 10
1140.5
 20
2566.371756316805
 10
1140.500000000002
 20
2564.371756316805
 10
1144.224719176471
 20
2564.901615808642
  0
LWPOLYLINE
  5
E3
330
2
100
AcDbEntity
  8
Kasten
100
AcDbPolyline
 90
        4
 70
     1
 43
0.0
 10
252.7999999999996
 20
2580.893391009473
 10
1125.800000000001
 20
2580.893391009473
 10
1125.800000000001
 20
2599.893391009474
 10
252.7999999999996
 20
2599.893391009473
  0
LWPOLYLINE
  5
E4
330
2
100
AcDbEntity
  8
Kasten
100
AcDbPolyline
 90
        8
 70
     1
 43
0.0
 10
237.0394230769238
 20
2549.893391009476
 10
270.7999999999996
 20
2549.893391009476
 10
270.7999999999996
 20
2580.893391009473
 10
252.7999999999996
 20
2580.893391009473
 10
252.7999999999996
 20
2559.893391009476
 10
235.800000000001
 20
2559.893391009476
 10
235.4394230769243
 20
2553.643391009476
 10
237.0394230769238
 20
2553.643391009476
1001
AcDbBlockRepETag
1070
     1
1071
        1
1005
0
  0
LWPOLYLINE
  5
E5
330
2
100
AcDbEntity
  8
Kasten
100
AcDbPolyline
 90
        9
 70
     1
 43
0.0
 10
1144.799999999998
 20
2500.893391009471
 10
1107.800000000001
 20
2500.893391009471
 10
1107.800000000001
 20
2580.893391009473
 10
1125.800000000001
 20
2580.893391009473
 10
1125.800000000001
 20
2559.893391009476
 10
1142.8
 20
2559.893391009476
 10
1145.799999999998
 20
2507.893391009472
 10
1157.799999999999
 20
2507.893391009472
 10
1157.799999999998
 20
2500.893391009473
1001
AcDbBlockRepETag
1070
     1
1071
       11
1005
0
  0
LWPOLYLINE
  5
E6
330
2
100
AcDbEntity
  8
Kasten
100
AcDbPolyline
 90
       11
 70
     1
 43
0.0
 10
233.8000000000014
 20
2500.893391009476
 10
250.4394230769234
 20
2500.893391009473
 10
250.4394230769234
 20
2525.393391009476
 10
237.0394230769238
 20
2525.393391009476
 10
237.0394230769238
 20
2521.643391009476
 10
235.4394230769234
 20
2521.643391009476
 10
235.4394230769234
 20
2532.893391009476
 10
234.2423076923091
 20
2532.893391009476
 10
232.8000000000014
 20
2507.893391009474
 10
220.8000000000014
 20
2507.893391009476
 10
220.7999999999996
 20
2500.893391009478
1001
AcDbBlockRepETag
1070
     1
1071
        1
1005
0
  0
LWPOLYLINE
  5
E7
330
2
100
AcDbEntity
  8
2-t. Schiebtreppe
100
AcDbPolyline
 90
        4
 70
     1
 43
0.0
 10
287.3952581596352
 20
2752.631126126243
 10
473.4883682030611
 20
2771.687245454432
 10
470.6877511376975
 20
2799.036756168466
 10
284.5946410942714
 20
2779.980636840276
  0
LINE
  5
E8
330
2
100
AcDbEntity
  8
2-t. Schiebtreppe
100
AcDbLine
 10
644.2284109443131
 20
2791.955629561867
 30
0.0
 11
650.2895746777486
 21
2732.765154870441
 31
0.0
  0
LINE
  5
E9
330
2
100
AcDbEntity
  8
2-t. Schiebtreppe
100
AcDbLine
 10
619.358463594974
 20
2789.408922110844
 30
0.0
 11
625.4196273284093
 21
2730.218447419416
 31
0.0
  0
LINE
  5
EA
330
2
100
AcDbEntity
  8
2-t. Schiebtreppe
100
AcDbLine
 10
622.9301819787052
 20
2793.795586878902
 30
0.0
 11
639.8417461762552
 21
2795.527347945598
 31
0.0
  0
ARC
  5
EB
330
2
100
AcDbEntity
  8
2-t. Schiebtreppe
100
AcDbCircle
 10
643.8648305874929
 20
2672.798725400488
 30
0.0
 40
12.5
100
AcDbArc
 50
185.8467655624823
 51
5.846765562482306
  0
LINE
  5
EC
330
2
100
AcDbEntity
  8
2-t. Schiebtreppe
100
AcDbLine
 10
618.1114455706692
 20
2727.96223834315
 30
0.0
 11
624.0802329345101
 21
2728.573448131395
 31
0.0
  0
LINE
  5
ED
330
2
100
AcDbEntity
  8
2-t. Schiebtreppe
100
AcDbLine
 10
620.6581530216927
 20
2703.092290993811
 30
0.0
 11
626.626940385533
 21
2703.703500782056
 31
0.0
  0
LINE
  5
EE
330
2
100
AcDbEntity
  8
2-t. Schiebtreppe
100
AcDbLine
 10
653.1418870228946
 20
2704.91081383918
 30
0.0
 11
656.2998042621631
 21
2674.072079126001
 31
0.0
  0
LINE
  5
EF
330
2
100
AcDbEntity
  8
2-t. Schiebtreppe
100
AcDbLine
 10
628.2719396735553
 20
2702.364106388158
 30
0.0
 11
631.4298569128238
 21
2671.525371674976
 31
0.0
  0
LINE
  5
F0
330
2
100
AcDbEntity
  8
2-t. Schiebtreppe
100
AcDbLine
 10
651.9345739657699
 20
2731.425760476541
 30
0.0
 11
657.9033613296115
 21
2732.036970264787
 31
0.0
  0
LINE
  5
F1
330
2
100
AcDbEntity
  8
2-t. Schiebtreppe
100
AcDbLine
 10
654.481281416793
 20
2706.555813127202
 30
0.0
 11
660.4500687806346
 21
2707.167022915447
 31
0.0
  0
ARC
  5
F2
330
2
100
AcDbEntity
  8
2-t. Schiebtreppe
100
AcDbCircle
 10
659.1767150551234
 20
2719.601996590117
 30
0.0
 40
12.49999999999994
100
AcDbArc
 50
275.846765562483
 51
95.84676556248304
  0
ARC
  5
F3
330
2
100
AcDbEntity
  8
2-t. Schiebtreppe
100
AcDbCircle
 10
619.3847992961808
 20
2715.527264668481
 30
0.0
 40
12.49999999999994
100
AcDbArc
 50
95.84676556248304
 51
275.846765562483
  0
ARC
  5
F4
330
2
100
AcDbEntity
  8
2-t. Schiebtreppe
100
AcDbCircle
 10
623.3376551708685
 20
2789.816395303008
 30
0.0
 40
4.0
100
AcDbArc
 50
95.84676556248304
 51
185.8467655624823
  0
ARC
  5
F5
330
2
100
AcDbEntity
  8
2-t. Schiebtreppe
100
AcDbCircle
 10
640.2492193684187
 20
2791.548156369703
 30
0.0
 40
4.0
100
AcDbArc
 50
5.846765562482306
 51
95.84676556248304
  0
CIRCLE
  5
F6
330
2
100
AcDbEntity
  8
2-t. Schiebtreppe
100
AcDbCircle
 10
619.3847992961807
 20
2715.527264668479
 30
0.0
 40
3.25
  0
CIRCLE
  5
F7
330
2
100
AcDbEntity
  8
2-t. Schiebtreppe
100
AcDbCircle
 10
659.1767150551234
 20
2719.601996590117
 30
0.0
 40
3.25
  0
CIRCLE
  5
F8
330
2
100
AcDbEntity
  8
2-t. Schiebtreppe
100
AcDbCircle
 10
643.8648305874929
 20
2672.798725400488
 30
0.0
 40
3.25
  0
ARC
  5
F9
330
2
100
AcDbEntity
  8
2-t. Schiebtreppe
100
AcDbCircle
 10
626.7797428325949
 20
2702.211303941095
 30
0.0
 40
1.5
100
AcDbArc
 50
5.846765562482306
 51
95.84676556248304
  0
ARC
  5
FA
330
2
100
AcDbEntity
  8
2-t. Schiebtreppe
100
AcDbCircle
 10
654.634083863855
 20
2705.063616286241
 30
0.0
 40
1.5
100
AcDbArc
 50
95.84676556248304
 51
185.8467655624823
  0
ARC
  5
FB
330
2
100
AcDbEntity
  8
2-t. Schiebtreppe
100
AcDbCircle
 10
651.7817715187089
 20
2732.917957317501
 30
0.0
 40
1.5
100
AcDbArc
 50
185.8467655624823
 51
275.846765562483
  0
ARC
  5
FC
330
2
100
AcDbEntity
  8
2-t. Schiebtreppe
100
AcDbCircle
 10
623.927430487449
 20
2730.065644972355
 30
0.0
 40
1.5
100
AcDbArc
 50
275.846765562483
 51
5.846765562482306
  0
LINE
  5
FD
330
2
100
AcDbEntity
  8
2-t. Schiebtreppe
100
AcDbLine
 10
351.1637161649178
 20
2761.945510585156
 30
0.0
 11
357.2248798983523
 21
2702.755035893729
 31
0.0
  0
LINE
  5
FE
330
2
100
AcDbEntity
  8
2-t. Schiebtreppe
100
AcDbLine
 10
326.2937688155785
 20
2759.398803134133
 30
0.0
 11
332.354932549013
 21
2700.208328442706
 31
0.0
  0
LINE
  5
FF
330
2
100
AcDbEntity
  8
2-t. Schiebtreppe
100
AcDbLine
 10
329.8654871993083
 20
2763.78546790219
 30
0.0
 11
332.8498808812298
 21
2764.091072796313
 31
0.0
  0
ARC
  5
100
330
2
100
AcDbEntity
  8
2-t. Schiebtreppe
100
AcDbCircle
 10
352.8375017689162
 20
2622.892648544306
 30
0.0
 40
12.5
100
AcDbArc
 50
185.8467655624823
 51
5.846765562482306
  0
LINE
  5
101
330
2
100
AcDbEntity
  8
2-t. Schiebtreppe
100
AcDbLine
 10
325.0467507912731
 20
2697.952119366439
 30
0.0
 11
331.0155381551149
 21
2698.563329154684
 31
0.0
  0
LINE
  5
102
330
2
100
AcDbEntity
  8
2-t. Schiebtreppe
100
AcDbLine
 10
327.5934582422966
 20
2673.082172017099
 30
0.0
 11
333.562245606137
 21
2673.693381805345
 31
0.0
  0
LINE
  5
103
330
2
100
AcDbEntity
  8
2-t. Schiebtreppe
100
AcDbLine
 10
360.0771922434986
 20
2674.900694862469
 30
0.0
 11
365.2724754435854
 21
2624.166002269817
 31
0.0
  0
LINE
  5
104
330
2
100
AcDbEntity
  8
2-t. Schiebtreppe
100
AcDbLine
 10
335.2072448941601
 20
2672.353987411446
 30
0.0
 11
340.402528094247
 21
2621.619294818794
 31
0.0
  0
LINE
  5
105
330
2
100
AcDbEntity
  8
2-t. Schiebtreppe
100
AcDbLine
 10
358.8698791863746
 20
2701.415641499831
 30
0.0
 11
364.8386665502152
 21
2702.026851288076
 31
0.0
  0
LINE
  5
106
330
2
100
AcDbEntity
  8
2-t. Schiebtreppe
100
AcDbLine
 10
361.4165866373969
 20
2676.545694150491
 30
0.0
 11
367.3853740012386
 21
2677.156903938737
 31
0.0
  0
ARC
  5
107
330
2
100
AcDbEntity
  8
2-t. Schiebtreppe
100
AcDbCircle
 10
366.112020275728
 20
2689.591877613406
 30
0.0
 40
12.49999999999994
100
AcDbArc
 50
275.846765562483
 51
95.84676556248304
  0
ARC
  5
108
330
2
100
AcDbEntity
  8
2-t. Schiebtreppe
100
AcDbCircle
 10
326.3201045167845
 20
2685.517145691769
 30
0.0
 40
12.49999999999994
100
AcDbArc
 50
95.84676556248304
 51
275.846765562483
  0
ARC
  5
109
330
2
100
AcDbEntity
  8
2-t. Schiebtreppe
100
AcDbCircle
 10
330.2729603914722
 20
2759.806276326297
 30
0.0
 40
4.0
100
AcDbArc
 50
95.84676556248304
 51
185.8467655624823
  0
ARC
  5
10A
330
2
100
AcDbEntity
  8
2-t. Schiebtreppe
100
AcDbCircle
 10
347.1845245890234
 20
2761.538037392992
 30
0.0
 40
4.0
100
AcDbArc
 50
5.846765562482306
 51
95.84676556248304
  0
CIRCLE
  5
10B
330
2
100
AcDbEntity
  8
2-t. Schiebtreppe
100
AcDbCircle
 10
326.3201045167845
 20
2685.517145691769
 30
0.0
 40
3.25
  0
CIRCLE
  5
10C
330
2
100
AcDbEntity
  8
2-t. Schiebtreppe
100
AcDbCircle
 10
366.112020275728
 20
2689.591877613406
 30
0.0
 40
3.25
  0
CIRCLE
  5
10D
330
2
100
AcDbEntity
  8
2-t. Schiebtreppe
100
AcDbCircle
 10
350.8001358080974
 20
2642.788606423777
 30
0.0
 40
3.25
  0
LINE
  5
10E
330
2
100
AcDbEntity
  8
2-t. Schiebtreppe
100
AcDbLine
 10
330.6597124733496
 20
2785.479227516745
 30
0.0
 11
332.8498808812294
 21
2764.091072796313
 31
0.0
  0
LINE
  5
10F
330
2
100
AcDbEntity
  8
2-t. Schiebtreppe
100
AcDbLine
 10
339.9574900190363
 20
2787.939173189095
 30
0.0
 11
331.9991068672479
 21
2787.124226804768
 31
0.0
  0
ARC
  5
110
330
2
100
AcDbEntity
  8
2-t. Schiebtreppe
100
AcDbCircle
 10
340.1102924660985
 20
2786.446976348134
 30
0.0
 40
1.5
100
AcDbArc
 50
5.846765562482306
 51
95.84676556248304
  0
ARC
  5
111
330
2
100
AcDbEntity
  8
2-t. Schiebtreppe
100
AcDbCircle
 10
332.1519093143097
 20
2785.632029963807
 30
0.0
 40
1.5
100
AcDbArc
 50
95.84676556248304
 51
185.8467655624823
  0
LINE
  5
112
330
2
100
AcDbEntity
  8
2-t. Schiebtreppe
100
AcDbLine
 10
343.7926577149387
 20
2765.211624074764
 30
0.0
 11
346.7770513968593
 21
2765.517228968886
 31
0.0
  0
ARC
  5
113
330
2
100
AcDbEntity
  8
2-t. Schiebtreppe
100
AcDbCircle
 10
330.862735708053
 20
2700.055525995645
 30
0.0
 40
1.5
100
AcDbArc
 50
275.846765562483
 51
5.846765562482306
  0
ARC
  5
114
330
2
100
AcDbEntity
  8
2-t. Schiebtreppe
100
AcDbCircle
 10
358.7170767393125
 20
2702.907838340791
 30
0.0
 40
1.5
100
AcDbArc
 50
185.8467655624823
 51
275.846765562483
  0
ARC
  5
115
330
2
100
AcDbEntity
  8
2-t. Schiebtreppe
100
AcDbCircle
 10
361.5693890844586
 20
2675.053497309531
 30
0.0
 40
1.5
100
AcDbArc
 50
95.84676556248304
 51
185.8467655624823
  0
ARC
  5
116
330
2
100
AcDbEntity
  8
2-t. Schiebtreppe
100
AcDbCircle
 10
333.7150480531992
 20
2672.201184964384
 30
0.0
 40
1.5
100
AcDbArc
 50
5.846765562482306
 51
95.84676556248304
  0
CIRCLE
  5
117
330
2
100
AcDbEntity
  8
2-t. Schiebtreppe
100
AcDbCircle
 10
352.8375017689162
 20
2622.892648544306
 30
0.0
 40
4.999999999999879
  0
LWPOLYLINE
  5
118
330
2
100
AcDbEntity
  8
2-t. Schiebtreppe
100
AcDbPolyline
 90
        4
 70
     1
 43
0.0
 10
809.5234267833312
 20
2705.810759959013
 10
1109.072301588384
 20
2689.364739071679
 10
1110.49762339862
 20
2715.325641554783
 10
810.9487485935671
 20
2731.771662442118
  0
CIRCLE
  5
119
330
2
100
AcDbEntity
  8
2-t. Schiebtreppe
100
AcDbCircle
 10
352.8375017689162
 20
2622.892648544306
 30
0.0
 40
4.5
1001
AcDbBlockRepETag
1070
     1
1071
        1
1005
119
  0
CIRCLE
  5
11A
330
2
100
AcDbEntity
  8
2-t. Schiebtreppe
100
AcDbCircle
 10
1099.8
 20
2702.893391009475
 30
0.0
 40
4.5
1001
AcDbBlockRepETag
1070
     1
1071
        1
1005
11A
  0
CIRCLE
  5
11B
330
2
100
AcDbEntity
  8
2-t. Schiebtreppe
100
AcDbCircle
 10
1099.8
 20
2702.893391009475
 30
0.0
 40
4.5
  0
CIRCLE
  5
11C
330
2
100
AcDbEntity
  8
2-t. Schiebtreppe
100
AcDbCircle
 10
850.4226279054673
 20
2721.091642236026
 30
0.0
 40
3.1
  0
CIRCLE
  5
11D
330
2
100
AcDbEntity
  8
2-t. Schiebtreppe
100
AcDbCircle
 10
1010.182028563873
 20
2712.32043224001
 30
0.0
 40
3.1
  0
CIRCLE
  5
11E
330
2
100
AcDbEntity
  8
2-t. Schiebtreppe
100
AcDbCircle
 10
350.8001357571639
 20
2642.788606921176
 30
0.0
 40
3.1
  0
CIRCLE
  5
11F
330
2
100
AcDbEntity
  8
2-t. Schiebtreppe
100
AcDbCircle
 10
326.3201043232951
 20
2685.517146107495
 30
0.0
 40
3.1
  0
CIRCLE
  5
120
330
2
100
AcDbEntity
  8
2-t. Schiebtreppe
100
AcDbCircle
 10
366.1120200686433
 20
2689.591878161891
 30
0.0
 40
3.1
  0
CIRCLE
  5
121
330
2
100
AcDbEntity
  8
2-t. Schiebtreppe
100
AcDbCircle
 10
643.8648306783063
 20
2672.798725409788
 30
0.0
 40
3.1
  0
CIRCLE
  5
122
330
2
100
AcDbEntity
  8
2-t. Schiebtreppe
100
AcDbCircle
 10
619.3847992444379
 20
2715.527264596107
 30
0.0
 40
3.1
  0
CIRCLE
  5
123
330
2
100
AcDbEntity
  8
2-t. Schiebtreppe
100
AcDbCircle
 10
659.176714989786
 20
2719.601996650502
 30
0.0
 40
3.1
  0
LWPOLYLINE
  5
124
330
2
100
AcDbEntity
  8
2-t. Schiebtreppe
100
AcDbPolyline
 90
        5
 70
     1
 43
0.0
 10
283.8914314265691
 20
2712.837130736517
 10
1031.308642287062
 20
2789.373402239253
 10
1085.054908625454
 20
2699.380289350097
 10
319.0605305275029
 20
2620.941697302989
 10
276.6426171239468
 20
2691.966538294827
  0
CIRCLE
  5
125
330
2
100
AcDbEntity
  8
2-t. Schiebtreppe
100
AcDbCircle
 10
441.6035627070971
 20
2786.787695892617
 30
0.0
 40
2.6
  0
CIRCLE
  5
126
330
2
100
AcDbEntity
  8
2-t. Schiebtreppe
100
AcDbCircle
 10
462.3144669708955
 20
2780.866678701647
 30
0.0
 40
2.6
  0
LWPOLYLINE
  5
127
330
2
100
AcDbEntity
  8
2-t. Schiebtreppe
100
AcDbPolyline
 90
        9
 70
     1
 43
0.0
 10
1218.412151093426
 20
2904.029770397442
 10
1306.341250274785
 20
2913.033797985498
 10
1348.772512988837
 20
2841.986603463119
 10
1341.532241586382
 20
2821.140606250269
 10
1228.089639407315
 20
2809.523970469953
 10
1225.670267328842
 20
2833.150420451824
 10
1218.38798860758
 20
2826.297069692828
 10
1228.113801893161
 20
2887.256671174567
 10
1220.831523171899
 20
2880.403320415569
  0
LWPOLYLINE
  5
128
330
2
100
AcDbEntity
  8
2-t. Schiebtreppe
100
AcDbPolyline
 90
        9
 70
     1
 43
0.0
 10
1187.61545243569
 20
2900.876157692241
 10
273.020185893811
 20
2807.220688814271
 10
265.7713714196876
 20
2786.350097391563
 10
308.1892846881508
 20
2715.325255263408
 10
1197.292940749579
 20
2806.370357764751
 10
1194.873568671107
 20
2829.996807746623
 10
1187.591289949845
 20
2823.143456987626
 10
1197.317103235426
 20
2884.103058469365
 10
1190.034824514162
 20
2877.249707710367
  0
LWPOLYLINE
  5
129
330
2
100
AcDbEntity
  8
2-t. Schiebtreppe
100
AcDbPolyline
 90
        6
 70
     1
 43
0.0
 10
322.8375017683088
 20
2602.892648545215
 10
347.0012041360837
 20
2632.364177575534
 42
-0.4332320124662518
 10
358.6737994023244
 20
2632.364177575179
 10
382.837501768309
 20
2602.892648543394
 10
382.8375017682176
 20
2599.892648543395
 10
322.8375017682176
 20
2599.892648545216
1001
AcDbBlockRepETag
1070
     1
1071
        3
1005
0
  0
LINE
  5
12A
330
2
100
AcDbEntity
  8
2-t. Schiebtreppe
100
AcDbLine
 10
341.6024893070595
 20
2786.599778795194
 30
0.0
 11
343.7926577149392
 21
2765.211624074762
 31
0.0
  0
LWPOLYLINE
  5
12B
330
2
100
AcDbEntity
  8
2-t. Schiebtreppe
100
AcDbPolyline
 90
        6
 70
     1
 43
0.0
 10
1119.8
 20
2672.893391009476
 10
1090.328470968949
 20
2697.057093376356
 42
-0.433232012466258
 10
1090.32847096895
 20
2708.729688642596
 10
1119.8
 20
2732.893391009476
 10
1122.8
 20
2732.893391009476
 10
1122.8
 20
2672.893391009476
1001
AcDbBlockRepETag
1070
     1
1071
        3
1005
0
  0
LINE
  5
12C
330
2
100
AcDbEntity
  8
Beschriftung
 62
     1
100
AcDbLine
 10
30.94449504884051
 20
2742.893391009475
 30
0.0
 11
9.048086065013194
 21
2742.893391009476
 31
0.0
  0
LINE
  5
12E
330
2
100
AcDbEntity
  8
Beschriftung
 62
     1
100
AcDbLine
 10
30.94449504884051
 20
2492.893391009475
 30
0.0
 11
9.048086065013194
 21
2492.893391009476
 31
0.0
  0
LINE
  5
12F
330
2
100
AcDbEntity
  8
Beschriftung
 62
     1
100
AcDbLine
 10
19.99629055692685
 20
2739.393391009475
 30
0.0
 11
19.99629055692685
 21
2496.393391009475
 31
0.0
  0
SOLID
  5
130
330
2
100
AcDbEntity
  8
Beschriftung
 62
     1
100
AcDbTrace
 10
17.66295722359337
 20
2728.893391009475
 30
0.0
 11
22.32962389025988
 21
2728.893391009475
 31
0.0
 12
19.99629055692685
 22
2742.893391009475
 32
0.0
 13
19.99629055692685
 23
2742.893391009475
 33
0.0
  0
SOLID
  5
131
330
2
100
AcDbEntity
  8
Beschriftung
 62
     1
100
AcDbTrace
 10
17.66295722359337
 20
2506.893391009475
 30
0.0
 11
22.32962389026034
 21
2506.893391009475
 31
0.0
 12
19.99629055692685
 22
2492.893391009475
 32
0.0
 13
19.99629055692685
 23
2492.893391009475
 33
0.0
  0
MTEXT
  5
132
330
2
100
AcDbEntity
  8
Beschriftung
 62
     1
100
AcDbMText
 10
13.04056067971078
 20
2617.893391009475
 30
0.0
 40
10.0
 41
0.0
 46
0.0
 71
     5
 72
     1
  1
\A1;250
  7
Arial
 11
0.0000000000000001
 21
1.0
 31
0.0
 73
     1
 44
1.0
  0
LINE
  5
134
330
2
100
AcDbEntity
  8
Beschriftung
100
AcDbLine
 10
1253.951999999999
 20
2207.4624
 30
0.0
 11
1353.951999999999
 21
2207.4624
 31
0.0
  0
MTEXT
  5
135
330
2
100
AcDbEntity
  8
Beschriftung
 62
     1
100
AcDbMText
 10
1302.599288555453
 20
2219.723885714581
 30
0.0
 40
10.0
 41
0.0
 46
0.0
 71
     5
 72
     1
  1
\A1;10 cm
  7
Arial
 73
     1
 44
1.0
  0
LINE
  5
136
330
2
100
AcDbEntity
  8
Beschriftung
100
AcDbLine
 10
1253.951999999999
 20
2210.462399999999
 30
0.0
 11
1253.951999999999
 21
2204.4624
 31
0.0
  0
LINE
  5
137
330
2
100
AcDbEntity
  8
Beschriftung
100
AcDbLine
 10
1353.951999999999
 20
2210.462399999999
 30
0.0
 11
1353.951999999999
 21
2204.4624
 31
0.0
  0
HATCH
  5
138
330
2
100
AcDbEntity
  8
Bauseitig_Beton
100
AcDbHatch
 10
0.0
 20
0.0
 30
0.0
210
0.0
220
0.0
230
1.0
  2
ANSI31
 70
     0
 71
     1
 91
        1
 92
        7
 72
     0
 73
     1
 93
        4
 10
92.10336926743593
 20
2500.893391009475
 10
92.10336926743593
 20
2492.893391009475
 10
191.2999999999997
 20
2492.893391009475
 10
191.2999999999997
 20
2500.893391009475
 97
        1
330
139
 75
     1
 76
     1
 52
0.0
 41
50.0
 77
     0
 78
     1
 53
45.0
 43
0.0
 44
2065.0
 45
-4.419417382415921
 46
4.419417382415922
 79
     0
 47
0.2285218501967519
 98
        1
 10
152.6884594205367
 20
2498.606751253734
1001
GradientColor1ACI
1070
     5
1001
GradientColor2ACI
1070
     2
1001
ACAD
1010
0.0
1020
0.0
1030
0.0
  0
LWPOLYLINE
  5
139
102
{ACAD_REACTORS
330
138
102
}
330
2
100
AcDbEntity
  8
Bauseitig_Beton
100
AcDbPolyline
 90
        4
 70
     1
 43
0.0
 10
92.10336926743593
 20
2500.893391009475
 10
191.2999999999997
 20
2500.893391009475
 10
191.2999999999997
 20
2492.893391009475
 10
92.10336926743593
 20
2492.893391009475
  0
LWPOLYLINE
  5
13A
102
{ACAD_REACTORS
330
63
102
}
330
2
100
AcDbEntity
  8
Bauseitig_Beton
100
AcDbPolyline
 90
        4
 70
     1
 43
0.0
 10
191.2999999999997
 20
2500.893391009475
 10
92.10336926743593
 20
2500.893391009475
 10
92.10336926743593
 20
2742.893391009475
 10
191.2999999999997
 20
2742.893391009475
  0
MTEXT
  5
13B
102
{ACAD_XDICTIONARY
360
13C
102
}
330
2
100
AcDbEntity
  8
Bauseitig_Beton
 62
     1
100
AcDbMText
 10
138.5427052818927
 20
2582.6574542986
 30
0.0
 40
10.0
 41
37.77744553950834
 46
0.0
 71
     1
 72
     5
  1
Beton
  7
TECHNICBOLD
 11
0.0000000000000001
 21
1.0
 31
0.0
 73
     1
 44
1.0
 90
        3
 63
   256
 45
1.199999999999999
441
        0
1001
AcadAnnotative
1000
AnnotativeData
1002
{
1070
     1
1070
     0
1002
}
1001
ACAD
1000
ACAD_MTEXT_COLUMN_INFO_BEGIN
1070
    75
1070
     2
1070
    79
1070
     0
1070
    76
1070
     1
1070
    78
1070
     0
1070
    48
1040
37.77744553950834
1070
    49
1040
17.5
1070
    50
1070
     1
1040
0.0
1000
ACAD_MTEXT_COLUMN_INFO_END
  0
LWPOLYLINE
  5
13F
330
2
100
AcDbEntity
  8
Bauseitig_Beton
100
AcDbPolyline
 90
        4
 70
     1
 43
0.0
 10
191.2999999999997
 20
2742.893391009476
 10
198.7999999999997
 20
2742.893391009476
 10
198.7999999999997
 20
2500.893391009475
 10
191.2999999999997
 20
2500.893391009475
  0
LINE
  5
140
330
2
100
AcDbEntity
  8
Bauseitig_Beton
100
AcDbLine
 10
196.7999999999997
 20
2732.888272625836
 30
0.0
 11
193.2999999999997
 21
2730.888272625835
 31
0.0
  0
ARC
  5
141
330
2
100
AcDbEntity
  8
Bauseitig_Beton
100
AcDbCircle
 10
196.7999999999997
 20
2730.888272625835
 30
0.0
 40
2.0
100
AcDbArc
 50
270.0
 51
90.0
  0
ARC
  5
142
330
2
100
AcDbEntity
  8
Bauseitig_Beton
100
AcDbCircle
 10
193.2999999999997
 20
2728.888272625836
 30
0.0
 40
2.0
100
AcDbArc
 50
90.0
 51
270.0
  0
LINE
  5
143
330
2
100
AcDbEntity
  8
Bauseitig_Beton
100
AcDbLine
 10
193.2999999999997
 20
2730.888272625835
 30
0.0
 11
196.7999999999997
 21
2728.888272625836
 31
0.0
  0
LINE
  5
144
330
2
100
AcDbEntity
  8
Bauseitig_Beton
100
AcDbLine
 10
196.7999999999997
 20
2728.888272625836
 30
0.0
 11
193.2999999999997
 21
2726.888272625835
 31
0.0
  0
ARC
  5
145
330
2
100
AcDbEntity
  8
Bauseitig_Beton
100
AcDbCircle
 10
196.7999999999997
 20
2726.888272625835
 30
0.0
 40
2.0
100
AcDbArc
 50
270.0
 51
90.0
  0
ARC
  5
146
330
2
100
AcDbEntity
  8
Bauseitig_Beton
100
AcDbCircle
 10
193.2999999999997
 20
2724.888272625836
 30
0.0
 40
2.0
100
AcDbArc
 50
90.0
 51
270.0
  0
LINE
  5
147
330
2
100
AcDbEntity
  8
Bauseitig_Beton
100
AcDbLine
 10
193.2999999999997
 20
2726.888272625835
 30
0.0
 11
196.7999999999997
 21
2724.888272625836
 31
0.0
  0
LINE
  5
148
330
2
100
AcDbEntity
  8
Bauseitig_Beton
100
AcDbLine
 10
196.7999999999997
 20
2724.888272625836
 30
0.0
 11
193.2999999999997
 21
2722.888272625835
 31
0.0
  0
ARC
  5
149
330
2
100
AcDbEntity
  8
Bauseitig_Beton
100
AcDbCircle
 10
196.7999999999997
 20
2722.888272625835
 30
0.0
 40
2.0
100
AcDbArc
 50
270.0
 51
90.0
  0
ARC
  5
14A
330
2
100
AcDbEntity
  8
Bauseitig_Beton
100
AcDbCircle
 10
193.2999999999997
 20
2720.888272625835
 30
0.0
 40
2.0
100
AcDbArc
 50
90.0
 51
270.0
  0
LINE
  5
14B
330
2
100
AcDbEntity
  8
Bauseitig_Beton
100
AcDbLine
 10
193.2999999999997
 20
2722.888272625835
 30
0.0
 11
196.7999999999997
 21
2720.888272625835
 31
0.0
  0
LINE
  5
14C
330
2
100
AcDbEntity
  8
Bauseitig_Beton
100
AcDbLine
 10
196.7999999999997
 20
2720.888272625835
 30
0.0
 11
193.2999999999997
 21
2718.888272625835
 31
0.0
  0
ARC
  5
14D
330
2
100
AcDbEntity
  8
Bauseitig_Beton
100
AcDbCircle
 10
196.7999999999997
 20
2718.888272625835
 30
0.0
 40
2.0
100
AcDbArc
 50
270.0
 51
90.0
  0
ARC
  5
14E
330
2
100
AcDbEntity
  8
Bauseitig_Beton
100
AcDbCircle
 10
193.2999999999997
 20
2716.888272625836
 30
0.0
 40
2.0
100
AcDbArc
 50
90.0
 51
270.0
  0
LINE
  5
14F
330
2
100
AcDbEntity
  8
Bauseitig_Beton
100
AcDbLine
 10
193.2999999999997
 20
2718.888272625835
 30
0.0
 11
196.7999999999997
 21
2716.888272625836
 31
0.0
  0
LINE
  5
150
330
2
100
AcDbEntity
  8
Bauseitig_Beton
100
AcDbLine
 10
196.7999999999997
 20
2716.888272625836
 30
0.0
 11
193.2999999999997
 21
2714.888272625835
 31
0.0
  0
ARC
  5
151
330
2
100
AcDbEntity
  8
Bauseitig_Beton
100
AcDbCircle
 10
196.7999999999997
 20
2714.888272625835
 30
0.0
 40
2.0
100
AcDbArc
 50
270.0
 51
90.0
  0
ARC
  5
152
330
2
100
AcDbEntity
  8
Bauseitig_Beton
100
AcDbCircle
 10
193.2999999999997
 20
2712.888272625836
 30
0.0
 40
2.0
100
AcDbArc
 50
90.0
 51
270.0
  0
LINE
  5
153
330
2
100
AcDbEntity
  8
Bauseitig_Beton
100
AcDbLine
 10
193.2999999999997
 20
2714.888272625835
 30
0.0
 11
196.7999999999997
 21
2712.888272625836
 31
0.0
  0
LINE
  5
154
330
2
100
AcDbEntity
  8
Bauseitig_Beton
100
AcDbLine
 10
196.7999999999997
 20
2712.888272625836
 30
0.0
 11
193.2999999999997
 21
2710.888272625835
 31
0.0
  0
ARC
  5
155
330
2
100
AcDbEntity
  8
Bauseitig_Beton
100
AcDbCircle
 10
196.7999999999997
 20
2710.888272625835
 30
0.0
 40
2.0
100
AcDbArc
 50
270.0
 51
90.0
  0
ARC
  5
156
330
2
100
AcDbEntity
  8
Bauseitig_Beton
100
AcDbCircle
 10
193.2999999999997
 20
2708.888272625836
 30
0.0
 40
2.0
100
AcDbArc
 50
90.0
 51
270.0
  0
LINE
  5
157
330
2
100
AcDbEntity
  8
Bauseitig_Beton
100
AcDbLine
 10
193.2999999999997
 20
2710.888272625835
 30
0.0
 11
196.7999999999997
 21
2708.888272625836
 31
0.0
  0
LINE
  5
158
330
2
100
AcDbEntity
  8
Bauseitig_Beton
100
AcDbLine
 10
196.7999999999997
 20
2708.888272625836
 30
0.0
 11
193.2999999999997
 21
2706.888272625835
 31
0.0
  0
ARC
  5
159
330
2
100
AcDbEntity
  8
Bauseitig_Beton
100
AcDbCircle
 10
196.7999999999997
 20
2706.888272625835
 30
0.0
 40
2.0
100
AcDbArc
 50
270.0
 51
90.0
  0
ARC
  5
15A
330
2
100
AcDbEntity
  8
Bauseitig_Beton
100
AcDbCircle
 10
193.2999999999997
 20
2704.888272625835
 30
0.0
 40
2.0
100
AcDbArc
 50
90.0
 51
270.0
  0
LINE
  5
15B
330
2
100
AcDbEntity
  8
Bauseitig_Beton
100
AcDbLine
 10
193.2999999999997
 20
2706.888272625835
 30
0.0
 11
196.7999999999997
 21
2704.888272625835
 31
0.0
  0
LINE
  5
15C
330
2
100
AcDbEntity
  8
Bauseitig_Beton
100
AcDbLine
 10
196.7999999999997
 20
2704.888272625835
 30
0.0
 11
193.2999999999997
 21
2702.888272625835
 31
0.0
  0
ARC
  5
15D
330
2
100
AcDbEntity
  8
Bauseitig_Beton
100
AcDbCircle
 10
196.7999999999997
 20
2702.888272625835
 30
0.0
 40
2.0
100
AcDbArc
 50
270.0
 51
90.0
  0
ARC
  5
15E
330
2
100
AcDbEntity
  8
Bauseitig_Beton
100
AcDbCircle
 10
193.2999999999997
 20
2700.888272625836
 30
0.0
 40
2.0
100
AcDbArc
 50
90.0
 51
270.0
  0
LINE
  5
15F
330
2
100
AcDbEntity
  8
Bauseitig_Beton
100
AcDbLine
 10
193.2999999999997
 20
2702.888272625835
 30
0.0
 11
196.7999999999997
 21
2700.888272625836
 31
0.0
  0
LINE
  5
160
330
2
100
AcDbEntity
  8
Bauseitig_Beton
100
AcDbLine
 10
196.7999999999997
 20
2700.888272625836
 30
0.0
 11
193.2999999999997
 21
2698.888272625835
 31
0.0
  0
ARC
  5
161
330
2
100
AcDbEntity
  8
Bauseitig_Beton
100
AcDbCircle
 10
196.7999999999997
 20
2698.888272625835
 30
0.0
 40
2.0
100
AcDbArc
 50
270.0
 51
90.0
  0
ARC
  5
162
330
2
100
AcDbEntity
  8
Bauseitig_Beton
100
AcDbCircle
 10
193.2999999999997
 20
2696.888272625836
 30
0.0
 40
2.0
100
AcDbArc
 50
90.0
 51
270.0
  0
LINE
  5
163
330
2
100
AcDbEntity
  8
Bauseitig_Beton
100
AcDbLine
 10
193.2999999999997
 20
2698.888272625835
 30
0.0
 11
196.7999999999997
 21
2696.888272625836
 31
0.0
  0
LINE
  5
164
330
2
100
AcDbEntity
  8
Bauseitig_Beton
100
AcDbLine
 10
196.7999999999997
 20
2696.888272625836
 30
0.0
 11
193.2999999999997
 21
2694.888272625835
 31
0.0
  0
ARC
  5
165
330
2
100
AcDbEntity
  8
Bauseitig_Beton
100
AcDbCircle
 10
196.7999999999997
 20
2694.888272625835
 30
0.0
 40
2.0
100
AcDbArc
 50
270.0
 51
90.0
  0
ARC
  5
166
330
2
100
AcDbEntity
  8
Bauseitig_Beton
100
AcDbCircle
 10
193.2999999999997
 20
2692.888272625836
 30
0.0
 40
2.0
100
AcDbArc
 50
90.0
 51
270.0
  0
LINE
  5
167
330
2
100
AcDbEntity
  8
Bauseitig_Beton
100
AcDbLine
 10
193.2999999999997
 20
2694.888272625835
 30
0.0
 11
196.7999999999997
 21
2692.888272625836
 31
0.0
  0
LINE
  5
168
330
2
100
AcDbEntity
  8
Bauseitig_Beton
100
AcDbLine
 10
196.7999999999997
 20
2692.888272625836
 30
0.0
 11
193.2999999999997
 21
2690.888272625836
 31
0.0
  0
ARC
  5
169
330
2
100
AcDbEntity
  8
Bauseitig_Beton
100
AcDbCircle
 10
196.7999999999997
 20
2690.888272625836
 30
0.0
 40
2.0
100
AcDbArc
 50
270.0
 51
90.0
  0
ARC
  5
16A
330
2
100
AcDbEntity
  8
Bauseitig_Beton
100
AcDbCircle
 10
193.2999999999997
 20
2688.888272625835
 30
0.0
 40
2.0
100
AcDbArc
 50
90.0
 51
270.0
  0
LINE
  5
16B
330
2
100
AcDbEntity
  8
Bauseitig_Beton
100
AcDbLine
 10
193.2999999999997
 20
2690.888272625836
 30
0.0
 11
196.7999999999997
 21
2688.888272625835
 31
0.0
  0
LINE
  5
16C
330
2
100
AcDbEntity
  8
Bauseitig_Beton
100
AcDbLine
 10
196.7999999999997
 20
2688.888272625835
 30
0.0
 11
193.2999999999997
 21
2686.888272625835
 31
0.0
  0
ARC
  5
16D
330
2
100
AcDbEntity
  8
Bauseitig_Beton
100
AcDbCircle
 10
196.7999999999997
 20
2686.888272625835
 30
0.0
 40
2.0
100
AcDbArc
 50
270.0
 51
90.0
  0
ARC
  5
16E
330
2
100
AcDbEntity
  8
Bauseitig_Beton
100
AcDbCircle
 10
193.2999999999997
 20
2684.888272625836
 30
0.0
 40
2.0
100
AcDbArc
 50
90.0
 51
270.0
  0
LINE
  5
16F
330
2
100
AcDbEntity
  8
Bauseitig_Beton
100
AcDbLine
 10
193.2999999999997
 20
2686.888272625835
 30
0.0
 11
196.7999999999997
 21
2684.888272625836
 31
0.0
  0
LINE
  5
170
330
2
100
AcDbEntity
  8
Bauseitig_Beton
100
AcDbLine
 10
196.7999999999997
 20
2684.888272625836
 30
0.0
 11
193.2999999999997
 21
2682.888272625835
 31
0.0
  0
ARC
  5
171
330
2
100
AcDbEntity
  8
Bauseitig_Beton
100
AcDbCircle
 10
196.7999999999997
 20
2682.888272625835
 30
0.0
 40
2.0
100
AcDbArc
 50
270.0
 51
90.0
  0
ARC
  5
172
330
2
100
AcDbEntity
  8
Bauseitig_Beton
100
AcDbCircle
 10
193.2999999999997
 20
2680.888272625836
 30
0.0
 40
2.0
100
AcDbArc
 50
90.0
 51
270.0
  0
LINE
  5
173
330
2
100
AcDbEntity
  8
Bauseitig_Beton
100
AcDbLine
 10
193.2999999999997
 20
2682.888272625835
 30
0.0
 11
196.7999999999997
 21
2680.888272625836
 31
0.0
  0
LINE
  5
174
330
2
100
AcDbEntity
  8
Bauseitig_Beton
100
AcDbLine
 10
196.7999999999997
 20
2680.888272625836
 30
0.0
 11
193.2999999999997
 21
2678.888272625835
 31
0.0
  0
ARC
  5
175
330
2
100
AcDbEntity
  8
Bauseitig_Beton
100
AcDbCircle
 10
196.7999999999997
 20
2678.888272625835
 30
0.0
 40
2.0
100
AcDbArc
 50
339.0568897684519
 51
90.0
  0
ARC
  5
176
330
2
100
AcDbEntity
  8
Bauseitig_Beton
100
AcDbCircle
 10
193.2999999999997
 20
2676.888272625836
 30
0.0
 40
2.0
100
AcDbArc
 50
90.0
 51
140.0170822246424
  0
LINE
  5
177
330
2
100
AcDbEntity
  8
Bauseitig_Beton
100
AcDbLine
 10
193.2999999999997
 20
2678.888272625835
 30
0.0
 11
194.5510428286402
 21
2678.173391009469
 31
0.0
  0
ARC
  5
178
330
2
100
AcDbEntity
  8
Bauseitig_Beton
100
AcDbCircle
 10
196.7999999999997
 20
2602.888272625835
 30
0.0
 40
2.0
100
AcDbArc
 50
270.0
 51
339.0568897684519
  0
ARC
  5
179
330
2
100
AcDbEntity
  8
Bauseitig_Beton
100
AcDbCircle
 10
193.2999999999997
 20
2600.888272625835
 30
0.0
 40
2.0
100
AcDbArc
 50
140.0170822246424
 51
270.0
  0
LINE
  5
17A
330
2
100
AcDbEntity
  8
Bauseitig_Beton
100
AcDbLine
 10
194.5510428286402
 20
2602.173391009469
 30
0.0
 11
196.7999999999997
 21
2600.888272625835
 31
0.0
  0
LINE
  5
17B
330
2
100
AcDbEntity
  8
Bauseitig_Beton
100
AcDbLine
 10
196.7999999999997
 20
2600.888272625835
 30
0.0
 11
193.2999999999997
 21
2598.888272625835
 31
0.0
  0
ARC
  5
17C
330
2
100
AcDbEntity
  8
Bauseitig_Beton
100
AcDbCircle
 10
196.7999999999997
 20
2598.888272625835
 30
0.0
 40
2.0
100
AcDbArc
 50
270.0
 51
90.0
  0
ARC
  5
17D
330
2
100
AcDbEntity
  8
Bauseitig_Beton
100
AcDbCircle
 10
193.2999999999997
 20
2596.888272625835
 30
0.0
 40
2.0
100
AcDbArc
 50
90.0
 51
270.0
  0
LINE
  5
17E
330
2
100
AcDbEntity
  8
Bauseitig_Beton
100
AcDbLine
 10
193.2999999999997
 20
2598.888272625835
 30
0.0
 11
196.7999999999997
 21
2596.888272625835
 31
0.0
  0
LINE
  5
17F
330
2
100
AcDbEntity
  8
Bauseitig_Beton
100
AcDbLine
 10
196.7999999999997
 20
2596.888272625835
 30
0.0
 11
193.2999999999997
 21
2594.888272625836
 31
0.0
  0
ARC
  5
180
330
2
100
AcDbEntity
  8
Bauseitig_Beton
100
AcDbCircle
 10
196.7999999999997
 20
2594.888272625836
 30
0.0
 40
2.0
100
AcDbArc
 50
270.0
 51
90.0
  0
ARC
  5
181
330
2
100
AcDbEntity
  8
Bauseitig_Beton
100
AcDbCircle
 10
193.2999999999997
 20
2592.888272625835
 30
0.0
 40
2.0
100
AcDbArc
 50
90.0
 51
270.0
  0
LINE
  5
182
330
2
100
AcDbEntity
  8
Bauseitig_Beton
100
AcDbLine
 10
193.2999999999997
 20
2594.888272625836
 30
0.0
 11
196.7999999999997
 21
2592.888272625835
 31
0.0
  0
LINE
  5
183
330
2
100
AcDbEntity
  8
Bauseitig_Beton
100
AcDbLine
 10
196.7999999999997
 20
2592.888272625835
 30
0.0
 11
193.2999999999997
 21
2590.888272625836
 31
0.0
  0
ARC
  5
184
330
2
100
AcDbEntity
  8
Bauseitig_Beton
100
AcDbCircle
 10
196.7999999999997
 20
2590.888272625836
 30
0.0
 40
2.0
100
AcDbArc
 50
270.0
 51
90.0
  0
ARC
  5
185
330
2
100
AcDbEntity
  8
Bauseitig_Beton
100
AcDbCircle
 10
193.2999999999997
 20
2588.888272625835
 30
0.0
 40
2.0
100
AcDbArc
 50
90.0
 51
270.0
  0
LINE
  5
186
330
2
100
AcDbEntity
  8
Bauseitig_Beton
100
AcDbLine
 10
193.2999999999997
 20
2590.888272625836
 30
0.0
 11
196.7999999999997
 21
2588.888272625835
 31
0.0
  0
LINE
  5
187
330
2
100
AcDbEntity
  8
Bauseitig_Beton
100
AcDbLine
 10
196.7999999999997
 20
2588.888272625835
 30
0.0
 11
193.2999999999997
 21
2586.888272625835
 31
0.0
  0
ARC
  5
188
330
2
100
AcDbEntity
  8
Bauseitig_Beton
100
AcDbCircle
 10
196.7999999999997
 20
2586.888272625835
 30
0.0
 40
2.0
100
AcDbArc
 50
270.0
 51
90.0
  0
ARC
  5
189
330
2
100
AcDbEntity
  8
Bauseitig_Beton
100
AcDbCircle
 10
193.2999999999997
 20
2584.888272625835
 30
0.0
 40
2.0
100
AcDbArc
 50
90.0
 51
270.0
  0
LINE
  5
18A
330
2
100
AcDbEntity
  8
Bauseitig_Beton
100
AcDbLine
 10
193.2999999999997
 20
2586.888272625835
 30
0.0
 11
196.7999999999997
 21
2584.888272625835
 31
0.0
  0
LINE
  5
18B
330
2
100
AcDbEntity
  8
Bauseitig_Beton
100
AcDbLine
 10
196.7999999999997
 20
2584.888272625835
 30
0.0
 11
193.2999999999997
 21
2582.888272625835
 31
0.0
  0
ARC
  5
18C
330
2
100
AcDbEntity
  8
Bauseitig_Beton
100
AcDbCircle
 10
196.7999999999997
 20
2582.888272625835
 30
0.0
 40
2.0
100
AcDbArc
 50
270.0
 51
90.0
  0
ARC
  5
18D
330
2
100
AcDbEntity
  8
Bauseitig_Beton
100
AcDbCircle
 10
193.2999999999997
 20
2580.888272625835
 30
0.0
 40
2.0
100
AcDbArc
 50
90.0
 51
270.0
  0
LINE
  5
18E
330
2
100
AcDbEntity
  8
Bauseitig_Beton
100
AcDbLine
 10
193.2999999999997
 20
2582.888272625835
 30
0.0
 11
196.7999999999997
 21
2580.888272625835
 31
0.0
  0
LINE
  5
18F
330
2
100
AcDbEntity
  8
Bauseitig_Beton
100
AcDbLine
 10
196.7999999999997
 20
2580.888272625835
 30
0.0
 11
193.2999999999997
 21
2578.888272625836
 31
0.0
  0
ARC
  5
190
330
2
100
AcDbEntity
  8
Bauseitig_Beton
100
AcDbCircle
 10
196.7999999999997
 20
2578.888272625836
 30
0.0
 40
2.0
100
AcDbArc
 50
270.0
 51
90.0
  0
ARC
  5
191
330
2
100
AcDbEntity
  8
Bauseitig_Beton
100
AcDbCircle
 10
193.2999999999997
 20
2576.888272625835
 30
0.0
 40
2.0
100
AcDbArc
 50
90.0
 51
270.0
  0
LINE
  5
192
330
2
100
AcDbEntity
  8
Bauseitig_Beton
100
AcDbLine
 10
193.2999999999997
 20
2578.888272625836
 30
0.0
 11
196.7999999999997
 21
2576.888272625835
 31
0.0
  0
LINE
  5
193
330
2
100
AcDbEntity
  8
Bauseitig_Beton
100
AcDbLine
 10
196.7999999999997
 20
2576.888272625835
 30
0.0
 11
193.2999999999997
 21
2574.888272625836
 31
0.0
  0
ARC
  5
194
330
2
100
AcDbEntity
  8
Bauseitig_Beton
100
AcDbCircle
 10
196.7999999999997
 20
2574.888272625836
 30
0.0
 40
2.0
100
AcDbArc
 50
270.0
 51
90.0
  0
ARC
  5
195
330
2
100
AcDbEntity
  8
Bauseitig_Beton
100
AcDbCircle
 10
193.2999999999997
 20
2572.888272625835
 30
0.0
 40
2.0
100
AcDbArc
 50
90.0
 51
270.0
  0
LINE
  5
196
330
2
100
AcDbEntity
  8
Bauseitig_Beton
100
AcDbLine
 10
193.2999999999997
 20
2574.888272625836
 30
0.0
 11
196.7999999999997
 21
2572.888272625835
 31
0.0
  0
LINE
  5
197
330
2
100
AcDbEntity
  8
Bauseitig_Beton
100
AcDbLine
 10
196.7999999999997
 20
2572.888272625835
 30
0.0
 11
193.2999999999997
 21
2570.888272625835
 31
0.0
  0
ARC
  5
198
330
2
100
AcDbEntity
  8
Bauseitig_Beton
100
AcDbCircle
 10
196.7999999999997
 20
2570.888272625835
 30
0.0
 40
2.0
100
AcDbArc
 50
270.0
 51
90.0
  0
ARC
  5
199
330
2
100
AcDbEntity
  8
Bauseitig_Beton
100
AcDbCircle
 10
193.2999999999997
 20
2568.888272625835
 30
0.0
 40
2.0
100
AcDbArc
 50
90.0
 51
270.0
  0
LINE
  5
19A
330
2
100
AcDbEntity
  8
Bauseitig_Beton
100
AcDbLine
 10
193.2999999999997
 20
2570.888272625835
 30
0.0
 11
196.7999999999997
 21
2568.888272625835
 31
0.0
  0
LINE
  5
19B
330
2
100
AcDbEntity
  8
Bauseitig_Beton
100
AcDbLine
 10
196.7999999999997
 20
2568.888272625835
 30
0.0
 11
193.2999999999997
 21
2566.888272625835
 31
0.0
  0
ARC
  5
19C
330
2
100
AcDbEntity
  8
Bauseitig_Beton
100
AcDbCircle
 10
196.7999999999997
 20
2566.888272625835
 30
0.0
 40
2.0
100
AcDbArc
 50
270.0
 51
90.0
  0
ARC
  5
19D
330
2
100
AcDbEntity
  8
Bauseitig_Beton
100
AcDbCircle
 10
193.2999999999997
 20
2564.888272625835
 30
0.0
 40
2.0
100
AcDbArc
 50
90.0
 51
270.0
  0
LINE
  5
19E
330
2
100
AcDbEntity
  8
Bauseitig_Beton
100
AcDbLine
 10
193.2999999999997
 20
2566.888272625835
 30
0.0
 11
196.7999999999997
 21
2564.888272625835
 31
0.0
  0
LINE
  5
19F
330
2
100
AcDbEntity
  8
Bauseitig_Beton
100
AcDbLine
 10
196.7999999999997
 20
2564.888272625835
 30
0.0
 11
193.2999999999997
 21
2562.888272625836
 31
0.0
  0
ARC
  5
1A0
330
2
100
AcDbEntity
  8
Bauseitig_Beton
100
AcDbCircle
 10
196.7999999999997
 20
2562.888272625836
 30
0.0
 40
2.0
100
AcDbArc
 50
270.0
 51
90.0
  0
ARC
  5
1A1
330
2
100
AcDbEntity
  8
Bauseitig_Beton
100
AcDbCircle
 10
193.2999999999997
 20
2560.888272625835
 30
0.0
 40
2.0
100
AcDbArc
 50
90.0
 51
270.0
  0
LINE
  5
1A2
330
2
100
AcDbEntity
  8
Bauseitig_Beton
100
AcDbLine
 10
193.2999999999997
 20
2562.888272625836
 30
0.0
 11
196.7999999999997
 21
2560.888272625835
 31
0.0
  0
LINE
  5
1A3
330
2
100
AcDbEntity
  8
Bauseitig_Beton
100
AcDbLine
 10
196.7999999999997
 20
2560.888272625835
 30
0.0
 11
193.2999999999997
 21
2558.888272625836
 31
0.0
  0
ARC
  5
1A4
330
2
100
AcDbEntity
  8
Bauseitig_Beton
100
AcDbCircle
 10
196.7999999999997
 20
2558.888272625836
 30
0.0
 40
2.0
100
AcDbArc
 50
270.0
 51
90.0
  0
ARC
  5
1A5
330
2
100
AcDbEntity
  8
Bauseitig_Beton
100
AcDbCircle
 10
193.2999999999997
 20
2556.888272625835
 30
0.0
 40
2.0
100
AcDbArc
 50
90.0
 51
270.0
  0
LINE
  5
1A6
330
2
100
AcDbEntity
  8
Bauseitig_Beton
100
AcDbLine
 10
193.2999999999997
 20
2558.888272625836
 30
0.0
 11
196.7999999999997
 21
2556.888272625835
 31
0.0
  0
LINE
  5
1A7
330
2
100
AcDbEntity
  8
Bauseitig_Beton
100
AcDbLine
 10
196.7999999999997
 20
2556.888272625835
 30
0.0
 11
193.2999999999997
 21
2554.888272625835
 31
0.0
  0
ARC
  5
1A8
330
2
100
AcDbEntity
  8
Bauseitig_Beton
100
AcDbCircle
 10
196.7999999999997
 20
2554.888272625835
 30
0.0
 40
2.0
100
AcDbArc
 50
270.0
 51
90.0
  0
ARC
  5
1A9
330
2
100
AcDbEntity
  8
Bauseitig_Beton
100
AcDbCircle
 10
193.2999999999997
 20
2552.888272625835
 30
0.0
 40
2.0
100
AcDbArc
 50
90.0
 51
270.0
  0
LINE
  5
1AA
330
2
100
AcDbEntity
  8
Bauseitig_Beton
100
AcDbLine
 10
193.2999999999997
 20
2554.888272625835
 30
0.0
 11
196.7999999999997
 21
2552.888272625835
 31
0.0
  0
LINE
  5
1AB
330
2
100
AcDbEntity
  8
Bauseitig_Beton
100
AcDbLine
 10
196.7999999999997
 20
2552.888272625835
 30
0.0
 11
193.2999999999997
 21
2550.888272625835
 31
0.0
  0
ARC
  5
1AC
330
2
100
AcDbEntity
  8
Bauseitig_Beton
100
AcDbCircle
 10
196.7999999999997
 20
2550.888272625835
 30
0.0
 40
2.0
100
AcDbArc
 50
270.0
 51
90.0
  0
ARC
  5
1AD
330
2
100
AcDbEntity
  8
Bauseitig_Beton
100
AcDbCircle
 10
193.2999999999997
 20
2548.888272625835
 30
0.0
 40
2.0
100
AcDbArc
 50
90.0
 51
270.0
  0
LINE
  5
1AE
330
2
100
AcDbEntity
  8
Bauseitig_Beton
100
AcDbLine
 10
193.2999999999997
 20
2550.888272625835
 30
0.0
 11
196.7999999999997
 21
2548.888272625835
 31
0.0
  0
LINE
  5
1AF
330
2
100
AcDbEntity
  8
Bauseitig_Beton
100
AcDbLine
 10
196.7999999999997
 20
2548.888272625835
 30
0.0
 11
193.2999999999997
 21
2546.888272625836
 31
0.0
  0
ARC
  5
1B0
330
2
100
AcDbEntity
  8
Bauseitig_Beton
100
AcDbCircle
 10
196.7999999999997
 20
2546.888272625836
 30
0.0
 40
2.0
100
AcDbArc
 50
270.0
 51
90.0
  0
ARC
  5
1B1
330
2
100
AcDbEntity
  8
Bauseitig_Beton
100
AcDbCircle
 10
193.2999999999997
 20
2544.888272625835
 30
0.0
 40
2.0
100
AcDbArc
 50
90.0
 51
270.0
  0
LINE
  5
1B2
330
2
100
AcDbEntity
  8
Bauseitig_Beton
100
AcDbLine
 10
193.2999999999997
 20
2546.888272625836
 30
0.0
 11
196.7999999999997
 21
2544.888272625835
 31
0.0
  0
LINE
  5
1B3
330
2
100
AcDbEntity
  8
Bauseitig_Beton
100
AcDbLine
 10
196.7999999999997
 20
2544.888272625835
 30
0.0
 11
193.2999999999997
 21
2542.888272625836
 31
0.0
  0
ARC
  5
1B4
330
2
100
AcDbEntity
  8
Bauseitig_Beton
100
AcDbCircle
 10
196.7999999999997
 20
2542.888272625836
 30
0.0
 40
2.0
100
AcDbArc
 50
270.0
 51
90.0
  0
ARC
  5
1B5
330
2
100
AcDbEntity
  8
Bauseitig_Beton
100
AcDbCircle
 10
193.2999999999997
 20
2540.888272625835
 30
0.0
 40
2.0
100
AcDbArc
 50
90.0
 51
270.0
  0
LINE
  5
1B6
330
2
100
AcDbEntity
  8
Bauseitig_Beton
100
AcDbLine
 10
193.2999999999997
 20
2542.888272625836
 30
0.0
 11
196.7999999999997
 21
2540.888272625835
 31
0.0
  0
LINE
  5
1B7
330
2
100
AcDbEntity
  8
Bauseitig_Beton
100
AcDbLine
 10
196.7999999999997
 20
2540.888272625835
 30
0.0
 11
193.2999999999997
 21
2538.888272625835
 31
0.0
  0
ARC
  5
1B8
330
2
100
AcDbEntity
  8
Bauseitig_Beton
100
AcDbCircle
 10
196.7999999999997
 20
2538.888272625835
 30
0.0
 40
2.0
100
AcDbArc
 50
270.0
 51
90.0
  0
ARC
  5
1B9
330
2
100
AcDbEntity
  8
Bauseitig_Beton
100
AcDbCircle
 10
193.2999999999997
 20
2536.888272625835
 30
0.0
 40
2.0
100
AcDbArc
 50
90.0
 51
270.0
  0
LINE
  5
1BA
330
2
100
AcDbEntity
  8
Bauseitig_Beton
100
AcDbLine
 10
193.2999999999997
 20
2538.888272625835
 30
0.0
 11
196.7999999999997
 21
2536.888272625835
 31
0.0
  0
LINE
  5
1BB
330
2
100
AcDbEntity
  8
Bauseitig_Beton
100
AcDbLine
 10
196.7999999999997
 20
2536.888272625835
 30
0.0
 11
193.2999999999997
 21
2534.888272625835
 31
0.0
  0
ARC
  5
1BC
330
2
100
AcDbEntity
  8
Bauseitig_Beton
100
AcDbCircle
 10
196.7999999999997
 20
2534.888272625835
 30
0.0
 40
2.0
100
AcDbArc
 50
270.0
 51
90.0
  0
ARC
  5
1BD
330
2
100
AcDbEntity
  8
Bauseitig_Beton
100
AcDbCircle
 10
193.2999999999997
 20
2532.888272625835
 30
0.0
 40
2.0
100
AcDbArc
 50
90.0
 51
270.0
  0
LINE
  5
1BE
330
2
100
AcDbEntity
  8
Bauseitig_Beton
100
AcDbLine
 10
193.2999999999997
 20
2534.888272625835
 30
0.0
 11
196.7999999999997
 21
2532.888272625835
 31
0.0
  0
LINE
  5
1BF
330
2
100
AcDbEntity
  8
Bauseitig_Beton
100
AcDbLine
 10
196.7999999999997
 20
2532.888272625835
 30
0.0
 11
193.2999999999997
 21
2530.888272625836
 31
0.0
  0
ARC
  5
1C0
330
2
100
AcDbEntity
  8
Bauseitig_Beton
100
AcDbCircle
 10
196.7999999999997
 20
2530.888272625836
 30
0.0
 40
2.0
100
AcDbArc
 50
270.0
 51
90.0
  0
ARC
  5
1C1
330
2
100
AcDbEntity
  8
Bauseitig_Beton
100
AcDbCircle
 10
193.2999999999997
 20
2528.888272625835
 30
0.0
 40
2.0
100
AcDbArc
 50
90.0
 51
270.0
  0
LINE
  5
1C2
330
2
100
AcDbEntity
  8
Bauseitig_Beton
100
AcDbLine
 10
193.2999999999997
 20
2530.888272625836
 30
0.0
 11
196.7999999999997
 21
2528.888272625835
 31
0.0
  0
LINE
  5
1C3
330
2
100
AcDbEntity
  8
Bauseitig_Beton
100
AcDbLine
 10
196.7999999999997
 20
2528.888272625835
 30
0.0
 11
193.2999999999997
 21
2526.888272625836
 31
0.0
  0
ARC
  5
1C4
330
2
100
AcDbEntity
  8
Bauseitig_Beton
100
AcDbCircle
 10
196.7999999999997
 20
2526.888272625836
 30
0.0
 40
2.0
100
AcDbArc
 50
270.0
 51
90.0
  0
ARC
  5
1C5
330
2
100
AcDbEntity
  8
Bauseitig_Beton
100
AcDbCircle
 10
193.2999999999997
 20
2524.888272625835
 30
0.0
 40
2.0
100
AcDbArc
 50
90.0
 51
270.0
  0
LINE
  5
1C6
330
2
100
AcDbEntity
  8
Bauseitig_Beton
100
AcDbLine
 10
193.2999999999997
 20
2526.888272625836
 30
0.0
 11
196.7999999999997
 21
2524.888272625835
 31
0.0
  0
LINE
  5
1C7
330
2
100
AcDbEntity
  8
Bauseitig_Beton
100
AcDbLine
 10
196.7999999999997
 20
2524.888272625835
 30
0.0
 11
193.2999999999997
 21
2522.888272625835
 31
0.0
  0
ARC
  5
1C8
330
2
100
AcDbEntity
  8
Bauseitig_Beton
100
AcDbCircle
 10
196.7999999999997
 20
2522.888272625835
 30
0.0
 40
2.0
100
AcDbArc
 50
270.0
 51
90.0
  0
ARC
  5
1C9
330
2
100
AcDbEntity
  8
Bauseitig_Beton
100
AcDbCircle
 10
193.2999999999997
 20
2520.888272625835
 30
0.0
 40
2.0
100
AcDbArc
 50
90.0
 51
270.0
  0
LINE
  5
1CA
330
2
100
AcDbEntity
  8
Bauseitig_Beton
100
AcDbLine
 10
193.2999999999997
 20
2522.888272625835
 30
0.0
 11
196.7999999999997
 21
2520.888272625835
 31
0.0
  0
LINE
  5
1CB
330
2
100
AcDbEntity
  8
Bauseitig_Beton
100
AcDbLine
 10
196.7999999999997
 20
2520.888272625835
 30
0.0
 11
193.2999999999997
 21
2518.888272625835
 31
0.0
  0
ARC
  5
1CC
330
2
100
AcDbEntity
  8
Bauseitig_Beton
100
AcDbCircle
 10
196.7999999999997
 20
2518.888272625835
 30
0.0
 40
2.0
100
AcDbArc
 50
270.0
 51
90.0
  0
ARC
  5
1CD
330
2
100
AcDbEntity
  8
Bauseitig_Beton
100
AcDbCircle
 10
193.2999999999997
 20
2516.888272625835
 30
0.0
 40
2.0
100
AcDbArc
 50
90.0
 51
270.0
  0
LINE
  5
1CE
330
2
100
AcDbEntity
  8
Bauseitig_Beton
100
AcDbLine
 10
193.2999999999997
 20
2518.888272625835
 30
0.0
 11
196.7999999999997
 21
2516.888272625835
 31
0.0
  0
LINE
  5
1CF
330
2
100
AcDbEntity
  8
Bauseitig_Beton
100
AcDbLine
 10
196.7999999999997
 20
2516.888272625835
 30
0.0
 11
193.2999999999997
 21
2514.888272625836
 31
0.0
  0
ARC
  5
1D0
330
2
100
AcDbEntity
  8
Bauseitig_Beton
100
AcDbCircle
 10
196.7999999999997
 20
2514.888272625836
 30
0.0
 40
2.0
100
AcDbArc
 50
270.0
 51
90.0
  0
ARC
  5
1D1
330
2
100
AcDbEntity
  8
Bauseitig_Beton
100
AcDbCircle
 10
193.2999999999997
 20
2512.888272625835
 30
0.0
 40
2.0
100
AcDbArc
 50
90.0
 51
270.0
  0
LINE
  5
1D2
330
2
100
AcDbEntity
  8
Bauseitig_Beton
100
AcDbLine
 10
193.2999999999997
 20
2514.888272625836
 30
0.0
 11
196.7999999999997
 21
2512.888272625835
 31
0.0
  0
LINE
  5
1D3
330
2
100
AcDbEntity
  8
Bauseitig_Beton
100
AcDbLine
 10
196.7999999999997
 20
2512.888272625835
 30
0.0
 11
193.2999999999997
 21
2510.888272625836
 31
0.0
  0
ARC
  5
1D4
330
2
100
AcDbEntity
  8
Bauseitig_Beton
100
AcDbCircle
 10
196.7999999999997
 20
2510.888272625836
 30
0.0
 40
2.0
100
AcDbArc
 50
270.0
 51
90.0
  0
ARC
  5
1D5
330
2
100
AcDbEntity
  8
Bauseitig_Beton
100
AcDbCircle
 10
193.2999999999997
 20
2508.888272625835
 30
0.0
 40
2.0
100
AcDbArc
 50
90.0
 51
270.0
  0
LINE
  5
1D6
330
2
100
AcDbEntity
  8
Bauseitig_Beton
100
AcDbLine
 10
193.2999999999997
 20
2510.888272625836
 30
0.0
 11
196.7999999999997
 21
2508.888272625835
 31
0.0
  0
LINE
  5
1D7
330
2
100
AcDbEntity
  8
Bauseitig_Beton
100
AcDbLine
 10
196.7999999999997
 20
2508.888272625835
 30
0.0
 11
193.2999999999997
 21
2506.888272625835
 31
0.0
  0
ARC
  5
1D8
330
2
100
AcDbEntity
  8
Bauseitig_Beton
100
AcDbCircle
 10
196.7999999999997
 20
2506.888272625835
 30
0.0
 40
2.0
100
AcDbArc
 50
270.0
 51
90.0
  0
ARC
  5
1D9
330
2
100
AcDbEntity
  8
Bauseitig_Beton
100
AcDbCircle
 10
193.2999999999997
 20
2504.888272625835
 30
0.0
 40
2.0
100
AcDbArc
 50
90.0
 51
270.0
  0
LINE
  5
1DA
330
2
100
AcDbEntity
  8
Bauseitig_Beton
100
AcDbLine
 10
193.2999999999997
 20
2506.888272625835
 30
0.0
 11
196.7999999999997
 21
2504.888272625835
 31
0.0
  0
LINE
  5
1DB
330
2
100
AcDbEntity
  8
Bauseitig_Beton
100
AcDbLine
 10
196.7999999999997
 20
2504.888272625835
 30
0.0
 11
193.2999999999997
 21
2502.888272625835
 31
0.0
  0
ARC
  5
1DC
330
2
100
AcDbEntity
  8
Bauseitig_Beton
100
AcDbCircle
 10
196.7999999999997
 20
2502.888272625835
 30
0.0
 40
2.0
100
AcDbArc
 50
270.0
 51
90.0
  0
ARC
  5
1DD
330
2
100
AcDbEntity
  8
Bauseitig_Beton
100
AcDbCircle
 10
193.2999999999997
 20
2500.888272625835
 30
0.0
 40
2.0
100
AcDbArc
 50
90.0
 51
179.8533689497058
  0
LINE
  5
1DE
330
2
100
AcDbEntity
  8
Bauseitig_Beton
100
AcDbLine
 10
193.2999999999997
 20
2502.888272625835
 30
0.0
 11
196.7999999999997
 21
2500.888272625835
 31
0.0
  0
LINE
  5
1DF
330
2
100
AcDbEntity
  8
Bauseitig_Beton
100
AcDbLine
 10
196.7999999999997
 20
2736.888272625835
 30
0.0
 11
193.2999999999997
 21
2734.888272625835
 31
0.0
  0
ARC
  5
1E0
330
2
100
AcDbEntity
  8
Bauseitig_Beton
100
AcDbCircle
 10
196.7999999999997
 20
2734.888272625835
 30
0.0
 40
2.0
100
AcDbArc
 50
270.0
 51
90.0
  0
ARC
  5
1E1
330
2
100
AcDbEntity
  8
Bauseitig_Beton
100
AcDbCircle
 10
193.2999999999997
 20
2732.888272625836
 30
0.0
 40
2.0
100
AcDbArc
 50
90.0
 51
270.0
  0
LINE
  5
1E2
330
2
100
AcDbEntity
  8
Bauseitig_Beton
100
AcDbLine
 10
193.2999999999997
 20
2734.888272625835
 30
0.0
 11
196.7999999999997
 21
2732.888272625836
 31
0.0
  0
LINE
  5
1E3
330
2
100
AcDbEntity
  8
Bauseitig_Beton
100
AcDbLine
 10
196.7999999999997
 20
2740.888272625836
 30
0.0
 11
193.2999999999997
 21
2738.888272625835
 31
0.0
  0
ARC
  5
1E4
330
2
100
AcDbEntity
  8
Bauseitig_Beton
100
AcDbCircle
 10
196.7999999999997
 20
2738.888272625835
 30
0.0
 40
2.0
100
AcDbArc
 50
270.0
 51
90.0
  0
ARC
  5
1E5
330
2
100
AcDbEntity
  8
Bauseitig_Beton
100
AcDbCircle
 10
193.2999999999997
 20
2736.888272625835
 30
0.0
 40
2.0
100
AcDbArc
 50
90.0
 51
270.0
  0
LINE
  5
1E6
330
2
100
AcDbEntity
  8
Bauseitig_Beton
100
AcDbLine
 10
193.2999999999997
 20
2738.888272625835
 30
0.0
 11
196.7999999999997
 21
2736.888272625835
 31
0.0
  0
ARC
  5
1E7
330
2
100
AcDbEntity
  8
Bauseitig_Beton
100
AcDbCircle
 10
196.7999999999997
 20
2742.888272625835
 30
0.0
 40
2.0
100
AcDbArc
 50
270.0
 51
0.1466310503202799
  0
ARC
  5
1E8
330
2
100
AcDbEntity
  8
Bauseitig_Beton
100
AcDbCircle
 10
193.2999999999997
 20
2740.888272625836
 30
0.0
 40
2.0
100
AcDbArc
 50
90.0
 51
270.0
  0
LINE
  5
1E9
330
2
100
AcDbEntity
  8
Bauseitig_Beton
100
AcDbLine
 10
193.2999999999997
 20
2742.888272625835
 30
0.0
 11
196.7999999999997
 21
2740.888272625836
 31
0.0
  0
HATCH
  5
1EA
330
2
100
AcDbEntity
  8
Bauseitig_Beton
100
AcDbHatch
 10
0.0
 20
0.0
 30
0.0
210
0.0
220
0.0
230
1.0
  2
ANSI31
 70
     0
 71
     1
 91
        1
 92
        7
 72
     0
 73
     1
 93
        4
 10
1206.299999999999
 20
2500.893391009475
 10
1206.299999999999
 20
2492.893391009475
 10
1305.496630732563
 20
2492.893391009475
 10
1305.496630732563
 20
2500.893391009475
 97
        1
330
1EB
 75
     1
 76
     1
 52
0.0
 41
50.0
 77
     0
 78
     1
 53
45.0
 43
1114.196630732564
 44
2065.000000000001
 45
-4.419417382415921
 46
4.419417382415922
 79
     0
 47
0.2285218501967519
 98
        1
 10
1266.8850901531
 20
2498.606751253734
1001
GradientColor1ACI
1070
     5
1001
GradientColor2ACI
1070
     2
1001
ACAD
1010
0.0
1020
0.0
1030
0.0
  0
LWPOLYLINE
  5
1EB
102
{ACAD_REACTORS
330
1EA
102
}
330
2
100
AcDbEntity
  8
Bauseitig_Beton
100
AcDbPolyline
 90
        4
 70
     1
 43
0.0
 10
1206.299999999999
 20
2500.893391009475
 10
1305.496630732563
 20
2500.893391009475
 10
1305.496630732563
 20
2492.893391009475
 10
1206.299999999999
 20
2492.893391009475
  0
LWPOLYLINE
  5
1EC
102
{ACAD_REACTORS
330
69
102
}
330
2
100
AcDbEntity
  8
Bauseitig_Beton
100
AcDbPolyline
 90
        4
 70
     1
 43
0.0
 10
1305.496220898765
 20
2500.893391009475
 10
1206.299590166201
 20
2500.893391009475
 10
1206.299590166201
 20
2742.893391009476
 10
1305.496220898765
 20
2742.893391009476
  0
MTEXT
  5
1ED
102
{ACAD_XDICTIONARY
360
1EE
102
}
330
2
100
AcDbEntity
  8
Bauseitig_Beton
 62
     1
100
AcDbMText
 10
1252.738926180658
 20
2582.6574542986
 30
0.0
 40
10.0
 41
37.77744553950834
 46
0.0
 71
     1
 72
     5
  1
Beton
  7
TECHNICBOLD
 11
0.0000000000000001
 21
1.0
 31
0.0
 73
     1
 44
1.0
 90
        3
 63
   256
 45
1.199999999999999
441
        0
1001
AcadAnnotative
1000
AnnotativeData
1002
{
1070
     1
1070
     0
1002
}
1001
ACAD
1000
ACAD_MTEXT_COLUMN_INFO_BEGIN
1070
    75
1070
     2
1070
    79
1070
     0
1070
    76
1070
     1
1070
    78
1070
     0
1070
    48
1040
37.77744553950834
1070
    49
1040
17.5
1070
    50
1070
     1
1040
0.0
1000
ACAD_MTEXT_COLUMN_INFO_END
  0
LWPOLYLINE
  5
1F1
330
2
100
AcDbEntity
  8
Bauseitig_Beton
100
AcDbPolyline
 90
        4
 70
     1
 43
0.0
 10
1198.8
 20
2742.893391009476
 10
1206.299999999999
 20
2742.893391009476
 10
1206.3
 20
2500.893391009475
 10
1198.8
 20
2500.893391009476
  0
LINE
  5
1F2
330
2
100
AcDbEntity
  8
Bauseitig_Beton
100
AcDbLine
 10
1204.3
 20
2732.888272625836
 30
0.0
 11
1200.8
 21
2730.888272625836
 31
0.0
  0
ARC
  5
1F3
330
2
100
AcDbEntity
  8
Bauseitig_Beton
100
AcDbCircle
 10
1204.3
 20
2730.888272625836
 30
0.0
 40
2.0
100
AcDbArc
 50
270.0
 51
90.0
  0
ARC
  5
1F4
330
2
100
AcDbEntity
  8
Bauseitig_Beton
100
AcDbCircle
 10
1200.8
 20
2728.888272625836
 30
0.0
 40
2.0
100
AcDbArc
 50
90.0
 51
270.0
  0
LINE
  5
1F5
330
2
100
AcDbEntity
  8
Bauseitig_Beton
100
AcDbLine
 10
1200.8
 20
2730.888272625836
 30
0.0
 11
1204.3
 21
2728.888272625836
 31
0.0
  0
LINE
  5
1F6
330
2
100
AcDbEntity
  8
Bauseitig_Beton
100
AcDbLine
 10
1204.3
 20
2728.888272625836
 30
0.0
 11
1200.8
 21
2726.888272625836
 31
0.0
  0
ARC
  5
1F7
330
2
100
AcDbEntity
  8
Bauseitig_Beton
100
AcDbCircle
 10
1204.3
 20
2726.888272625836
 30
0.0
 40
2.0
100
AcDbArc
 50
270.0
 51
90.0
  0
ARC
  5
1F8
330
2
100
AcDbEntity
  8
Bauseitig_Beton
100
AcDbCircle
 10
1200.8
 20
2724.888272625836
 30
0.0
 40
2.0
100
AcDbArc
 50
90.0
 51
270.0
  0
LINE
  5
1F9
330
2
100
AcDbEntity
  8
Bauseitig_Beton
100
AcDbLine
 10
1200.8
 20
2726.888272625836
 30
0.0
 11
1204.3
 21
2724.888272625836
 31
0.0
  0
LINE
  5
1FA
330
2
100
AcDbEntity
  8
Bauseitig_Beton
100
AcDbLine
 10
1204.3
 20
2724.888272625836
 30
0.0
 11
1200.8
 21
2722.888272625836
 31
0.0
  0
ARC
  5
1FB
330
2
100
AcDbEntity
  8
Bauseitig_Beton
100
AcDbCircle
 10
1204.3
 20
2722.888272625836
 30
0.0
 40
2.0
100
AcDbArc
 50
270.0
 51
90.0
  0
ARC
  5
1FC
330
2
100
AcDbEntity
  8
Bauseitig_Beton
100
AcDbCircle
 10
1200.8
 20
2720.888272625836
 30
0.0
 40
2.0
100
AcDbArc
 50
90.0
 51
270.0
  0
LINE
  5
1FD
330
2
100
AcDbEntity
  8
Bauseitig_Beton
100
AcDbLine
 10
1200.8
 20
2722.888272625836
 30
0.0
 11
1204.3
 21
2720.888272625836
 31
0.0
  0
LINE
  5
1FE
330
2
100
AcDbEntity
  8
Bauseitig_Beton
100
AcDbLine
 10
1204.3
 20
2720.888272625836
 30
0.0
 11
1200.8
 21
2718.888272625836
 31
0.0
  0
ARC
  5
1FF
330
2
100
AcDbEntity
  8
Bauseitig_Beton
100
AcDbCircle
 10
1204.3
 20
2718.888272625836
 30
0.0
 40
2.0
100
AcDbArc
 50
270.0
 51
90.0
  0
ARC
  5
200
330
2
100
AcDbEntity
  8
Bauseitig_Beton
100
AcDbCircle
 10
1200.8
 20
2716.888272625836
 30
0.0
 40
2.0
100
AcDbArc
 50
90.0
 51
270.0
  0
LINE
  5
201
330
2
100
AcDbEntity
  8
Bauseitig_Beton
100
AcDbLine
 10
1200.8
 20
2718.888272625836
 30
0.0
 11
1204.3
 21
2716.888272625836
 31
0.0
  0
LINE
  5
202
330
2
100
AcDbEntity
  8
Bauseitig_Beton
100
AcDbLine
 10
1204.3
 20
2716.888272625836
 30
0.0
 11
1200.8
 21
2714.888272625836
 31
0.0
  0
ARC
  5
203
330
2
100
AcDbEntity
  8
Bauseitig_Beton
100
AcDbCircle
 10
1204.3
 20
2714.888272625836
 30
0.0
 40
2.0
100
AcDbArc
 50
270.0
 51
90.0
  0
ARC
  5
204
330
2
100
AcDbEntity
  8
Bauseitig_Beton
100
AcDbCircle
 10
1200.8
 20
2712.888272625836
 30
0.0
 40
2.0
100
AcDbArc
 50
90.0
 51
270.0
  0
LINE
  5
205
330
2
100
AcDbEntity
  8
Bauseitig_Beton
100
AcDbLine
 10
1200.8
 20
2714.888272625836
 30
0.0
 11
1204.3
 21
2712.888272625836
 31
0.0
  0
LINE
  5
206
330
2
100
AcDbEntity
  8
Bauseitig_Beton
100
AcDbLine
 10
1204.3
 20
2712.888272625836
 30
0.0
 11
1200.8
 21
2710.888272625836
 31
0.0
  0
ARC
  5
207
330
2
100
AcDbEntity
  8
Bauseitig_Beton
100
AcDbCircle
 10
1204.3
 20
2710.888272625836
 30
0.0
 40
2.0
100
AcDbArc
 50
270.0
 51
90.0
  0
ARC
  5
208
330
2
100
AcDbEntity
  8
Bauseitig_Beton
100
AcDbCircle
 10
1200.8
 20
2708.888272625836
 30
0.0
 40
2.0
100
AcDbArc
 50
90.0
 51
270.0
  0
LINE
  5
209
330
2
100
AcDbEntity
  8
Bauseitig_Beton
100
AcDbLine
 10
1200.8
 20
2710.888272625836
 30
0.0
 11
1204.3
 21
2708.888272625836
 31
0.0
  0
LINE
  5
20A
330
2
100
AcDbEntity
  8
Bauseitig_Beton
100
AcDbLine
 10
1204.3
 20
2708.888272625836
 30
0.0
 11
1200.8
 21
2706.888272625836
 31
0.0
  0
ARC
  5
20B
330
2
100
AcDbEntity
  8
Bauseitig_Beton
100
AcDbCircle
 10
1204.3
 20
2706.888272625836
 30
0.0
 40
2.0
100
AcDbArc
 50
270.0
 51
90.0
  0
ARC
  5
20C
330
2
100
AcDbEntity
  8
Bauseitig_Beton
100
AcDbCircle
 10
1200.8
 20
2704.888272625836
 30
0.0
 40
2.0
100
AcDbArc
 50
90.0
 51
270.0
  0
LINE
  5
20D
330
2
100
AcDbEntity
  8
Bauseitig_Beton
100
AcDbLine
 10
1200.8
 20
2706.888272625836
 30
0.0
 11
1204.3
 21
2704.888272625836
 31
0.0
  0
LINE
  5
20E
330
2
100
AcDbEntity
  8
Bauseitig_Beton
100
AcDbLine
 10
1204.3
 20
2704.888272625836
 30
0.0
 11
1200.8
 21
2702.888272625836
 31
0.0
  0
ARC
  5
20F
330
2
100
AcDbEntity
  8
Bauseitig_Beton
100
AcDbCircle
 10
1204.3
 20
2702.888272625836
 30
0.0
 40
2.0
100
AcDbArc
 50
270.0
 51
90.0
  0
ARC
  5
210
330
2
100
AcDbEntity
  8
Bauseitig_Beton
100
AcDbCircle
 10
1200.8
 20
2700.888272625836
 30
0.0
 40
2.0
100
AcDbArc
 50
90.0
 51
270.0
  0
LINE
  5
211
330
2
100
AcDbEntity
  8
Bauseitig_Beton
100
AcDbLine
 10
1200.8
 20
2702.888272625836
 30
0.0
 11
1204.3
 21
2700.888272625836
 31
0.0
  0
LINE
  5
212
330
2
100
AcDbEntity
  8
Bauseitig_Beton
100
AcDbLine
 10
1204.3
 20
2700.888272625836
 30
0.0
 11
1200.8
 21
2698.888272625836
 31
0.0
  0
ARC
  5
213
330
2
100
AcDbEntity
  8
Bauseitig_Beton
100
AcDbCircle
 10
1204.3
 20
2698.888272625836
 30
0.0
 40
2.0
100
AcDbArc
 50
270.0
 51
90.0
  0
ARC
  5
214
330
2
100
AcDbEntity
  8
Bauseitig_Beton
100
AcDbCircle
 10
1200.8
 20
2696.888272625836
 30
0.0
 40
2.0
100
AcDbArc
 50
90.0
 51
270.0
  0
LINE
  5
215
330
2
100
AcDbEntity
  8
Bauseitig_Beton
100
AcDbLine
 10
1200.8
 20
2698.888272625836
 30
0.0
 11
1204.3
 21
2696.888272625836
 31
0.0
  0
LINE
  5
216
330
2
100
AcDbEntity
  8
Bauseitig_Beton
100
AcDbLine
 10
1204.3
 20
2696.888272625836
 30
0.0
 11
1200.8
 21
2694.888272625836
 31
0.0
  0
ARC
  5
217
330
2
100
AcDbEntity
  8
Bauseitig_Beton
100
AcDbCircle
 10
1204.3
 20
2694.888272625836
 30
0.0
 40
2.0
100
AcDbArc
 50
270.0
 51
90.0
  0
ARC
  5
218
330
2
100
AcDbEntity
  8
Bauseitig_Beton
100
AcDbCircle
 10
1200.8
 20
2692.888272625836
 30
0.0
 40
2.0
100
AcDbArc
 50
90.0
 51
270.0
  0
LINE
  5
219
330
2
100
AcDbEntity
  8
Bauseitig_Beton
100
AcDbLine
 10
1200.8
 20
2694.888272625836
 30
0.0
 11
1204.3
 21
2692.888272625836
 31
0.0
  0
LINE
  5
21A
330
2
100
AcDbEntity
  8
Bauseitig_Beton
100
AcDbLine
 10
1204.3
 20
2692.888272625836
 30
0.0
 11
1200.8
 21
2690.888272625836
 31
0.0
  0
ARC
  5
21B
330
2
100
AcDbEntity
  8
Bauseitig_Beton
100
AcDbCircle
 10
1204.3
 20
2690.888272625836
 30
0.0
 40
2.0
100
AcDbArc
 50
270.0
 51
90.0
  0
ARC
  5
21C
330
2
100
AcDbEntity
  8
Bauseitig_Beton
100
AcDbCircle
 10
1200.8
 20
2688.888272625836
 30
0.0
 40
2.0
100
AcDbArc
 50
90.0
 51
270.0
  0
LINE
  5
21D
330
2
100
AcDbEntity
  8
Bauseitig_Beton
100
AcDbLine
 10
1200.8
 20
2690.888272625836
 30
0.0
 11
1204.3
 21
2688.888272625836
 31
0.0
  0
LINE
  5
21E
330
2
100
AcDbEntity
  8
Bauseitig_Beton
100
AcDbLine
 10
1204.3
 20
2688.888272625836
 30
0.0
 11
1200.8
 21
2686.888272625836
 31
0.0
  0
ARC
  5
21F
330
2
100
AcDbEntity
  8
Bauseitig_Beton
100
AcDbCircle
 10
1204.3
 20
2686.888272625836
 30
0.0
 40
2.0
100
AcDbArc
 50
270.0
 51
90.0
  0
ARC
  5
220
330
2
100
AcDbEntity
  8
Bauseitig_Beton
100
AcDbCircle
 10
1200.8
 20
2684.888272625836
 30
0.0
 40
2.0
100
AcDbArc
 50
90.0
 51
270.0
  0
LINE
  5
221
330
2
100
AcDbEntity
  8
Bauseitig_Beton
100
AcDbLine
 10
1200.8
 20
2686.888272625836
 30
0.0
 11
1204.3
 21
2684.888272625836
 31
0.0
  0
LINE
  5
222
330
2
100
AcDbEntity
  8
Bauseitig_Beton
100
AcDbLine
 10
1204.3
 20
2684.888272625836
 30
0.0
 11
1200.8
 21
2682.888272625836
 31
0.0
  0
ARC
  5
223
330
2
100
AcDbEntity
  8
Bauseitig_Beton
100
AcDbCircle
 10
1204.3
 20
2682.888272625836
 30
0.0
 40
2.0
100
AcDbArc
 50
270.0
 51
90.0
  0
ARC
  5
224
330
2
100
AcDbEntity
  8
Bauseitig_Beton
100
AcDbCircle
 10
1200.8
 20
2680.888272625836
 30
0.0
 40
2.0
100
AcDbArc
 50
90.0
 51
270.0
  0
LINE
  5
225
330
2
100
AcDbEntity
  8
Bauseitig_Beton
100
AcDbLine
 10
1200.8
 20
2682.888272625836
 30
0.0
 11
1204.3
 21
2680.888272625836
 31
0.0
  0
LINE
  5
226
330
2
100
AcDbEntity
  8
Bauseitig_Beton
100
AcDbLine
 10
1204.3
 20
2680.888272625836
 30
0.0
 11
1200.8
 21
2678.888272625836
 31
0.0
  0
ARC
  5
227
330
2
100
AcDbEntity
  8
Bauseitig_Beton
100
AcDbCircle
 10
1204.3
 20
2678.888272625836
 30
0.0
 40
2.0
100
AcDbArc
 50
339.0568897684519
 51
90.0
  0
ARC
  5
228
330
2
100
AcDbEntity
  8
Bauseitig_Beton
100
AcDbCircle
 10
1200.8
 20
2676.888272625836
 30
0.0
 40
2.0
100
AcDbArc
 50
90.0
 51
140.0170822246424
  0
LINE
  5
229
330
2
100
AcDbEntity
  8
Bauseitig_Beton
100
AcDbLine
 10
1200.8
 20
2678.888272625836
 30
0.0
 11
1202.051042828641
 21
2678.173391009469
 31
0.0
  0
ARC
  5
22A
330
2
100
AcDbEntity
  8
Bauseitig_Beton
100
AcDbCircle
 10
1204.3
 20
2602.888272625836
 30
0.0
 40
2.0
100
AcDbArc
 50
270.0
 51
339.0568897684519
  0
ARC
  5
22B
330
2
100
AcDbEntity
  8
Bauseitig_Beton
100
AcDbCircle
 10
1200.8
 20
2600.888272625836
 30
0.0
 40
2.0
100
AcDbArc
 50
140.0170822246424
 51
270.0
  0
LINE
  5
22C
330
2
100
AcDbEntity
  8
Bauseitig_Beton
100
AcDbLine
 10
1202.051042828641
 20
2602.17339100947
 30
0.0
 11
1204.3
 21
2600.888272625836
 31
0.0
  0
LINE
  5
22D
330
2
100
AcDbEntity
  8
Bauseitig_Beton
100
AcDbLine
 10
1204.3
 20
2600.888272625836
 30
0.0
 11
1200.8
 21
2598.888272625836
 31
0.0
  0
ARC
  5
22E
330
2
100
AcDbEntity
  8
Bauseitig_Beton
100
AcDbCircle
 10
1204.3
 20
2598.888272625836
 30
0.0
 40
2.0
100
AcDbArc
 50
270.0
 51
90.0
  0
ARC
  5
22F
330
2
100
AcDbEntity
  8
Bauseitig_Beton
100
AcDbCircle
 10
1200.8
 20
2596.888272625836
 30
0.0
 40
2.0
100
AcDbArc
 50
90.0
 51
270.0
  0
LINE
  5
230
330
2
100
AcDbEntity
  8
Bauseitig_Beton
100
AcDbLine
 10
1200.8
 20
2598.888272625836
 30
0.0
 11
1204.3
 21
2596.888272625836
 31
0.0
  0
LINE
  5
231
330
2
100
AcDbEntity
  8
Bauseitig_Beton
100
AcDbLine
 10
1204.3
 20
2596.888272625836
 30
0.0
 11
1200.8
 21
2594.888272625836
 31
0.0
  0
ARC
  5
232
330
2
100
AcDbEntity
  8
Bauseitig_Beton
100
AcDbCircle
 10
1204.3
 20
2594.888272625836
 30
0.0
 40
2.0
100
AcDbArc
 50
270.0
 51
90.0
  0
ARC
  5
233
330
2
100
AcDbEntity
  8
Bauseitig_Beton
100
AcDbCircle
 10
1200.8
 20
2592.888272625836
 30
0.0
 40
2.0
100
AcDbArc
 50
90.0
 51
270.0
  0
LINE
  5
234
330
2
100
AcDbEntity
  8
Bauseitig_Beton
100
AcDbLine
 10
1200.8
 20
2594.888272625836
 30
0.0
 11
1204.3
 21
2592.888272625836
 31
0.0
  0
LINE
  5
235
330
2
100
AcDbEntity
  8
Bauseitig_Beton
100
AcDbLine
 10
1204.3
 20
2592.888272625836
 30
0.0
 11
1200.8
 21
2590.888272625836
 31
0.0
  0
ARC
  5
236
330
2
100
AcDbEntity
  8
Bauseitig_Beton
100
AcDbCircle
 10
1204.3
 20
2590.888272625836
 30
0.0
 40
2.0
100
AcDbArc
 50
270.0
 51
90.0
  0
ARC
  5
237
330
2
100
AcDbEntity
  8
Bauseitig_Beton
100
AcDbCircle
 10
1200.8
 20
2588.888272625836
 30
0.0
 40
2.0
100
AcDbArc
 50
90.0
 51
270.0
  0
LINE
  5
238
330
2
100
AcDbEntity
  8
Bauseitig_Beton
100
AcDbLine
 10
1200.8
 20
2590.888272625836
 30
0.0
 11
1204.3
 21
2588.888272625836
 31
0.0
  0
LINE
  5
239
330
2
100
AcDbEntity
  8
Bauseitig_Beton
100
AcDbLine
 10
1204.3
 20
2588.888272625836
 30
0.0
 11
1200.8
 21
2586.888272625836
 31
0.0
  0
ARC
  5
23A
330
2
100
AcDbEntity
  8
Bauseitig_Beton
100
AcDbCircle
 10
1204.3
 20
2586.888272625836
 30
0.0
 40
2.0
100
AcDbArc
 50
270.0
 51
90.0
  0
ARC
  5
23B
330
2
100
AcDbEntity
  8
Bauseitig_Beton
100
AcDbCircle
 10
1200.8
 20
2584.888272625836
 30
0.0
 40
2.0
100
AcDbArc
 50
90.0
 51
270.0
  0
LINE
  5
23C
330
2
100
AcDbEntity
  8
Bauseitig_Beton
100
AcDbLine
 10
1200.8
 20
2586.888272625836
 30
0.0
 11
1204.3
 21
2584.888272625836
 31
0.0
  0
LINE
  5
23D
330
2
100
AcDbEntity
  8
Bauseitig_Beton
100
AcDbLine
 10
1204.3
 20
2584.888272625836
 30
0.0
 11
1200.8
 21
2582.888272625836
 31
0.0
  0
ARC
  5
23E
330
2
100
AcDbEntity
  8
Bauseitig_Beton
100
AcDbCircle
 10
1204.3
 20
2582.888272625836
 30
0.0
 40
2.0
100
AcDbArc
 50
270.0
 51
90.0
  0
ARC
  5
23F
330
2
100
AcDbEntity
  8
Bauseitig_Beton
100
AcDbCircle
 10
1200.8
 20
2580.888272625836
 30
0.0
 40
2.0
100
AcDbArc
 50
90.0
 51
270.0
  0
LINE
  5
240
330
2
100
AcDbEntity
  8
Bauseitig_Beton
100
AcDbLine
 10
1200.8
 20
2582.888272625836
 30
0.0
 11
1204.3
 21
2580.888272625836
 31
0.0
  0
LINE
  5
241
330
2
100
AcDbEntity
  8
Bauseitig_Beton
100
AcDbLine
 10
1204.3
 20
2580.888272625836
 30
0.0
 11
1200.8
 21
2578.888272625836
 31
0.0
  0
ARC
  5
242
330
2
100
AcDbEntity
  8
Bauseitig_Beton
100
AcDbCircle
 10
1204.3
 20
2578.888272625836
 30
0.0
 40
2.0
100
AcDbArc
 50
270.0
 51
90.0
  0
ARC
  5
243
330
2
100
AcDbEntity
  8
Bauseitig_Beton
100
AcDbCircle
 10
1200.8
 20
2576.888272625836
 30
0.0
 40
2.0
100
AcDbArc
 50
90.0
 51
270.0
  0
LINE
  5
244
330
2
100
AcDbEntity
  8
Bauseitig_Beton
100
AcDbLine
 10
1200.8
 20
2578.888272625836
 30
0.0
 11
1204.3
 21
2576.888272625836
 31
0.0
  0
LINE
  5
245
330
2
100
AcDbEntity
  8
Bauseitig_Beton
100
AcDbLine
 10
1204.3
 20
2576.888272625836
 30
0.0
 11
1200.8
 21
2574.888272625836
 31
0.0
  0
ARC
  5
246
330
2
100
AcDbEntity
  8
Bauseitig_Beton
100
AcDbCircle
 10
1204.3
 20
2574.888272625836
 30
0.0
 40
2.0
100
AcDbArc
 50
270.0
 51
90.0
  0
ARC
  5
247
330
2
100
AcDbEntity
  8
Bauseitig_Beton
100
AcDbCircle
 10
1200.8
 20
2572.888272625836
 30
0.0
 40
2.0
100
AcDbArc
 50
90.0
 51
270.0
  0
LINE
  5
248
330
2
100
AcDbEntity
  8
Bauseitig_Beton
100
AcDbLine
 10
1200.8
 20
2574.888272625836
 30
0.0
 11
1204.3
 21
2572.888272625836
 31
0.0
  0
LINE
  5
249
330
2
100
AcDbEntity
  8
Bauseitig_Beton
100
AcDbLine
 10
1204.3
 20
2572.888272625836
 30
0.0
 11
1200.8
 21
2570.888272625836
 31
0.0
  0
ARC
  5
24A
330
2
100
AcDbEntity
  8
Bauseitig_Beton
100
AcDbCircle
 10
1204.3
 20
2570.888272625836
 30
0.0
 40
2.0
100
AcDbArc
 50
270.0
 51
90.0
  0
ARC
  5
24B
330
2
100
AcDbEntity
  8
Bauseitig_Beton
100
AcDbCircle
 10
1200.8
 20
2568.888272625836
 30
0.0
 40
2.0
100
AcDbArc
 50
90.0
 51
270.0
  0
LINE
  5
24C
330
2
100
AcDbEntity
  8
Bauseitig_Beton
100
AcDbLine
 10
1200.8
 20
2570.888272625836
 30
0.0
 11
1204.3
 21
2568.888272625836
 31
0.0
  0
LINE
  5
24D
330
2
100
AcDbEntity
  8
Bauseitig_Beton
100
AcDbLine
 10
1204.3
 20
2568.888272625836
 30
0.0
 11
1200.8
 21
2566.888272625836
 31
0.0
  0
ARC
  5
24E
330
2
100
AcDbEntity
  8
Bauseitig_Beton
100
AcDbCircle
 10
1204.3
 20
2566.888272625836
 30
0.0
 40
2.0
100
AcDbArc
 50
270.0
 51
90.0
  0
ARC
  5
24F
330
2
100
AcDbEntity
  8
Bauseitig_Beton
100
AcDbCircle
 10
1200.8
 20
2564.888272625836
 30
0.0
 40
2.0
100
AcDbArc
 50
90.0
 51
270.0
  0
LINE
  5
250
330
2
100
AcDbEntity
  8
Bauseitig_Beton
100
AcDbLine
 10
1200.8
 20
2566.888272625836
 30
0.0
 11
1204.3
 21
2564.888272625836
 31
0.0
  0
LINE
  5
251
330
2
100
AcDbEntity
  8
Bauseitig_Beton
100
AcDbLine
 10
1204.3
 20
2564.888272625836
 30
0.0
 11
1200.8
 21
2562.888272625836
 31
0.0
  0
ARC
  5
252
330
2
100
AcDbEntity
  8
Bauseitig_Beton
100
AcDbCircle
 10
1204.3
 20
2562.888272625836
 30
0.0
 40
2.0
100
AcDbArc
 50
270.0
 51
90.0
  0
ARC
  5
253
330
2
100
AcDbEntity
  8
Bauseitig_Beton
100
AcDbCircle
 10
1200.8
 20
2560.888272625836
 30
0.0
 40
2.0
100
AcDbArc
 50
90.0
 51
270.0
  0
LINE
  5
254
330
2
100
AcDbEntity
  8
Bauseitig_Beton
100
AcDbLine
 10
1200.8
 20
2562.888272625836
 30
0.0
 11
1204.3
 21
2560.888272625836
 31
0.0
  0
LINE
  5
255
330
2
100
AcDbEntity
  8
Bauseitig_Beton
100
AcDbLine
 10
1204.3
 20
2560.888272625836
 30
0.0
 11
1200.8
 21
2558.888272625836
 31
0.0
  0
ARC
  5
256
330
2
100
AcDbEntity
  8
Bauseitig_Beton
100
AcDbCircle
 10
1204.3
 20
2558.888272625836
 30
0.0
 40
2.0
100
AcDbArc
 50
270.0
 51
90.0
  0
ARC
  5
257
330
2
100
AcDbEntity
  8
Bauseitig_Beton
100
AcDbCircle
 10
1200.8
 20
2556.888272625836
 30
0.0
 40
2.0
100
AcDbArc
 50
90.0
 51
270.0
  0
LINE
  5
258
330
2
100
AcDbEntity
  8
Bauseitig_Beton
100
AcDbLine
 10
1200.8
 20
2558.888272625836
 30
0.0
 11
1204.3
 21
2556.888272625836
 31
0.0
  0
LINE
  5
259
330
2
100
AcDbEntity
  8
Bauseitig_Beton
100
AcDbLine
 10
1204.3
 20
2556.888272625836
 30
0.0
 11
1200.8
 21
2554.888272625836
 31
0.0
  0
ARC
  5
25A
330
2
100
AcDbEntity
  8
Bauseitig_Beton
100
AcDbCircle
 10
1204.3
 20
2554.888272625836
 30
0.0
 40
2.0
100
AcDbArc
 50
270.0
 51
90.0
  0
ARC
  5
25B
330
2
100
AcDbEntity
  8
Bauseitig_Beton
100
AcDbCircle
 10
1200.8
 20
2552.888272625836
 30
0.0
 40
2.0
100
AcDbArc
 50
90.0
 51
270.0
  0
LINE
  5
25C
330
2
100
AcDbEntity
  8
Bauseitig_Beton
100
AcDbLine
 10
1200.8
 20
2554.888272625836
 30
0.0
 11
1204.3
 21
2552.888272625836
 31
0.0
  0
LINE
  5
25D
330
2
100
AcDbEntity
  8
Bauseitig_Beton
100
AcDbLine
 10
1204.3
 20
2552.888272625836
 30
0.0
 11
1200.8
 21
2550.888272625836
 31
0.0
  0
ARC
  5
25E
330
2
100
AcDbEntity
  8
Bauseitig_Beton
100
AcDbCircle
 10
1204.3
 20
2550.888272625836
 30
0.0
 40
2.0
100
AcDbArc
 50
270.0
 51
90.0
  0
ARC
  5
25F
330
2
100
AcDbEntity
  8
Bauseitig_Beton
100
AcDbCircle
 10
1200.8
 20
2548.888272625836
 30
0.0
 40
2.0
100
AcDbArc
 50
90.0
 51
270.0
  0
LINE
  5
260
330
2
100
AcDbEntity
  8
Bauseitig_Beton
100
AcDbLine
 10
1200.8
 20
2550.888272625836
 30
0.0
 11
1204.3
 21
2548.888272625836
 31
0.0
  0
LINE
  5
261
330
2
100
AcDbEntity
  8
Bauseitig_Beton
100
AcDbLine
 10
1204.3
 20
2548.888272625836
 30
0.0
 11
1200.8
 21
2546.888272625836
 31
0.0
  0
ARC
  5
262
330
2
100
AcDbEntity
  8
Bauseitig_Beton
100
AcDbCircle
 10
1204.3
 20
2546.888272625836
 30
0.0
 40
2.0
100
AcDbArc
 50
270.0
 51
90.0
  0
ARC
  5
263
330
2
100
AcDbEntity
  8
Bauseitig_Beton
100
AcDbCircle
 10
1200.8
 20
2544.888272625836
 30
0.0
 40
2.0
100
AcDbArc
 50
90.0
 51
270.0
  0
LINE
  5
264
330
2
100
AcDbEntity
  8
Bauseitig_Beton
100
AcDbLine
 10
1200.8
 20
2546.888272625836
 30
0.0
 11
1204.3
 21
2544.888272625836
 31
0.0
  0
LINE
  5
265
330
2
100
AcDbEntity
  8
Bauseitig_Beton
100
AcDbLine
 10
1204.3
 20
2544.888272625836
 30
0.0
 11
1200.8
 21
2542.888272625836
 31
0.0
  0
ARC
  5
266
330
2
100
AcDbEntity
  8
Bauseitig_Beton
100
AcDbCircle
 10
1204.3
 20
2542.888272625836
 30
0.0
 40
2.0
100
AcDbArc
 50
270.0
 51
90.0
  0
ARC
  5
267
330
2
100
AcDbEntity
  8
Bauseitig_Beton
100
AcDbCircle
 10
1200.8
 20
2540.888272625836
 30
0.0
 40
2.0
100
AcDbArc
 50
90.0
 51
270.0
  0
LINE
  5
268
330
2
100
AcDbEntity
  8
Bauseitig_Beton
100
AcDbLine
 10
1200.8
 20
2542.888272625836
 30
0.0
 11
1204.3
 21
2540.888272625836
 31
0.0
  0
LINE
  5
269
330
2
100
AcDbEntity
  8
Bauseitig_Beton
100
AcDbLine
 10
1204.3
 20
2540.888272625836
 30
0.0
 11
1200.8
 21
2538.888272625836
 31
0.0
  0
ARC
  5
26A
330
2
100
AcDbEntity
  8
Bauseitig_Beton
100
AcDbCircle
 10
1204.3
 20
2538.888272625836
 30
0.0
 40
2.0
100
AcDbArc
 50
270.0
 51
90.0
  0
ARC
  5
26B
330
2
100
AcDbEntity
  8
Bauseitig_Beton
100
AcDbCircle
 10
1200.8
 20
2536.888272625836
 30
0.0
 40
2.0
100
AcDbArc
 50
90.0
 51
270.0
  0
LINE
  5
26C
330
2
100
AcDbEntity
  8
Bauseitig_Beton
100
AcDbLine
 10
1200.8
 20
2538.888272625836
 30
0.0
 11
1204.3
 21
2536.888272625836
 31
0.0
  0
LINE
  5
26D
330
2
100
AcDbEntity
  8
Bauseitig_Beton
100
AcDbLine
 10
1204.3
 20
2536.888272625836
 30
0.0
 11
1200.8
 21
2534.888272625836
 31
0.0
  0
ARC
  5
26E
330
2
100
AcDbEntity
  8
Bauseitig_Beton
100
AcDbCircle
 10
1204.3
 20
2534.888272625836
 30
0.0
 40
2.0
100
AcDbArc
 50
270.0
 51
90.0
  0
ARC
  5
26F
330
2
100
AcDbEntity
  8
Bauseitig_Beton
100
AcDbCircle
 10
1200.8
 20
2532.888272625836
 30
0.0
 40
2.0
100
AcDbArc
 50
90.0
 51
270.0
  0
LINE
  5
270
330
2
100
AcDbEntity
  8
Bauseitig_Beton
100
AcDbLine
 10
1200.8
 20
2534.888272625836
 30
0.0
 11
1204.3
 21
2532.888272625836
 31
0.0
  0
LINE
  5
271
330
2
100
AcDbEntity
  8
Bauseitig_Beton
100
AcDbLine
 10
1204.3
 20
2532.888272625836
 30
0.0
 11
1200.8
 21
2530.888272625836
 31
0.0
  0
ARC
  5
272
330
2
100
AcDbEntity
  8
Bauseitig_Beton
100
AcDbCircle
 10
1204.3
 20
2530.888272625836
 30
0.0
 40
2.0
100
AcDbArc
 50
270.0
 51
90.0
  0
ARC
  5
273
330
2
100
AcDbEntity
  8
Bauseitig_Beton
100
AcDbCircle
 10
1200.8
 20
2528.888272625836
 30
0.0
 40
2.0
100
AcDbArc
 50
90.0
 51
270.0
  0
LINE
  5
274
330
2
100
AcDbEntity
  8
Bauseitig_Beton
100
AcDbLine
 10
1200.8
 20
2530.888272625836
 30
0.0
 11
1204.3
 21
2528.888272625836
 31
0.0
  0
LINE
  5
275
330
2
100
AcDbEntity
  8
Bauseitig_Beton
100
AcDbLine
 10
1204.3
 20
2528.888272625836
 30
0.0
 11
1200.8
 21
2526.888272625836
 31
0.0
  0
ARC
  5
276
330
2
100
AcDbEntity
  8
Bauseitig_Beton
100
AcDbCircle
 10
1204.3
 20
2526.888272625836
 30
0.0
 40
2.0
100
AcDbArc
 50
270.0
 51
90.0
  0
ARC
  5
277
330
2
100
AcDbEntity
  8
Bauseitig_Beton
100
AcDbCircle
 10
1200.8
 20
2524.888272625836
 30
0.0
 40
2.0
100
AcDbArc
 50
90.0
 51
270.0
  0
LINE
  5
278
330
2
100
AcDbEntity
  8
Bauseitig_Beton
100
AcDbLine
 10
1200.8
 20
2526.888272625836
 30
0.0
 11
1204.3
 21
2524.888272625836
 31
0.0
  0
LINE
  5
279
330
2
100
AcDbEntity
  8
Bauseitig_Beton
100
AcDbLine
 10
1204.3
 20
2524.888272625836
 30
0.0
 11
1200.8
 21
2522.888272625836
 31
0.0
  0
ARC
  5
27A
330
2
100
AcDbEntity
  8
Bauseitig_Beton
100
AcDbCircle
 10
1204.3
 20
2522.888272625836
 30
0.0
 40
2.0
100
AcDbArc
 50
270.0
 51
90.0
  0
ARC
  5
27B
330
2
100
AcDbEntity
  8
Bauseitig_Beton
100
AcDbCircle
 10
1200.8
 20
2520.888272625836
 30
0.0
 40
2.0
100
AcDbArc
 50
90.0
 51
270.0
  0
LINE
  5
27C
330
2
100
AcDbEntity
  8
Bauseitig_Beton
100
AcDbLine
 10
1200.8
 20
2522.888272625836
 30
0.0
 11
1204.3
 21
2520.888272625836
 31
0.0
  0
LINE
  5
27D
330
2
100
AcDbEntity
  8
Bauseitig_Beton
100
AcDbLine
 10
1204.3
 20
2520.888272625836
 30
0.0
 11
1200.8
 21
2518.888272625836
 31
0.0
  0
ARC
  5
27E
330
2
100
AcDbEntity
  8
Bauseitig_Beton
100
AcDbCircle
 10
1204.3
 20
2518.888272625836
 30
0.0
 40
2.0
100
AcDbArc
 50
270.0
 51
90.0
  0
ARC
  5
27F
330
2
100
AcDbEntity
  8
Bauseitig_Beton
100
AcDbCircle
 10
1200.8
 20
2516.888272625836
 30
0.0
 40
2.0
100
AcDbArc
 50
90.0
 51
270.0
  0
LINE
  5
280
330
2
100
AcDbEntity
  8
Bauseitig_Beton
100
AcDbLine
 10
1200.8
 20
2518.888272625836
 30
0.0
 11
1204.3
 21
2516.888272625836
 31
0.0
  0
LINE
  5
281
330
2
100
AcDbEntity
  8
Bauseitig_Beton
100
AcDbLine
 10
1204.3
 20
2516.888272625836
 30
0.0
 11
1200.8
 21
2514.888272625836
 31
0.0
  0
ARC
  5
282
330
2
100
AcDbEntity
  8
Bauseitig_Beton
100
AcDbCircle
 10
1204.3
 20
2514.888272625836
 30
0.0
 40
2.0
100
AcDbArc
 50
270.0
 51
90.0
  0
ARC
  5
283
330
2
100
AcDbEntity
  8
Bauseitig_Beton
100
AcDbCircle
 10
1200.8
 20
2512.888272625836
 30
0.0
 40
2.0
100
AcDbArc
 50
90.0
 51
270.0
  0
LINE
  5
284
330
2
100
AcDbEntity
  8
Bauseitig_Beton
100
AcDbLine
 10
1200.8
 20
2514.888272625836
 30
0.0
 11
1204.3
 21
2512.888272625836
 31
0.0
  0
LINE
  5
285
330
2
100
AcDbEntity
  8
Bauseitig_Beton
100
AcDbLine
 10
1204.3
 20
2512.888272625836
 30
0.0
 11
1200.8
 21
2510.888272625836
 31
0.0
  0
ARC
  5
286
330
2
100
AcDbEntity
  8
Bauseitig_Beton
100
AcDbCircle
 10
1204.3
 20
2510.888272625836
 30
0.0
 40
2.0
100
AcDbArc
 50
270.0
 51
90.0
  0
ARC
  5
287
330
2
100
AcDbEntity
  8
Bauseitig_Beton
100
AcDbCircle
 10
1200.8
 20
2508.888272625836
 30
0.0
 40
2.0
100
AcDbArc
 50
90.0
 51
270.0
  0
LINE
  5
288
330
2
100
AcDbEntity
  8
Bauseitig_Beton
100
AcDbLine
 10
1200.8
 20
2510.888272625836
 30
0.0
 11
1204.3
 21
2508.888272625836
 31
0.0
  0
LINE
  5
289
330
2
100
AcDbEntity
  8
Bauseitig_Beton
100
AcDbLine
 10
1204.3
 20
2508.888272625836
 30
0.0
 11
1200.8
 21
2506.888272625836
 31
0.0
  0
ARC
  5
28A
330
2
100
AcDbEntity
  8
Bauseitig_Beton
100
AcDbCircle
 10
1204.3
 20
2506.888272625836
 30
0.0
 40
2.0
100
AcDbArc
 50
270.0
 51
90.0
  0
ARC
  5
28B
330
2
100
AcDbEntity
  8
Bauseitig_Beton
100
AcDbCircle
 10
1200.8
 20
2504.888272625836
 30
0.0
 40
2.0
100
AcDbArc
 50
90.0
 51
270.0
  0
LINE
  5
28C
330
2
100
AcDbEntity
  8
Bauseitig_Beton
100
AcDbLine
 10
1200.8
 20
2506.888272625836
 30
0.0
 11
1204.3
 21
2504.888272625836
 31
0.0
  0
LINE
  5
28D
330
2
100
AcDbEntity
  8
Bauseitig_Beton
100
AcDbLine
 10
1204.3
 20
2504.888272625836
 30
0.0
 11
1200.8
 21
2502.888272625836
 31
0.0
  0
ARC
  5
28E
330
2
100
AcDbEntity
  8
Bauseitig_Beton
100
AcDbCircle
 10
1204.3
 20
2502.888272625836
 30
0.0
 40
2.0
100
AcDbArc
 50
270.0
 51
90.0
  0
ARC
  5
28F
330
2
100
AcDbEntity
  8
Bauseitig_Beton
100
AcDbCircle
 10
1200.8
 20
2500.888272625836
 30
0.0
 40
2.0
100
AcDbArc
 50
90.0
 51
180.0
  0
LINE
  5
290
330
2
100
AcDbEntity
  8
Bauseitig_Beton
100
AcDbLine
 10
1200.8
 20
2502.888272625836
 30
0.0
 11
1204.3
 21
2500.888272625836
 31
0.0
  0
LINE
  5
291
330
2
100
AcDbEntity
  8
Bauseitig_Beton
100
AcDbLine
 10
1204.3
 20
2736.888272625836
 30
0.0
 11
1200.8
 21
2734.888272625836
 31
0.0
  0
ARC
  5
292
330
2
100
AcDbEntity
  8
Bauseitig_Beton
100
AcDbCircle
 10
1204.3
 20
2734.888272625836
 30
0.0
 40
2.0
100
AcDbArc
 50
270.0
 51
90.0
  0
ARC
  5
293
330
2
100
AcDbEntity
  8
Bauseitig_Beton
100
AcDbCircle
 10
1200.8
 20
2732.888272625836
 30
0.0
 40
2.0
100
AcDbArc
 50
90.0
 51
270.0
  0
LINE
  5
294
330
2
100
AcDbEntity
  8
Bauseitig_Beton
100
AcDbLine
 10
1200.8
 20
2734.888272625836
 30
0.0
 11
1204.3
 21
2732.888272625836
 31
0.0
  0
LINE
  5
295
330
2
100
AcDbEntity
  8
Bauseitig_Beton
100
AcDbLine
 10
1204.3
 20
2740.888272625836
 30
0.0
 11
1200.8
 21
2738.888272625836
 31
0.0
  0
ARC
  5
296
330
2
100
AcDbEntity
  8
Bauseitig_Beton
100
AcDbCircle
 10
1204.3
 20
2738.888272625836
 30
0.0
 40
2.0
100
AcDbArc
 50
270.0
 51
90.0
  0
ARC
  5
297
330
2
100
AcDbEntity
  8
Bauseitig_Beton
100
AcDbCircle
 10
1200.8
 20
2736.888272625836
 30
0.0
 40
2.0
100
AcDbArc
 50
90.0
 51
270.0
  0
LINE
  5
298
330
2
100
AcDbEntity
  8
Bauseitig_Beton
100
AcDbLine
 10
1200.8
 20
2738.888272625836
 30
0.0
 11
1204.3
 21
2736.888272625836
 31
0.0
  0
ARC
  5
299
330
2
100
AcDbEntity
  8
Bauseitig_Beton
100
AcDbCircle
 10
1204.3
 20
2742.888272625836
 30
0.0
 40
2.0
100
AcDbArc
 50
270.0
 51
0.1466310502942249
  0
ARC
  5
29A
330
2
100
AcDbEntity
  8
Bauseitig_Beton
100
AcDbCircle
 10
1200.8
 20
2740.888272625836
 30
0.0
 40
2.0
100
AcDbArc
 50
90.0
 51
270.0
  0
LINE
  5
29B
330
2
100
AcDbEntity
  8
Bauseitig_Beton
100
AcDbLine
 10
1200.8
 20
2742.888272625836
 30
0.0
 11
1204.3
 21
2740.888272625836
 31
0.0
  0
LINE
  5
29C
330
2
100
AcDbEntity
  8
Bauseitig_Beton
  6
STRICHPUNKT
100
AcDbLine
 10
183.0452236983151
 20
2632.88618379947
 30
0.0
 11
243.6583892191034
 21
2632.88618379947
 31
0.0
  0
LINE
  5
29E
330
2
100
AcDbEntity
  8
Bauseitig_Beton
 62
     5
100
AcDbLine
 10
193.6899999999996
 20
2678.173391009469
 30
0.0
 11
193.6899999999996
 21
2602.173391009469
 31
0.0
  0
LINE
  5
29F
330
2
100
AcDbEntity
  8
Bauseitig_Beton
 62
     5
100
AcDbLine
 10
196.3299999999994
 20
2678.173391009469
 30
0.0
 11
196.3299999999994
 21
2602.173391009469
 31
0.0
  0
LINE
  5
2A0
330
2
100
AcDbEntity
  8
Bauseitig_Beton
 62
     5
100
AcDbLine
 10
198.7999999999997
 20
2662.905656409006
 30
0.0
 11
191.2999999999997
 21
2655.405656409006
 31
0.0
  0
LINE
  5
2A1
330
2
100
AcDbEntity
  8
Bauseitig_Beton
 62
     5
100
AcDbLine
 10
198.7999999999997
 20
2656.541695389007
 30
0.0
 11
191.2999999999997
 21
2649.041695389006
 31
0.0
  0
LINE
  5
2A2
330
2
100
AcDbEntity
  8
Bauseitig_Beton
 62
     5
100
AcDbLine
 10
198.7999999999997
 20
2650.177734333007
 30
0.0
 11
191.2999999999997
 21
2642.677734333006
 31
0.0
  0
LINE
  5
2A3
330
2
100
AcDbEntity
  8
Bauseitig_Beton
 62
     5
100
AcDbLine
 10
198.7999999999997
 20
2643.813773313006
 30
0.0
 11
191.2999999999997
 21
2636.313773313006
 31
0.0
  0
LINE
  5
2A4
330
2
100
AcDbEntity
  8
Bauseitig_Beton
 62
     5
100
AcDbLine
 10
198.7999999999997
 20
2624.721890224933
 30
0.0
 11
191.2999999999997
 21
2617.221890224934
 31
0.0
  0
LINE
  5
2A5
330
2
100
AcDbEntity
  8
Bauseitig_Beton
 62
     5
100
AcDbLine
 10
198.7999999999997
 20
2618.357929204933
 30
0.0
 11
191.2999999999997
 21
2610.857929204933
 31
0.0
  0
LINE
  5
2A6
330
2
100
AcDbEntity
  8
Bauseitig_Beton
 62
     5
100
AcDbLine
 10
198.7999999999997
 20
2611.993968148933
 30
0.0
 11
191.2999999999997
 21
2604.493968148933
 31
0.0
  0
LINE
  5
2A7
330
2
100
AcDbEntity
  8
Bauseitig_Beton
 62
     5
100
AcDbLine
 10
198.7999999999997
 20
2605.630007128933
 30
0.0
 11
195.3433838805358
 21
2602.173391009469
 31
0.0
  0
LINE
  5
2A8
330
2
100
AcDbEntity
  8
Bauseitig_Beton
 62
     5
100
AcDbLine
 10
194.975851512389
 20
2678.173391009469
 30
0.0
 11
191.2999999999992
 21
2674.497539497079
 31
0.0
  0
LWPOLYLINE
  5
2A9
330
2
100
AcDbEntity
  8
Bauseitig_Beton
 62
     5
100
AcDbPolyline
 90
        4
 70
     1
 43
0.0
 10
191.2999999999997
 20
2678.173391009469
 10
198.7999999999997
 20
2678.173391009469
 10
198.7999999999997
 20
2602.173391009469
 10
191.2999999999997
 20
2602.173391009469
  0
LINE
  5
2AA
330
2
100
AcDbEntity
  8
Bauseitig_Beton
  6
STRICHPUNKT
100
AcDbLine
 10
1214.554776301684
 20
2632.88618379947
 30
0.0
 11
1153.941610780895
 21
2632.88618379947
 31
0.0
  0
LINE
  5
2AB
330
2
100
AcDbEntity
  8
Bauseitig_Beton
 62
     5
100
AcDbLine
 10
1203.909999999999
 20
2678.173391009469
 30
0.0
 11
1203.909999999999
 21
2602.173391009469
 31
0.0
  0
LINE
  5
2AC
330
2
100
AcDbEntity
  8
Bauseitig_Beton
 62
     5
100
AcDbLine
 10
1201.269999999999
 20
2678.173391009469
 30
0.0
 11
1201.269999999999
 21
2602.173391009469
 31
0.0
  0
LINE
  5
2AD
330
2
100
AcDbEntity
  8
Bauseitig_Beton
 62
     5
100
AcDbLine
 10
1198.799999999999
 20
2662.905656409006
 30
0.0
 11
1206.299999999999
 21
2655.405656409006
 31
0.0
  0
LINE
  5
2AE
330
2
100
AcDbEntity
  8
Bauseitig_Beton
 62
     5
100
AcDbLine
 10
1198.799999999999
 20
2656.541695389007
 30
0.0
 11
1206.299999999999
 21
2649.041695389006
 31
0.0
  0
LINE
  5
2AF
330
2
100
AcDbEntity
  8
Bauseitig_Beton
 62
     5
100
AcDbLine
 10
1198.799999999999
 20
2650.177734333006
 30
0.0
 11
1206.299999999999
 21
2642.677734333006
 31
0.0
  0
LINE
  5
2B0
330
2
100
AcDbEntity
  8
Bauseitig_Beton
 62
     5
100
AcDbLine
 10
1198.799999999999
 20
2643.813773313006
 30
0.0
 11
1206.299999999999
 21
2636.313773313006
 31
0.0
  0
LINE
  5
2B1
330
2
100
AcDbEntity
  8
Bauseitig_Beton
 62
     5
100
AcDbLine
 10
1198.799999999999
 20
2624.721890224933
 30
0.0
 11
1206.299999999999
 21
2617.221890224933
 31
0.0
  0
LINE
  5
2B2
330
2
100
AcDbEntity
  8
Bauseitig_Beton
 62
     5
100
AcDbLine
 10
1198.799999999999
 20
2618.357929204933
 30
0.0
 11
1206.299999999999
 21
2610.857929204933
 31
0.0
  0
LINE
  5
2B3
330
2
100
AcDbEntity
  8
Bauseitig_Beton
 62
     5
100
AcDbLine
 10
1198.799999999999
 20
2611.993968148933
 30
0.0
 11
1206.299999999999
 21
2604.493968148933
 31
0.0
  0
LINE
  5
2B4
330
2
100
AcDbEntity
  8
Bauseitig_Beton
 62
     5
100
AcDbLine
 10
1198.799999999999
 20
2605.630007128933
 30
0.0
 11
1202.256616119463
 21
2602.173391009469
 31
0.0
  0
LINE
  5
2B5
330
2
100
AcDbEntity
  8
Bauseitig_Beton
 62
     5
100
AcDbLine
 10
1202.62414848761
 20
2678.173391009469
 30
0.0
 11
1206.299999999999
 21
2674.497539497079
 31
0.0
  0
LWPOLYLINE
  5
2B6
330
2
100
AcDbEntity
  8
Bauseitig_Beton
 62
     5
100
AcDbPolyline
 90
        4
 70
     1
 43
0.0
 10
1206.299999999999
 20
2678.173391009469
 10
1198.799999999999
 20
2678.173391009469
 10
1198.799999999999
 20
2602.173391009469
 10
1206.299999999999
 20
2602.173391009469
  0
LWPOLYLINE
  5
2B7
330
2
100
AcDbEntity
  8
2-t. Schiebtreppe
100
AcDbPolyline
 90
        4
 70
     1
 43
0.0
 10
5.000000000000113
 20
2389.753718797486
 10
239.2687613526283
 20
2389.753718797486
 10
239.2687613526283
 20
2087.0
 10
5.000000000000113
 20
2087.0
  0
LINE
  5
2B8
330
2
100
AcDbEntity
  8
2-t. Schiebtreppe
  6
STRICHPUNKT2
 62
     1
100
AcDbLine
 10
46.36387030734343
 20
2128.457522217646
 30
0.0
 11
45.51233161487958
 21
2128.963886982779
 31
0.0
  0
CIRCLE
  5
2BA
330
2
100
AcDbEntity
  8
2-t. Schiebtreppe
100
AcDbCircle
 10
45.93810096111148
 20
2128.710704600212
 30
0.0
 40
0.2925
  0
LINE
  5
2BB
330
2
100
AcDbEntity
  8
2-t. Schiebtreppe
  6
STRICHPUNKT2
 62
     1
100
AcDbLine
 10
48.28742909713085
 20
2129.931435913298
 30
0.0
 11
47.43589040466611
 21
2130.437800678433
 31
0.0
  0
LINE
  5
2BC
330
2
100
AcDbEntity
  8
2-t. Schiebtreppe
  6
STRICHPUNKT2
 62
     1
100
AcDbLine
 10
48.11484213346583
 20
2130.610387642097
 30
0.0
 11
47.60847736833205
 21
2129.758848949634
 31
0.0
  0
CIRCLE
  5
2BD
330
2
100
AcDbEntity
  8
2-t. Schiebtreppe
100
AcDbCircle
 10
47.86165975089892
 20
2130.184618295865
 30
0.0
 40
0.2925
  0
LINE
  5
2BE
330
2
100
AcDbEntity
  8
2-t. Schiebtreppe
  6
STRICHPUNKT2
 62
     1
100
AcDbLine
 10
46.1912833436784
 20
2129.136473946445
 30
0.0
 11
45.68491857854459
 21
2128.28493525398
 31
0.0
  0
LWPOLYLINE
  5
2BF
330
2
100
AcDbEntity
  8
2-t. Schiebtreppe
100
AcDbPolyline
 90
        6
 70
     1
 43
0.0
 10
40.89605657547825
 20
2110.766925882693
 10
31.63586153261569
 20
2111.69737009061
 10
30.23655226661762
 20
2113.751582771649
 10
153.7923502779885
 20
2321.531724537774
 10
163.0554596809832
 20
2320.600987501306
 10
164.453119952083
 20
2318.549195576216
  0
LWPOLYLINE
  5
2C0
330
2
100
AcDbEntity
  8
2-t. Schiebtreppe
100
AcDbPolyline
 90
        4
 70
     1
 43
0.0
 10
181.8961906783709
 20
2332.336844028291
 10
200.0757830058712
 20
2361.962693452928
 10
196.713537882447
 20
2364.011891827905
 10
178.52095703468
 20
2334.39395855859
  0
LINE
  5
2C1
330
2
100
AcDbEntity
  8
2-t. Schiebtreppe
100
AcDbLine
 10
200.4014480189412
 20
2358.659482242145
 30
0.0
 11
200.4014480189412
 21
2365.409482242145
 31
0.0
  0
CIRCLE
  5
2C2
330
2
100
AcDbEntity
  8
2-t. Schiebtreppe
100
AcDbCircle
 10
197.8139480189407
 20
2362.034482242144
 30
0.0
 40
0.5625
  0
LINE
  5
2C3
330
2
100
AcDbEntity
  8
2-t. Schiebtreppe
100
AcDbLine
 10
200.4014480189412
 20
2358.659482242145
 30
0.0
 11
197.1006200183651
 21
2361.615447615795
 31
0.0
  0
LINE
  5
2C4
330
2
100
AcDbEntity
  8
2-t. Schiebtreppe
100
AcDbLine
 10
197.1006200183651
 20
2362.453516868495
 30
0.0
 11
200.4014480189412
 21
2365.409482242145
 31
0.0
  0
ARC
  5
2C5
330
2
100
AcDbEntity
  8
2-t. Schiebtreppe
100
AcDbCircle
 10
197.4758749076332
 20
2362.034482242145
 30
0.0
 40
0.5625
100
AcDbArc
 50
131.8451571351711
 51
228.1548428648289
  0
LINE
  5
2C6
330
2
100
AcDbEntity
  8
2-t. Schiebtreppe
100
AcDbLine
 10
159.2660035360952
 20
2318.520511941608
 30
0.0
 11
165.0193899192119
 21
2315.099279095239
 31
0.0
  0
LINE
  5
2C7
330
2
100
AcDbEntity
  8
2-t. Schiebtreppe
100
AcDbLine
 10
157.8285107435038
 20
2316.103122705005
 30
0.0
 11
163.5818971266195
 21
2312.681889858636
 31
0.0
  0
LINE
  5
2C8
330
2
100
AcDbEntity
  8
2-t. Schiebtreppe
100
AcDbLine
 10
157.6717273124615
 20
2316.719903829676
 30
0.0
 11
158.6492224114252
 21
2318.363728510566
 31
0.0
  0
ARC
  5
2C9
330
2
100
AcDbEntity
  8
2-t. Schiebtreppe
100
AcDbCircle
 10
170.0056821212993
 20
2310.498101486419
 30
0.0
 40
1.406249999999999
100
AcDbArc
 50
239.2623021544751
 51
59.26230215447536
  0
LINE
  5
2CA
330
2
100
AcDbEntity
  8
2-t. Schiebtreppe
100
AcDbLine
 10
163.295692643038
 20
2311.870423520099
 30
0.0
 11
163.64069091326
 21
2312.450596936884
 31
0.0
  0
LINE
  5
2CB
330
2
100
AcDbEntity
  8
2-t. Schiebtreppe
100
AcDbLine
 10
165.713081879641
 20
2310.432930727507
 30
0.0
 11
166.0580801498629
 21
2311.013104144291
 31
0.0
  0
LINE
  5
2CC
330
2
100
AcDbEntity
  8
2-t. Schiebtreppe
100
AcDbLine
 10
167.7268658642071
 20
2313.489287167535
 30
0.0
 11
170.7244285175955
 21
2311.70679610472
 31
0.0
  0
LINE
  5
2CD
330
2
100
AcDbEntity
  8
2-t. Schiebtreppe
100
AcDbLine
 10
166.2893730716148
 20
2311.071897930932
 30
0.0
 11
169.2869357250031
 21
2309.289406868118
 31
0.0
  0
LINE
  5
2CE
330
2
100
AcDbEntity
  8
2-t. Schiebtreppe
100
AcDbLine
 10
165.2506828409637
 20
2315.158072881879
 30
0.0
 11
165.5956811111856
 21
2315.738246298664
 31
0.0
  0
LINE
  5
2CF
330
2
100
AcDbEntity
  8
2-t. Schiebtreppe
100
AcDbLine
 10
167.6680720775667
 20
2313.720580089287
 30
0.0
 11
168.0130703477886
 21
2314.300753506072
 31
0.0
  0
ARC
  5
2D0
330
2
100
AcDbEntity
  8
2-t. Schiebtreppe
100
AcDbCircle
 10
166.8043757294866
 20
2315.019499902368
 30
0.0
 40
1.406249999999993
100
AcDbArc
 50
329.2623021545115
 51
149.2623021545115
  0
ARC
  5
2D1
330
2
100
AcDbEntity
  8
2-t. Schiebtreppe
100
AcDbCircle
 10
164.50438726134
 20
2311.151677123802
 30
0.0
 40
1.406249999999993
100
AcDbArc
 50
149.2623021545115
 51
329.2623021545115
  0
ARC
  5
2D2
330
2
100
AcDbEntity
  8
2-t. Schiebtreppe
100
AcDbCircle
 10
158.058509590319
 20
2316.489904982862
 30
0.0
 40
0.45
100
AcDbArc
 50
149.2623021545115
 51
239.2623021544751
  0
ARC
  5
2D3
330
2
100
AcDbEntity
  8
2-t. Schiebtreppe
100
AcDbCircle
 10
159.036004689281
 20
2318.133729663752
 30
0.0
 40
0.45
100
AcDbArc
 50
59.26230215447536
 51
149.2623021545115
  0
LINE
  5
2D4
330
2
100
AcDbEntity
  8
2-t. Schiebtreppe
100
AcDbLine
 10
158.8046794099226
 20
2318.27128650267
 30
0.0
 11
157.8271843109598
 21
2316.62746182178
 31
0.0
  0
LINE
  5
2D5
330
2
100
AcDbEntity
  8
2-t. Schiebtreppe
100
AcDbLine
 10
157.9209527513997
 20
2316.258579703503
 30
0.0
 11
163.8297961330128
 21
2312.744904849237
 31
0.0
  0
LINE
  5
2D6
330
2
100
AcDbEntity
  8
2-t. Schiebtreppe
100
AcDbLine
 10
170.6319865096995
 20
2311.551339106223
 30
0.0
 11
167.4789668578138
 21
2313.426272176934
 31
0.0
  0
ARC
  5
2D7
330
2
100
AcDbEntity
  8
2-t. Schiebtreppe
100
AcDbCircle
 10
158.058509590319
 20
2316.489904982862
 30
0.0
 40
0.2691342951089938
100
AcDbArc
 50
149.2623021545115
 51
239.2623021544751
  0
ARC
  5
2D8
330
2
100
AcDbEntity
  8
2-t. Schiebtreppe
100
AcDbCircle
 10
159.036004689281
 20
2318.133729663752
 30
0.0
 40
0.2691342951089938
100
AcDbArc
 50
59.26230215447536
 51
149.2623021545115
  0
LINE
  5
2D9
330
2
100
AcDbEntity
  8
2-t. Schiebtreppe
100
AcDbLine
 10
165.751138109683
 20
2315.645804290768
 30
0.0
 11
165.3136978315642
 21
2314.910173875486
 31
0.0
  0
LINE
  5
2DA
330
2
100
AcDbEntity
  8
2-t. Schiebtreppe
100
AcDbLine
 10
163.8885899196532
 20
2312.513611927485
 30
0.0
 11
163.4511496415353
 21
2311.777981512203
 31
0.0
  0
ARC
  5
2DB
330
2
100
AcDbEntity
  8
2-t. Schiebtreppe
100
AcDbCircle
 10
164.50438726134
 20
2311.151677123802
 30
0.0
 40
1.225384295108991
100
AcDbArc
 50
149.2623021545115
 51
329.2623021545115
  0
ARC
  5
2DC
330
2
100
AcDbEntity
  8
2-t. Schiebtreppe
100
AcDbCircle
 10
166.8043757294866
 20
2315.019499902368
 30
0.0
 40
1.225384295108985
100
AcDbArc
 50
329.2623021545115
 51
149.2623021545115
  0
LINE
  5
2DD
330
2
100
AcDbEntity
  8
2-t. Schiebtreppe
100
AcDbLine
 10
165.9950651592615
 20
2311.261003150685
 30
0.0
 11
165.5576248811436
 21
2310.525372735403
 31
0.0
  0
LINE
  5
2DE
330
2
100
AcDbEntity
  8
2-t. Schiebtreppe
100
AcDbLine
 10
167.8576133492913
 20
2314.393195513968
 30
0.0
 11
167.4201730711735
 21
2313.657565098686
 31
0.0
  0
LINE
  5
2DF
330
2
100
AcDbEntity
  8
2-t. Schiebtreppe
100
AcDbLine
 10
166.2263580810133
 20
2311.319796937326
 30
0.0
 11
169.379377732899
 21
2309.444863866615
 31
0.0
  0
LINE
  5
2E0
330
2
100
AcDbEntity
  8
2-t. Schiebtreppe
100
AcDbLine
 10
165.0824049098134
 20
2314.851380088845
 30
0.0
 11
159.1735615281994
 21
2318.365054943111
 31
0.0
  0
ARC
  5
2E1
330
2
100
AcDbEntity
  8
2-t. Schiebtreppe
100
AcDbCircle
 10
170.0056821212993
 20
2310.498101486419
 30
0.0
 40
1.225384295108993
100
AcDbArc
 50
239.2623021544751
 51
59.26230215447536
  0
CIRCLE
  5
2E2
330
2
100
AcDbEntity
  8
2-t. Schiebtreppe
100
AcDbCircle
 10
164.5043872613399
 20
2311.151677123802
 30
0.0
 40
0.365625
  0
CIRCLE
  5
2E3
330
2
100
AcDbEntity
  8
2-t. Schiebtreppe
100
AcDbCircle
 10
166.8043757294866
 20
2315.019499902368
 30
0.0
 40
0.365625
  0
CIRCLE
  5
2E4
330
2
100
AcDbEntity
  8
2-t. Schiebtreppe
100
AcDbCircle
 10
170.0056821212993
 20
2310.498101486419
 30
0.0
 40
0.365625
  0
LINE
  5
2E5
330
2
100
AcDbEntity
  8
2-t. Schiebtreppe
100
AcDbLine
 10
158.6386830071034
 20
2316.144906712639
 30
0.0
 11
159.6161781060663
 21
2317.788731393529
 31
0.0
  0
ARC
  5
2E6
330
2
100
AcDbEntity
  8
2-t. Schiebtreppe
100
AcDbCircle
 10
158.2519007292469
 20
2316.374905559454
 30
0.0
 40
0.45
100
AcDbArc
 50
239.2623021544751
 51
329.2623021545115
  0
ARC
  5
2E7
330
2
100
AcDbEntity
  8
2-t. Schiebtreppe
100
AcDbCircle
 10
159.2293958282097
 20
2318.018730240344
 30
0.0
 40
0.45
100
AcDbArc
 50
329.2623021545115
 51
59.26230215447536
  0
ARC
  5
2E8
330
2
100
AcDbEntity
  8
2-t. Schiebtreppe
100
AcDbCircle
 10
166.2031235040594
 20
2310.926854576735
 30
0.0
 40
0.16875
100
AcDbArc
 50
59.26230215447536
 51
149.2623021545115
  0
ARC
  5
2E9
330
2
100
AcDbEntity
  8
2-t. Schiebtreppe
100
AcDbCircle
 10
166.1401085134581
 20
2311.174753583129
 30
0.0
 40
0.16875
100
AcDbArc
 50
59.26230215447536
 51
149.2623021545115
  0
ARC
  5
2EA
330
2
100
AcDbEntity
  8
2-t. Schiebtreppe
100
AcDbCircle
 10
167.5652164253691
 20
2313.57131553113
 30
0.0
 40
0.16875
100
AcDbArc
 50
149.2623021545115
 51
239.2623021544751
  0
ARC
  5
2EB
330
2
100
AcDbEntity
  8
2-t. Schiebtreppe
100
AcDbCircle
 10
167.8131154317633
 20
2313.634330521732
 30
0.0
 40
0.16875
100
AcDbArc
 50
149.2623021545115
 51
239.2623021544751
  0
ARC
  5
2EC
330
2
100
AcDbEntity
  8
2-t. Schiebtreppe
100
AcDbCircle
 10
165.1686544773686
 20
2314.996423443041
 30
0.0
 40
0.16875
100
AcDbArc
 50
239.2623021544751
 51
329.2623021545115
  0
ARC
  5
2ED
330
2
100
AcDbEntity
  8
2-t. Schiebtreppe
100
AcDbCircle
 10
165.1056394867671
 20
2315.244322449435
 30
0.0
 40
0.16875
100
AcDbArc
 50
239.2623021544751
 51
329.2623021545115
  0
ARC
  5
2EE
330
2
100
AcDbEntity
  8
2-t. Schiebtreppe
100
AcDbCircle
 10
163.4956475590643
 20
2312.536846504439
 30
0.0
 40
0.16875
100
AcDbArc
 50
329.2623021545115
 51
59.26230215447536
  0
ARC
  5
2EF
330
2
100
AcDbEntity
  8
2-t. Schiebtreppe
100
AcDbCircle
 10
163.7435465654576
 20
2312.599861495041
 30
0.0
 40
0.16875
100
AcDbArc
 50
329.2623021545115
 51
59.26230215447536
  0
LINE
  5
2F0
330
2
100
AcDbEntity
  8
2-t. Schiebtreppe
100
AcDbLine
 10
140.9378128006743
 20
2287.698534093413
 30
0.0
 11
146.6911991837901
 21
2284.277301247044
 31
0.0
  0
LINE
  5
2F1
330
2
100
AcDbEntity
  8
2-t. Schiebtreppe
100
AcDbLine
 10
139.5003200080819
 20
2285.281144856809
 30
0.0
 11
145.2537063911977
 21
2281.85991201044
 31
0.0
  0
LINE
  5
2F2
330
2
100
AcDbEntity
  8
2-t. Schiebtreppe
100
AcDbLine
 10
139.3435365770406
 20
2285.897925981481
 30
0.0
 11
139.5160357121511
 21
2286.188012689873
 31
0.0
  0
LINE
  5
2F3
330
2
100
AcDbEntity
  8
2-t. Schiebtreppe
  6
STRICHPUNKT2
 62
     1
100
AcDbLine
 10
151.1948666147302
 20
2278.864507793538
 30
0.0
 11
152.1601161570247
 21
2280.48773948291
 31
0.0
  0
ARC
  5
2F4
330
2
100
AcDbEntity
  8
2-t. Schiebtreppe
100
AcDbCircle
 10
153.6114027751604
 20
2278.52612940415
 30
0.0
 40
1.406249999999999
100
AcDbArc
 50
239.2623021544751
 51
59.26230215447536
  0
LINE
  5
2F5
330
2
100
AcDbEntity
  8
2-t. Schiebtreppe
100
AcDbLine
 10
144.9675019076162
 20
2281.048445671904
 30
0.0
 11
145.3125001778381
 21
2281.628619088688
 31
0.0
  0
LINE
  5
2F6
330
2
100
AcDbEntity
  8
2-t. Schiebtreppe
100
AcDbLine
 10
147.3848911442192
 20
2279.610952879311
 30
0.0
 11
147.7298894144411
 21
2280.191126296096
 31
0.0
  0
LINE
  5
2F7
330
2
100
AcDbEntity
  8
2-t. Schiebtreppe
100
AcDbLine
 10
149.3986751287853
 20
2282.66730931934
 30
0.0
 11
154.3301491714556
 21
2279.734824022451
 31
0.0
  0
LINE
  5
2F8
330
2
100
AcDbEntity
  8
2-t. Schiebtreppe
100
AcDbLine
 10
147.9611823361929
 20
2280.249920082737
 30
0.0
 11
152.8926563788642
 21
2277.317434785849
 31
0.0
  0
LINE
  5
2F9
330
2
100
AcDbEntity
  8
2-t. Schiebtreppe
100
AcDbLine
 10
146.9224921055419
 20
2284.336095033684
 30
0.0
 11
147.2674903757638
 21
2284.916268450469
 31
0.0
  0
LINE
  5
2FA
330
2
100
AcDbEntity
  8
2-t. Schiebtreppe
100
AcDbLine
 10
149.3398813421449
 20
2282.898602241092
 30
0.0
 11
149.6848796123668
 21
2283.478775657876
 31
0.0
  0
ARC
  5
2FB
330
2
100
AcDbEntity
  8
2-t. Schiebtreppe
100
AcDbCircle
 10
148.4761849940657
 20
2284.197522054173
 30
0.0
 40
1.406249999999993
100
AcDbArc
 50
329.2623021545115
 51
149.2623021545115
  0
ARC
  5
2FC
330
2
100
AcDbEntity
  8
2-t. Schiebtreppe
100
AcDbCircle
 10
146.1761965259172
 20
2280.329699275608
 30
0.0
 40
1.406249999999993
100
AcDbArc
 50
149.2623021545115
 51
329.2623021545115
  0
ARC
  5
2FD
330
2
100
AcDbEntity
  8
2-t. Schiebtreppe
100
AcDbCircle
 10
139.7303188548962
 20
2285.667927134666
 30
0.0
 40
0.45
100
AcDbArc
 50
149.2623021545115
 51
239.2623021544751
  0
ARC
  5
2FE
330
2
100
AcDbEntity
  8
2-t. Schiebtreppe
100
AcDbCircle
 10
140.7078139538591
 20
2287.311751815557
 30
0.0
 40
0.45
100
AcDbArc
 50
59.26230215447536
 51
149.2623021545115
  0
LINE
  5
2FF
330
2
100
AcDbEntity
  8
2-t. Schiebtreppe
100
AcDbLine
 10
140.2895267862323
 20
2285.022272908935
 30
0.0
 11
145.501605397591
 21
2281.922927001041
 31
0.0
  0
LINE
  5
300
330
2
100
AcDbEntity
  8
2-t. Schiebtreppe
100
AcDbLine
 10
154.2377071635597
 20
2279.579367023954
 30
0.0
 11
149.150776122392
 21
2282.604294328738
 31
0.0
  0
LINE
  5
301
330
2
100
AcDbEntity
  8
2-t. Schiebtreppe
100
AcDbLine
 10
147.4229473742612
 20
2284.823826442573
 30
0.0
 11
146.9855070961424
 21
2284.08819602729
 31
0.0
  0
LINE
  5
302
330
2
100
AcDbEntity
  8
2-t. Schiebtreppe
100
AcDbLine
 10
145.5603991842314
 20
2281.69163407929
 30
0.0
 11
145.1229589061135
 21
2280.956003664007
 31
0.0
  0
ARC
  5
303
330
2
100
AcDbEntity
  8
2-t. Schiebtreppe
100
AcDbCircle
 10
146.1761965259172
 20
2280.329699275608
 30
0.0
 40
1.225384295108991
100
AcDbArc
 50
149.2623021545115
 51
329.2623021545115
  0
ARC
  5
304
330
2
100
AcDbEntity
  8
2-t. Schiebtreppe
100
AcDbCircle
 10
148.4761849940657
 20
2284.197522054173
 30
0.0
 40
1.225384295108985
100
AcDbArc
 50
329.2623021545115
 51
149.2623021545115
  0
LINE
  5
305
330
2
100
AcDbEntity
  8
2-t. Schiebtreppe
100
AcDbLine
 10
147.6668744238406
 20
2280.43902530249
 30
0.0
 11
147.2294341457218
 21
2279.703394887207
 31
0.0
  0
LINE
  5
306
330
2
100
AcDbEntity
  8
2-t. Schiebtreppe
100
AcDbLine
 10
149.5294226138694
 20
2283.571217665773
 30
0.0
 11
149.0919823357516
 21
2282.83558725049
 31
0.0
  0
LINE
  5
307
330
2
100
AcDbEntity
  8
2-t. Schiebtreppe
100
AcDbLine
 10
147.8981673455915
 20
2280.49781908913
 30
0.0
 11
152.9850983867601
 21
2277.472891784346
 31
0.0
  0
LINE
  5
308
330
2
100
AcDbEntity
  8
2-t. Schiebtreppe
100
AcDbLine
 10
146.7542141743915
 20
2284.029402240649
 30
0.0
 11
141.5421355630329
 21
2287.128748148544
 31
0.0
  0
ARC
  5
309
330
2
100
AcDbEntity
  8
2-t. Schiebtreppe
100
AcDbCircle
 10
153.6114027751604
 20
2278.52612940415
 30
0.0
 40
1.225384295108993
100
AcDbArc
 50
239.2623021544751
 51
59.26230215447536
  0
LINE
  5
30A
330
2
100
AcDbEntity
  8
2-t. Schiebtreppe
  6
STRICHPUNKT2
 62
     1
100
AcDbLine
 10
146.6958803150331
 20
2281.203636177914
 30
0.0
 11
145.6565127368013
 21
2279.455762373301
 31
0.0
  0
LINE
  5
30B
330
2
100
AcDbEntity
  8
2-t. Schiebtreppe
  6
STRICHPUNKT2
 62
     1
100
AcDbLine
 10
145.3022596236112
 20
2280.849383064723
 30
0.0
 11
147.0501334282241
 21
2279.810015486491
 31
0.0
  0
CIRCLE
  5
30C
330
2
100
AcDbEntity
  8
2-t. Schiebtreppe
100
AcDbCircle
 10
146.1761965259172
 20
2280.329699275608
 30
0.0
 40
0.365625
  0
CIRCLE
  5
30D
330
2
100
AcDbEntity
  8
2-t. Schiebtreppe
100
AcDbCircle
 10
148.4761849940657
 20
2284.197522054173
 30
0.0
 40
0.365625
  0
CIRCLE
  5
30E
330
2
100
AcDbEntity
  8
2-t. Schiebtreppe
100
AcDbCircle
 10
151.6774913858774
 20
2279.676123638223
 30
0.0
 40
0.365625
  0
LINE
  5
30F
330
2
100
AcDbEntity
  8
2-t. Schiebtreppe
100
AcDbLine
 10
140.5038834106094
 20
2285.207929441037
 30
0.0
 11
140.8488816808313
 21
2285.788102857821
 31
0.0
  0
ARC
  5
310
330
2
100
AcDbEntity
  8
2-t. Schiebtreppe
100
AcDbCircle
 10
140.1171011327529
 20
2285.437928287851
 30
0.0
 40
0.45
100
AcDbArc
 50
239.2623021544751
 51
329.2623021545115
  0
ARC
  5
311
330
2
100
AcDbEntity
  8
2-t. Schiebtreppe
100
AcDbCircle
 10
141.0945962317157
 20
2287.081752968742
 30
0.0
 40
0.45
100
AcDbArc
 50
329.2623021545115
 51
59.26230215447536
  0
LINE
  5
312
330
2
100
AcDbEntity
  8
2-t. Schiebtreppe
  6
STRICHPUNKT2
 62
     1
100
AcDbLine
 10
150.8550345747312
 20
2280.165194955469
 30
0.0
 11
152.4999481970236
 21
2279.187052320978
 31
0.0
  0
LINE
  5
313
330
2
100
AcDbEntity
  8
2-t. Schiebtreppe
100
AcDbLine
 10
140.8153841051748
 20
2285.808022084253
 30
0.0
 11
144.110130020951
 21
2283.848811943148
 31
0.0
  0
LINE
  5
314
330
2
100
AcDbEntity
  8
2-t. Schiebtreppe
100
AcDbLine
 10
141.1028826636929
 20
2286.291499931573
 30
0.0
 11
144.39762857947
 21
2284.332289790468
 31
0.0
  0
ARC
  5
315
330
2
100
AcDbEntity
  8
2-t. Schiebtreppe
100
AcDbCircle
 10
144.0238804533957
 20
2283.703768588951
 30
0.0
 40
0.16875
100
AcDbArc
 50
1.193020065791573
 51
59.26230215447536
  0
ARC
  5
316
330
2
100
AcDbEntity
  8
2-t. Schiebtreppe
100
AcDbCircle
 10
144.4838781470252
 20
2284.477333144665
 30
0.0
 40
0.16875
100
AcDbArc
 50
239.2623021544751
 51
297.3315842431562
  0
LINE
  5
317
330
2
100
AcDbEntity
  8
2-t. Schiebtreppe
100
AcDbLine
 10
137.4370809686725
 20
2287.424256491502
 30
0.0
 11
140.4829914067921
 21
2285.613015572836
 31
0.0
  0
LINE
  5
318
330
2
100
AcDbEntity
  8
2-t. Schiebtreppe
100
AcDbLine
 10
137.8382848756616
 20
2288.429113968967
 30
0.0
 11
137.3782871820321
 21
2287.655549413254
 31
0.0
  0
LINE
  5
319
330
2
100
AcDbEntity
  8
2-t. Schiebtreppe
100
AcDbLine
 10
137.8529833223214
 20
2288.371290738529
 30
0.0
 11
137.4361104124696
 21
2287.670247859915
 31
0.0
  0
LINE
  5
31A
330
2
100
AcDbEntity
  8
2-t. Schiebtreppe
100
AcDbLine
 10
138.0695777974125
 20
2288.487907755609
 30
0.0
 11
141.115488235533
 21
2286.676666836942
 31
0.0
  0
LINE
  5
31B
330
2
100
AcDbEntity
  8
2-t. Schiebtreppe
100
AcDbLine
 10
138.0842762440733
 20
2288.43008452517
 30
0.0
 11
141.0576650050946
 21
2286.661968390282
 31
0.0
  0
ARC
  5
31C
330
2
100
AcDbEntity
  8
2-t. Schiebtreppe
100
AcDbCircle
 10
137.998026676518
 20
2288.285041170974
 30
0.0
 40
0.16875
100
AcDbArc
 50
59.26230215447536
 51
149.2623021545115
  0
ARC
  5
31D
330
2
100
AcDbEntity
  8
2-t. Schiebtreppe
100
AcDbCircle
 10
137.9833282298573
 20
2288.342864401412
 30
0.0
 40
0.16875
100
AcDbArc
 50
59.26230215447536
 51
149.2623021545115
  0
ARC
  5
31E
330
2
100
AcDbEntity
  8
2-t. Schiebtreppe
100
AcDbCircle
 10
137.5233305362277
 20
2287.569299845699
 30
0.0
 40
0.16875
100
AcDbArc
 50
149.2623021545115
 51
239.2623021544751
  0
ARC
  5
31F
330
2
100
AcDbEntity
  8
2-t. Schiebtreppe
100
AcDbCircle
 10
137.5811537666661
 20
2287.58399829236
 30
0.0
 40
0.16875
100
AcDbArc
 50
149.2623021545115
 51
239.2623021544751
  0
LINE
  5
320
330
2
100
AcDbEntity
  8
2-t. Schiebtreppe
100
AcDbLine
 10
137.4949041991109
 20
2287.438954938163
 30
0.0
 11
140.4682929601322
 21
2285.670838803274
 31
0.0
  0
LINE
  5
321
330
2
100
AcDbEntity
  8
2-t. Schiebtreppe
100
AcDbLine
 10
140.3406296048832
 20
2287.464653021787
 30
0.0
 11
140.1968803256233
 21
2287.222914098127
 31
0.0
  0
LINE
  5
322
330
2
100
AcDbEntity
  8
2-t. Schiebtreppe
100
AcDbLine
 10
141.2474974379463
 20
2287.448937317718
 30
0.0
 11
140.9574107295541
 21
2287.621436452829
 31
0.0
  0
ARC
  5
323
330
2
100
AcDbEntity
  8
2-t. Schiebtreppe
100
AcDbCircle
 10
139.8074164954808
 20
2285.687525063546
 30
0.0
 40
0.45
100
AcDbArc
 50
149.2623021545115
 51
239.2623021544751
  0
ARC
  5
324
330
2
100
AcDbEntity
  8
2-t. Schiebtreppe
100
AcDbCircle
 10
140.7274118827398
 20
2287.234654174973
 30
0.0
 40
0.45
100
AcDbArc
 50
59.26230215447536
 51
149.2623021545115
  0
ARC
  5
325
330
2
100
AcDbEntity
  8
2-t. Schiebtreppe
100
AcDbCircle
 10
141.0174985911321
 20
2287.062155039861
 30
0.0
 40
0.45
100
AcDbArc
 50
329.2623021545115
 51
59.26230215447536
  0
ARC
  5
326
330
2
100
AcDbEntity
  8
2-t. Schiebtreppe
100
AcDbCircle
 10
140.097503203873
 20
2285.515025928435
 30
0.0
 40
0.45
100
AcDbArc
 50
239.2623021544751
 51
329.2623021545115
  0
LINE
  5
327
330
2
100
AcDbEntity
  8
2-t. Schiebtreppe
100
AcDbLine
 10
141.4042808689886
 20
2286.832156193046
 30
0.0
 11
141.1742820221734
 21
2286.44537391519
 31
0.0
  0
LINE
  5
328
330
2
100
AcDbEntity
  8
2-t. Schiebtreppe
100
AcDbLine
 10
141.1363802393504
 20
2286.271580705142
 30
0.0
 11
141.4813785095723
 21
2286.851754121927
 31
0.0
  0
LINE
  5
329
330
2
100
AcDbEntity
  8
2-t. Schiebtreppe
100
AcDbLine
 10
139.8675043570578
 20
2285.128243650579
 30
0.0
 11
139.5774176486656
 21
2285.30074278569
 31
0.0
  0
LINE
  5
32A
330
2
100
AcDbEntity
  8
2-t. Schiebtreppe
100
AcDbLine
 10
139.5643834968832
 20
2286.159262834022
 30
0.0
 11
139.4206342176242
 21
2285.917523910362
 31
0.0
  0
LINE
  5
32B
330
2
100
AcDbEntity
  8
2-t. Schiebtreppe
100
AcDbLine
 10
140.148532540892
 20
2287.251663953979
 30
0.0
 11
140.3210316760025
 21
2287.541750662371
 31
0.0
  0
LINE
  5
32C
330
2
100
AcDbEntity
  8
2-t. Schiebtreppe
100
AcDbLine
 10
141.1164587917359
 20
2286.43067546853
 30
0.0
 11
140.699585881884
 21
2285.729632589915
 31
0.0
  0
ARC
  5
32D
330
2
100
AcDbEntity
  8
2-t. Schiebtreppe
100
AcDbCircle
 10
140.5545425276875
 20
2285.815882157471
 30
0.0
 40
0.16875
100
AcDbArc
 50
239.2623021544751
 51
329.2623021545115
  0
ARC
  5
32E
330
2
100
AcDbEntity
  8
2-t. Schiebtreppe
100
AcDbCircle
 10
140.9714154375394
 20
2286.516925036085
 30
0.0
 40
0.16875
100
AcDbArc
 50
329.2623021545115
 51
59.26230215447536
  0
LINE
  5
32F
330
2
100
AcDbEntity
  8
2-t. Schiebtreppe
100
AcDbLine
 10
140.7142843285439
 20
2285.671809359477
 30
0.0
 11
140.4842854817296
 21
2285.28502708162
 31
0.0
  0
ARC
  5
330
330
2
100
AcDbEntity
  8
2-t. Schiebtreppe
100
AcDbCircle
 10
140.7866342493224
 20
2285.759674299521
 30
0.0
 40
0.05625
100
AcDbArc
 50
59.26230215447536
 51
113.0810835525117
  0
ARC
  5
331
330
2
100
AcDbEntity
  8
2-t. Schiebtreppe
100
AcDbCircle
 10
141.1316325195452
 20
2286.339847716305
 30
0.0
 40
0.05625
100
AcDbArc
 50
185.4435207564204
 51
239.2623021544751
  0
ARC
  5
332
330
2
100
AcDbEntity
  8
2-t. Schiebtreppe
100
AcDbCircle
 10
141.0292386679778
 20
2286.531623482746
 30
0.0
 40
0.16875
100
AcDbArc
 50
329.2623021545115
 51
59.26230215447536
  0
ARC
  5
333
330
2
100
AcDbEntity
  8
2-t. Schiebtreppe
100
AcDbCircle
 10
140.5692409743483
 20
2285.758058927033
 30
0.0
 40
0.16875
100
AcDbArc
 50
239.2623021544751
 51
329.2623021545115
  0
ARC
  5
334
330
2
100
AcDbEntity
  8
2-t. Schiebtreppe
100
AcDbCircle
 10
145.1674568236415
 20
2281.714868656244
 30
0.0
 40
0.16875
100
AcDbArc
 50
329.2623021545115
 51
59.26230215447536
  0
ARC
  5
335
330
2
100
AcDbEntity
  8
2-t. Schiebtreppe
100
AcDbCircle
 10
145.4153558300357
 20
2281.777883646845
 30
0.0
 40
0.16875
100
AcDbArc
 50
329.2623021545115
 51
59.26230215447536
  0
ARC
  5
336
330
2
100
AcDbEntity
  8
2-t. Schiebtreppe
100
AcDbCircle
 10
146.8404637419467
 20
2284.174445594846
 30
0.0
 40
0.16875
100
AcDbArc
 50
239.2623021544751
 51
329.2623021545115
  0
ARC
  5
337
330
2
100
AcDbEntity
  8
2-t. Schiebtreppe
100
AcDbCircle
 10
146.7774487513453
 20
2284.422344601239
 30
0.0
 40
0.16875
100
AcDbArc
 50
239.2623021544751
 51
329.2623021545115
  0
ARC
  5
338
330
2
100
AcDbEntity
  8
2-t. Schiebtreppe
100
AcDbCircle
 10
149.2370256899472
 20
2282.749337682935
 30
0.0
 40
0.16875
100
AcDbArc
 50
149.2623021545115
 51
239.2623021544751
  0
ARC
  5
339
330
2
100
AcDbEntity
  8
2-t. Schiebtreppe
100
AcDbCircle
 10
149.4849246963405
 20
2282.812352673536
 30
0.0
 40
0.16875
100
AcDbArc
 50
149.2623021545115
 51
239.2623021544751
  0
ARC
  5
33A
330
2
100
AcDbEntity
  8
2-t. Schiebtreppe
100
AcDbCircle
 10
147.8119177780363
 20
2280.352775734934
 30
0.0
 40
0.16875
100
AcDbArc
 50
59.26230215447536
 51
149.2623021545115
  0
ARC
  5
33B
330
2
100
AcDbEntity
  8
2-t. Schiebtreppe
100
AcDbCircle
 10
147.8749327686376
 20
2280.10487672854
 30
0.0
 40
0.16875
100
AcDbArc
 50
59.26230215447536
 51
149.2623021545115
  0
LINE
  5
33C
330
2
100
AcDbEntity
  8
2-t. Schiebtreppe
  6
STRICHPUNKT2
 62
     1
100
AcDbLine
 10
148.9958687831817
 20
2285.071458956479
 30
0.0
 11
147.9565012049498
 21
2283.323585151866
 31
0.0
  0
LINE
  5
33D
330
2
100
AcDbEntity
  8
2-t. Schiebtreppe
  6
STRICHPUNKT2
 62
     1
100
AcDbLine
 10
147.6022480917588
 20
2284.717205843289
 30
0.0
 11
149.3501218963717
 21
2283.677838265056
 31
0.0
  0
CIRCLE
  5
33E
330
2
100
AcDbEntity
  8
2-t. Schiebtreppe
100
AcDbCircle
 10
153.6114027751604
 20
2278.52612940415
 30
0.0
 40
0.5624999999999864
  0
LINE
  5
33F
330
2
100
AcDbEntity
  8
2-t. Schiebtreppe
  6
STRICHPUNKT2
 62
     1
100
AcDbLine
 10
167.3240595186026
 20
2315.893436804674
 30
0.0
 11
166.2846919403716
 21
2314.145563000061
 31
0.0
  0
LINE
  5
340
330
2
100
AcDbEntity
  8
2-t. Schiebtreppe
  6
STRICHPUNKT2
 62
     1
100
AcDbLine
 10
165.9304388271807
 20
2315.539183691484
 30
0.0
 11
167.6783126317936
 21
2314.499816113252
 31
0.0
  0
LINE
  5
341
330
2
100
AcDbEntity
  8
2-t. Schiebtreppe
  6
STRICHPUNKT2
 62
     1
100
AcDbLine
 10
165.024071050455
 20
2312.025614026109
 30
0.0
 11
163.9847034722241
 21
2310.277740221496
 31
0.0
  0
LINE
  5
342
330
2
100
AcDbEntity
  8
2-t. Schiebtreppe
  6
STRICHPUNKT2
 62
     1
100
AcDbLine
 10
163.6304503590331
 20
2311.671360912919
 30
0.0
 11
165.378324163646
 21
2310.631993334687
 31
0.0
  0
LINE
  5
343
330
2
100
AcDbEntity
  8
2-t. Schiebtreppe
  6
STRICHPUNKT2
 62
     1
100
AcDbLine
 10
170.5253659104152
 20
2311.372038388725
 30
0.0
 11
169.4859983321834
 21
2309.624164584112
 31
0.0
  0
LINE
  5
344
330
2
100
AcDbEntity
  8
2-t. Schiebtreppe
  6
STRICHPUNKT2
 62
     1
100
AcDbLine
 10
169.1317452189933
 20
2311.017785275535
 30
0.0
 11
170.8796190236052
 21
2309.978417697303
 31
0.0
  0
LINE
  5
345
330
2
100
AcDbEntity
  8
2-t. Schiebtreppe
  6
STRICHPUNKT2
 62
     1
100
AcDbLine
 10
162.7865591597674
 20
2302.65074717078
 30
0.0
 11
161.723514828849
 21
2303.282883088639
 31
0.0
  0
CIRCLE
  5
346
330
2
100
AcDbEntity
  8
2-t. Schiebtreppe
100
AcDbCircle
 10
162.2550369943087
 20
2302.966815129709
 30
0.0
 40
0.3487499999999999
  0
CIRCLE
  5
347
330
2
100
AcDbEntity
  8
2-t. Schiebtreppe
100
AcDbCircle
 10
159.3541699103847
 20
2304.691806480819
 30
0.0
 40
0.3487499999999999
  0
LINE
  5
348
330
2
100
AcDbEntity
  8
2-t. Schiebtreppe
  6
STRICHPUNKT2
 62
     1
100
AcDbLine
 10
162.5711049532379
 20
2303.498337295168
 30
0.0
 11
161.9389690353794
 21
2302.43529296425
 31
0.0
  0
LINE
  5
349
330
2
100
AcDbEntity
  8
2-t. Schiebtreppe
  6
STRICHPUNKT2
 62
     1
100
AcDbLine
 10
159.6702378693139
 20
2305.223328646279
 30
0.0
 11
159.0381019514554
 21
2304.160284315361
 31
0.0
  0
LINE
  5
34A
330
2
100
AcDbEntity
  8
2-t. Schiebtreppe
  6
STRICHPUNKT2
 62
     1
100
AcDbLine
 10
159.8856920758435
 20
2304.375738521891
 30
0.0
 11
158.822647744925
 21
2305.007874439749
 31
0.0
  0
LINE
  5
34B
330
2
100
AcDbEntity
  8
2-t. Schiebtreppe
  6
STRICHPUNKT2
 62
     1
100
AcDbLine
 10
178.807852129197
 20
2340.112381072023
 30
0.0
 11
179.8315427223285
 21
2339.503646728712
 31
0.0
  0
CIRCLE
  5
34C
330
2
100
AcDbEntity
  8
2-t. Schiebtreppe
100
AcDbCircle
 10
179.3196974257606
 20
2339.808013900369
 30
0.0
 40
0.3487499999999999
  0
LINE
  5
34D
330
2
100
AcDbEntity
  8
2-t. Schiebtreppe
  6
STRICHPUNKT2
 62
     1
100
AcDbLine
 10
182.192197060441
 20
2338.099891162395
 30
0.0
 11
183.2158876535726
 21
2337.491156819083
 31
0.0
  0
CIRCLE
  5
34E
330
2
100
AcDbEntity
  8
2-t. Schiebtreppe
100
AcDbCircle
 10
182.7040423570055
 20
2337.79552399074
 30
0.0
 40
0.3487499999999999
  0
LINE
  5
34F
330
2
100
AcDbEntity
  8
2-t. Schiebtreppe
  6
STRICHPUNKT2
 62
     1
100
AcDbLine
 10
183.0084095286618
 20
2338.307369287307
 30
0.0
 11
182.3996751853492
 21
2337.283678694172
 31
0.0
  0
LINE
  5
350
330
2
100
AcDbEntity
  8
2-t. Schiebtreppe
  6
STRICHPUNKT2
 62
     1
100
AcDbLine
 10
179.6240645974178
 20
2340.319859196936
 30
0.0
 11
179.0153302541043
 21
2339.296168603802
 31
0.0
  0
CIRCLE
  5
351
330
2
100
AcDbEntity
  8
2-t. Schiebtreppe
100
AcDbCircle
 10
183.0571786865005
 20
2346.093225915537
 30
0.0
 40
0.3487499999999999
  0
LINE
  5
352
330
2
100
AcDbEntity
  8
2-t. Schiebtreppe
  6
STRICHPUNKT2
 62
     1
100
AcDbLine
 10
182.545333389937
 20
2346.397593087192
 30
0.0
 11
183.5690239830686
 21
2345.78885874388
 31
0.0
  0
LINE
  5
353
330
2
100
AcDbEntity
  8
2-t. Schiebtreppe
  6
STRICHPUNKT2
 62
     1
100
AcDbLine
 10
183.3615458581577
 20
2346.605071212104
 30
0.0
 11
182.7528115148443
 21
2345.58138061897
 31
0.0
  0
LINE
  5
354
330
2
100
AcDbEntity
  8
2-t. Schiebtreppe
  6
STRICHPUNKT2
 62
     1
100
AcDbLine
 10
191.3064161647987
 20
2350.611749624988
 30
0.0
 11
190.2433718338802
 21
2351.243885542847
 31
0.0
  0
CIRCLE
  5
355
330
2
100
AcDbEntity
  8
2-t. Schiebtreppe
100
AcDbCircle
 10
194.2083873945932
 20
2351.639296787782
 30
0.0
 40
0.3487499999999999
  0
LINE
  5
356
330
2
100
AcDbEntity
  8
2-t. Schiebtreppe
  6
STRICHPUNKT2
 62
     1
100
AcDbLine
 10
194.5127545662495
 20
2352.15114208435
 30
0.0
 11
193.9040202229361
 21
2351.127451491215
 31
0.0
  0
LINE
  5
357
330
2
100
AcDbEntity
  8
2-t. Schiebtreppe
  6
STRICHPUNKT2
 62
     1
100
AcDbLine
 10
193.6965420980287
 20
2351.943663959437
 30
0.0
 11
194.7202326911603
 21
2351.334929616125
 31
0.0
  0
LINE
  5
358
330
2
100
AcDbEntity
  8
2-t. Schiebtreppe
  6
STRICHPUNKT2
 62
     1
100
AcDbLine
 10
188.1900948743443
 20
2353.184331100488
 30
0.0
 11
187.5579589564867
 21
2352.121286769569
 31
0.0
  0
LINE
  5
359
330
2
100
AcDbEntity
  8
2-t. Schiebtreppe
  6
STRICHPUNKT2
 62
     1
100
AcDbLine
 10
191.0909619582683
 20
2351.459339749377
 30
0.0
 11
190.4588260404098
 21
2350.396295418459
 31
0.0
  0
CIRCLE
  5
35A
330
2
100
AcDbEntity
  8
2-t. Schiebtreppe
100
AcDbCircle
 10
187.874026915416
 20
2352.652808935029
 30
0.0
 40
0.3487499999999999
  0
CIRCLE
  5
35B
330
2
100
AcDbEntity
  8
2-t. Schiebtreppe
100
AcDbCircle
 10
190.774893999339
 20
2350.927817583918
 30
0.0
 40
0.3487499999999999
  0
LINE
  5
35C
330
2
100
AcDbEntity
  8
2-t. Schiebtreppe
  6
STRICHPUNKT2
 62
     1
100
AcDbLine
 10
188.4055490808748
 20
2352.336740976099
 30
0.0
 11
187.3425047499563
 21
2352.968876893958
 31
0.0
  0
LINE
  5
35D
330
2
100
AcDbEntity
  8
2-t. Schiebtreppe
  6
STRICHPUNKT2
 62
     1
100
AcDbLine
 10
164.8204552202692
 20
2311.683199289262
 30
0.0
 11
164.1883193024098
 21
2310.620154958343
 31
0.0
  0
CIRCLE
  5
35E
330
2
100
AcDbEntity
  8
2-t. Schiebtreppe
100
AcDbCircle
 10
164.50438726134
 20
2311.151677123802
 30
0.0
 40
0.3487499999999999
  0
LINE
  5
35F
330
2
100
AcDbEntity
  8
2-t. Schiebtreppe
  6
STRICHPUNKT2
 62
     1
100
AcDbLine
 10
165.0359094267987
 20
2310.835609164873
 30
0.0
 11
163.9728650958802
 21
2311.467745082731
 31
0.0
  0
CIRCLE
  5
360
330
2
100
AcDbEntity
  8
2-t. Schiebtreppe
100
AcDbCircle
 10
166.8043757294866
 20
2315.019499902368
 30
0.0
 40
0.3487499999999999
  0
LINE
  5
361
330
2
100
AcDbEntity
  8
2-t. Schiebtreppe
  6
STRICHPUNKT2
 62
     1
100
AcDbLine
 10
167.1204436884159
 20
2315.551022067827
 30
0.0
 11
166.4883077705574
 21
2314.487977736908
 31
0.0
  0
LINE
  5
362
330
2
100
AcDbEntity
  8
2-t. Schiebtreppe
  6
STRICHPUNKT2
 62
     1
100
AcDbLine
 10
167.3358978949464
 20
2314.703431943438
 30
0.0
 11
166.2728535640279
 21
2315.335567861297
 31
0.0
  0
LINE
  5
363
330
2
100
AcDbEntity
  8
2-t. Schiebtreppe
  6
STRICHPUNKT2
 62
     1
100
AcDbLine
 10
170.3217500802285
 20
2311.029623651879
 30
0.0
 11
169.68961416237
 21
2309.96657932096
 31
0.0
  0
LINE
  5
364
330
2
100
AcDbEntity
  8
2-t. Schiebtreppe
  6
STRICHPUNKT2
 62
     1
100
AcDbLine
 10
170.7305954256868
 20
2310.067034104083
 30
0.0
 11
169.2807688169118
 21
2310.929168868756
 31
0.0
  0
CIRCLE
  5
365
330
2
100
AcDbEntity
  8
2-t. Schiebtreppe
100
AcDbCircle
 10
170.0056821212993
 20
2310.498101486419
 30
0.0
 40
0.3487499999999999
  0
LINE
  5
366
330
2
100
AcDbEntity
  8
2-t. Schiebtreppe
  6
STRICHPUNKT2
 62
     1
100
AcDbLine
 10
151.9935593448066
 20
2280.207645803683
 30
0.0
 11
151.3614234269482
 21
2279.144601472764
 31
0.0
  0
LINE
  5
367
330
2
100
AcDbEntity
  8
2-t. Schiebtreppe
  6
STRICHPUNKT2
 62
     1
100
AcDbLine
 10
146.4922644848465
 20
2280.861221441067
 30
0.0
 11
145.8601285669889
 21
2279.798177110148
 31
0.0
  0
CIRCLE
  5
368
330
2
100
AcDbEntity
  8
2-t. Schiebtreppe
100
AcDbCircle
 10
146.1761965259172
 20
2280.329699275608
 30
0.0
 40
0.3487499999999999
  0
LINE
  5
369
330
2
100
AcDbEntity
  8
2-t. Schiebtreppe
  6
STRICHPUNKT2
 62
     1
100
AcDbLine
 10
146.7077186913769
 20
2280.013631316678
 30
0.0
 11
145.6446743604584
 21
2280.645767234537
 31
0.0
  0
CIRCLE
  5
36A
330
2
100
AcDbEntity
  8
2-t. Schiebtreppe
100
AcDbCircle
 10
151.6774913858774
 20
2279.676123638223
 30
0.0
 40
0.3487499999999999
  0
LINE
  5
36B
330
2
100
AcDbEntity
  8
2-t. Schiebtreppe
  6
STRICHPUNKT2
 62
     1
100
AcDbLine
 10
152.402404690265
 20
2279.245056255888
 30
0.0
 11
150.9525780814898
 21
2280.10719102056
 31
0.0
  0
LINE
  5
36C
330
2
100
AcDbEntity
  8
2-t. Schiebtreppe
  6
STRICHPUNKT2
 62
     1
100
AcDbLine
 10
148.7922529529941
 20
2284.729044219632
 30
0.0
 11
148.1601170351365
 21
2283.665999888713
 31
0.0
  0
CIRCLE
  5
36D
330
2
100
AcDbEntity
  8
2-t. Schiebtreppe
100
AcDbCircle
 10
148.4761849940657
 20
2284.197522054173
 30
0.0
 40
0.3487499999999999
  0
LINE
  5
36E
330
2
100
AcDbEntity
  8
2-t. Schiebtreppe
  6
STRICHPUNKT2
 62
     1
100
AcDbLine
 10
149.0077071595245
 20
2283.881454095243
 30
0.0
 11
147.944662828606
 21
2284.513590013102
 31
0.0
  0
LWPOLYLINE
  5
36F
330
2
100
AcDbEntity
  8
2-t. Schiebtreppe
100
AcDbPolyline
 90
        5
 70
     1
 43
0.0
 10
188.3536136253514
 20
2358.741950943757
 10
140.5526262788137
 20
2278.356440208676
 10
141.9519355448117
 20
2276.302227527637
 10
151.2121305876743
 20
2275.371783319721
 10
200.0868855358121
 20
2357.56301736423
  0
LINE
  5
370
330
2
100
AcDbEntity
  8
2-t. Schiebtreppe
100
AcDbLine
 10
154.2128337022628
 20
2274.316133906536
 30
0.0
 11
157.5208939667285
 21
2280.199945365673
 31
0.0
  0
CIRCLE
  5
371
330
2
100
AcDbEntity
  8
2-t. Schiebtreppe
100
AcDbCircle
 10
153.6114027751604
 20
2278.52612940415
 30
0.0
 40
0.5624999999999999
  0
LINE
  5
372
330
2
100
AcDbEntity
  8
2-t. Schiebtreppe
100
AcDbLine
 10
154.2128337022628
 20
2274.316133906536
 30
0.0
 11
152.7842502920819
 21
2278.510457000883
 31
0.0
  0
LINE
  5
373
330
2
100
AcDbEntity
  8
2-t. Schiebtreppe
100
AcDbLine
 10
153.1949737874485
 20
2279.240981663487
 30
0.0
 11
157.5208939667285
 21
2280.199945365673
 31
0.0
  0
ARC
  5
374
330
2
100
AcDbEntity
  8
2-t. Schiebtreppe
100
AcDbCircle
 10
153.3167126349608
 20
2278.691813289484
 30
0.0
 40
0.5624999999999999
100
AcDbArc
 50
102.4991199248093
 51
198.8088056543595
  0
LINE
  5
375
330
2
100
AcDbEntity
  8
2-t. Schiebtreppe
  6
STRICHPUNKT
100
AcDbLine
 10
116.7513981920134
 20
2355.468480883423
 30
0.0
 11
116.7513981920134
 21
2352.848861978616
 31
0.0
  0
LINE
  5
376
330
2
100
AcDbEntity
  8
2-t. Schiebtreppe
  6
STRICHPUNKT
100
AcDbLine
 10
115.4415887396103
 20
2354.15867143102
 30
0.0
 11
118.0612076444166
 21
2354.15867143102
 31
0.0
  0
CIRCLE
  5
377
330
2
100
AcDbEntity
  8
2-t. Schiebtreppe
100
AcDbCircle
 10
116.7513981920134
 20
2354.15867143102
 30
0.0
 40
0.421875
  0
LINE
  5
378
330
2
100
AcDbEntity
  8
2-t. Schiebtreppe
  6
STRICHPUNKT
100
AcDbLine
 10
94.67903568500151
 20
2354.15867143102
 30
0.0
 11
101.4980168060901
 21
2354.15867143102
 31
0.0
  0
LINE
  5
379
330
2
100
AcDbEntity
  8
2-t. Schiebtreppe
100
AcDbLine
 10
95.87657301894102
 20
2359.253482242145
 30
0.0
 11
95.87657301894102
 21
2350.703482242145
 31
0.0
  0
LINE
  5
37A
330
2
100
AcDbEntity
  8
2-t. Schiebtreppe
100
AcDbLine
 10
96.17357301894116
 20
2359.253482242145
 30
0.0
 11
96.17357301894116
 21
2350.703482242145
 31
0.0
  0
LINE
  5
37B
330
2
100
AcDbEntity
  8
2-t. Schiebtreppe
100
AcDbLine
 10
96.45144801894105
 20
2357.535862099592
 30
0.0
 11
95.60769801894105
 21
2356.692112099592
 31
0.0
  0
LINE
  5
37C
330
2
100
AcDbEntity
  8
2-t. Schiebtreppe
100
AcDbLine
 10
96.45144801894105
 20
2356.819916484842
 30
0.0
 11
95.60769801894105
 21
2355.976166484842
 31
0.0
  0
LINE
  5
37D
330
2
100
AcDbEntity
  8
2-t. Schiebtreppe
100
AcDbLine
 10
96.45144801894105
 20
2356.103970866042
 30
0.0
 11
95.60769801894105
 21
2355.260220866043
 31
0.0
  0
LINE
  5
37E
330
2
100
AcDbEntity
  8
2-t. Schiebtreppe
100
AcDbLine
 10
96.45144801894105
 20
2355.388025251292
 30
0.0
 11
95.60769801894105
 21
2354.544275251292
 31
0.0
  0
LINE
  5
37F
330
2
100
AcDbEntity
  8
2-t. Schiebtreppe
100
AcDbLine
 10
96.45144801894105
 20
2353.240188403884
 30
0.0
 11
95.60769801894105
 21
2352.396438403884
 31
0.0
  0
LINE
  5
380
330
2
100
AcDbEntity
  8
2-t. Schiebtreppe
100
AcDbLine
 10
96.45144801894105
 20
2352.524242789134
 30
0.0
 11
95.60769801894105
 21
2351.680492789134
 31
0.0
  0
LINE
  5
381
330
2
100
AcDbEntity
  8
2-t. Schiebtreppe
100
AcDbLine
 10
96.45144801894105
 20
2351.808297170334
 30
0.0
 11
95.60769801894105
 21
2350.964547170335
 31
0.0
  0
LINE
  5
382
330
2
100
AcDbEntity
  8
2-t. Schiebtreppe
100
AcDbLine
 10
96.45144801894105
 20
2351.092351555584
 30
0.0
 11
96.06257870550145
 21
2350.703482242145
 31
0.0
  0
LINE
  5
383
330
2
100
AcDbEntity
  8
2-t. Schiebtreppe
100
AcDbLine
 10
96.02123131408484
 20
2359.253482242145
 30
0.0
 11
95.60769801894105
 21
2358.839948947
 31
0.0
  0
LWPOLYLINE
  5
384
330
2
100
AcDbEntity
  8
2-t. Schiebtreppe
100
AcDbPolyline
 90
        4
 70
     1
 43
0.0
 10
95.60769801894105
 20
2359.253482242145
 10
96.45144801894105
 20
2359.253482242145
 10
96.45144801894105
 20
2350.703482242145
 10
95.60769801894105
 20
2350.703482242145
  0
HATCH
  5
385
330
2
100
AcDbEntity
  8
2-t. Schiebtreppe
100
AcDbHatch
 10
0.0
 20
0.0
 30
0.0
210
0.0
220
0.0
230
1.0
  2
AR-SAND,I
 70
     0
 71
     0
 91
        2
 92
        1
 93
        5
 72
     1
 10
95.60769801894105
 20
2350.671982242145
 11
96.45144801894105
 21
2350.671982242145
 72
     1
 10
96.45144801894105
 20
2350.671982242145
 11
96.45144801894105
 21
2338.409482242144
 72
     1
 10
96.45144801894105
 20
2338.409482242144
 11
95.60769801894105
 21
2338.409482242144
 72
     1
 10
95.60769801894105
 20
2338.409482242144
 11
95.60769801894105
 21
2339.309482242144
 72
     1
 10
95.60769801894105
 20
2339.309482242144
 11
95.60769801894105
 21
2350.671982242144
 97
        0
 92
        1
 93
        4
 72
     1
 10
95.60769801894105
 20
2365.409482242145
 11
96.45144801894105
 21
2365.409482242145
 72
     1
 10
96.45144801894105
 20
2365.409482242145
 11
96.45144801894105
 21
2359.221982242144
 72
     1
 10
96.45144801894105
 20
2359.221982242145
 11
95.60769801894105
 21
2359.221982242145
 72
     1
 10
95.60769801894105
 20
2359.221982242145
 11
95.60769801894105
 21
2365.409482242145
 97
        0
 75
     2
 76
     1
 52
0.0
 41
0.225
 77
     0
 78
     4
 53
37.5
 43
80.67791414178406
 44
2313.500908276354
 45
-0.0141735055746618
 46
0.4335353480279608
 79
     6
 49
0.0
 49
-0.342
 49
0.0
 49
-0.3825
 49
0.0
 49
-0.365625
 53
7.499999999999999
 43
80.67791414178406
 44
2313.500908276354
 45
0.3981997586852386
 46
0.6349828646766916
 79
     6
 49
0.0
 49
-0.1845
 49
0.0
 49
-0.30825
 49
0.0
 49
-0.118125
 53
327.5
 43
80.40116414178408
 44
2313.500908276354
 45
0.7006819188940864
 46
0.0012732870458171
 79
     6
 49
0.0
 49
-0.1125
 49
0.0
 49
-0.4050000000000001
 49
0.0
 49
-0.5287500000000001
 53
317.5
 43
80.40116414178408
 44
2313.500908276354
 45
0.6763784860287661
 46
0.1974770021102061
 79
     6
 49
0.0
 49
-0.05625
 49
0.0
 49
-0.2655
 49
0.0
 49
-0.30375
 98
        2
 10
95.71944324036781
 20
2348.961205014918
 10
95.99026370792762
 20
2361.479903533461
1001
GradientColor1ACI
1070
     5
1001
GradientColor2ACI
1070
     2
1001
ACAD
1010
0.0
1020
0.0
1030
0.0
  0
LINE
  5
386
330
2
100
AcDbEntity
  8
2-t. Schiebtreppe
100
AcDbLine
 10
96.45144801894105
 20
2365.409482242145
 30
0.0
 11
95.58524412524343
 21
2365.409482242145
 31
0.0
  0
HATCH
  5
387
330
2
100
AcDbEntity
  8
2-t. Schiebtreppe
100
AcDbHatch
 10
0.0
 20
0.0
 30
0.0
210
0.0
220
0.0
230
1.0
  2
ANSI33
 70
     0
 71
     0
 91
        3
 92
        1
 93
        4
 72
     1
 10
84.44807706152767
 20
2365.409482242145
 11
95.60769801894108
 21
2365.409482242145
 72
     1
 10
95.60769801894105
 20
2365.409482242145
 11
95.60769801894105
 21
2338.409482242145
 72
     1
 10
95.60769801894105
 20
2338.409482242145
 11
84.44807706152763
 21
2338.409482242145
 72
     1
 10
84.44807706152767
 20
2338.409482242145
 11
84.44807706152767
 21
2365.409482242145
 97
        0
 92
       16
 93
        4
 72
     1
 10
89.82491758164394
 20
2344.337104417718
 11
89.82491758164391
 21
2361.444946497236
 72
     1
 10
89.82491758164394
 20
2361.444946497236
 11
91.72597021322287
 21
2361.444946497236
 72
     1
 10
91.72597021322292
 20
2361.444946497236
 11
91.72597021322294
 21
2344.337104417718
 72
     1
 10
91.72597021322292
 20
2344.337104417718
 11
89.82491758164398
 21
2344.337104417718
 97
        0
 92
       16
 93
        4
 72
     1
 10
87.80343731848711
 20
2344.334801786139
 11
87.80343731848711
 21
2354.3089821039
 72
     1
 10
87.80343731848711
 20
2354.3089821039
 11
89.71830573953971
 21
2354.3089821039
 72
     1
 10
89.71830573953969
 20
2354.3089821039
 11
89.71830573953969
 21
2344.334801786139
 72
     1
 10
89.71830573953969
 20
2344.334801786139
 11
87.80343731848708
 21
2344.334801786139
 97
        0
 75
     1
 76
     1
 52
90.0
 41
10.0
 77
     0
 78
     2
 53
135.0
 43
12.53530018489255
 44
2079.389887180634
 45
-1.767766952966368
 46
-1.767766952966368
 79
     0
 53
135.0
 43
12.53530018489255
 44
2081.157654130634
 45
-1.767766952966368
 46
-1.767766952966368
 79
     2
 49
1.25
 49
-0.625
 98
        1
 10
91.76550719495493
 20
2359.329834533847
1001
GradientColor1ACI
1070
     5
1001
GradientColor2ACI
1070
     2
1001
ACAD
1010
0.0
1020
0.0
1030
0.0
  0
LWPOLYLINE
  5
388
330
2
100
AcDbEntity
  8
2-t. Schiebtreppe
100
AcDbPolyline
 90
        4
 70
     1
 43
0.0
 10
95.60769801894105
 20
2338.409482242145
 10
84.44807706152767
 20
2338.409482242145
 10
84.44807706152767
 20
2365.409482242145
 10
95.60769801894105
 20
2365.409482242145
  0
TEXT
  5
389
330
2
100
AcDbEntity
  8
2-t. Schiebtreppe
100
AcDbText
 10
91.34998066772288
 20
2344.653946522981
 30
0.0
 40
1.26
  1
Konstruktionsdecke
 50
90.0
  7
TECHNICBOLD
100
AcDbText
  0
TEXT
  5
38A
330
2
100
AcDbEntity
  8
2-t. Schiebtreppe
100
AcDbText
 10
89.34185566772384
 20
2344.653946522981
 30
0.0
 40
1.26
  1
Beton oder
 50
90.0
  7
TECHNICBOLD
100
AcDbText
  0
LWPOLYLINE
  5
38B
330
2
100
AcDbEntity
  8
2-t. Schiebtreppe
100
AcDbPolyline
 90
        4
 70
     1
 43
0.0
 10
96.45144801894105
 20
2338.409482242145
 10
98.58894801894109
 20
2338.409482242145
 10
98.58894801894109
 20
2365.409482242145
 10
96.45144801894105
 20
2365.409482242145
  0
LWPOLYLINE
  5
38C
330
2
100
AcDbEntity
  8
2-t. Schiebtreppe
100
AcDbPolyline
 90
        4
 70
     1
 43
0.0
 10
206.813948018941
 20
2338.409482242145
 10
204.6764480189411
 20
2338.409482242145
 10
204.6764480189411
 20
2365.409482242145
 10
206.813948018941
 20
2365.409482242145
  0
LWPOLYLINE
  5
38D
330
2
100
AcDbEntity
  8
2-t. Schiebtreppe
100
AcDbPolyline
 90
        4
 70
     1
 43
0.0
 10
208.951448018941
 20
2338.409482242145
 10
206.813948018941
 20
2338.409482242145
 10
206.813948018941
 20
2365.409482242145
 10
208.951448018941
 20
2365.409482242145
  0
LINE
  5
38E
330
2
100
AcDbEntity
  8
2-t. Schiebtreppe
  6
STRICHPUNKT
100
AcDbLine
 10
188.6514978458686
 20
2355.468480883423
 30
0.0
 11
188.6514978458686
 21
2352.848861978616
 31
0.0
  0
LINE
  5
38F
330
2
100
AcDbEntity
  8
2-t. Schiebtreppe
  6
STRICHPUNKT
100
AcDbLine
 10
189.9613072982719
 20
2354.15867143102
 30
0.0
 11
187.3416883934656
 21
2354.15867143102
 31
0.0
  0
LINE
  5
390
330
2
100
AcDbEntity
  8
2-t. Schiebtreppe
  6
STRICHPUNKT
100
AcDbLine
 10
210.7238603528806
 20
2354.15867143102
 30
0.0
 11
203.9048792317919
 21
2354.15867143102
 31
0.0
  0
LINE
  5
391
330
2
100
AcDbEntity
  8
2-t. Schiebtreppe
100
AcDbLine
 10
209.5263230189411
 20
2359.253482242145
 30
0.0
 11
209.5263230189411
 21
2350.703482242145
 31
0.0
  0
LINE
  5
392
330
2
100
AcDbEntity
  8
2-t. Schiebtreppe
100
AcDbLine
 10
209.229323018941
 20
2359.253482242145
 30
0.0
 11
209.229323018941
 21
2350.703482242145
 31
0.0
  0
LINE
  5
393
330
2
100
AcDbEntity
  8
2-t. Schiebtreppe
100
AcDbLine
 10
208.951448018941
 20
2357.535862099592
 30
0.0
 11
209.7951980189411
 21
2356.692112099592
 31
0.0
  0
LINE
  5
394
330
2
100
AcDbEntity
  8
2-t. Schiebtreppe
100
AcDbLine
 10
208.951448018941
 20
2356.819916484842
 30
0.0
 11
209.7951980189411
 21
2355.976166484842
 31
0.0
  0
LINE
  5
395
330
2
100
AcDbEntity
  8
2-t. Schiebtreppe
100
AcDbLine
 10
208.951448018941
 20
2356.103970866042
 30
0.0
 11
209.7951980189411
 21
2355.260220866043
 31
0.0
  0
LINE
  5
396
330
2
100
AcDbEntity
  8
2-t. Schiebtreppe
100
AcDbLine
 10
208.951448018941
 20
2355.388025251292
 30
0.0
 11
209.7951980189411
 21
2354.544275251292
 31
0.0
  0
LINE
  5
397
330
2
100
AcDbEntity
  8
2-t. Schiebtreppe
100
AcDbLine
 10
208.951448018941
 20
2353.240188403884
 30
0.0
 11
209.7951980189411
 21
2352.396438403884
 31
0.0
  0
LINE
  5
398
330
2
100
AcDbEntity
  8
2-t. Schiebtreppe
100
AcDbLine
 10
208.951448018941
 20
2352.524242789134
 30
0.0
 11
209.7951980189411
 21
2351.680492789134
 31
0.0
  0
LINE
  5
399
330
2
100
AcDbEntity
  8
2-t. Schiebtreppe
100
AcDbLine
 10
208.951448018941
 20
2351.808297170334
 30
0.0
 11
209.7951980189411
 21
2350.964547170334
 31
0.0
  0
LINE
  5
39A
330
2
100
AcDbEntity
  8
2-t. Schiebtreppe
100
AcDbLine
 10
208.951448018941
 20
2351.092351555584
 30
0.0
 11
209.3403173323807
 21
2350.703482242145
 31
0.0
  0
LINE
  5
39B
330
2
100
AcDbEntity
  8
2-t. Schiebtreppe
100
AcDbLine
 10
209.3816647237972
 20
2364.653482242144
 30
0.0
 11
209.7951980189411
 21
2364.239948947
 31
0.0
  0
LWPOLYLINE
  5
39C
330
2
100
AcDbEntity
  8
2-t. Schiebtreppe
100
AcDbPolyline
 90
        4
 70
     1
 43
0.0
 10
209.7951980189411
 20
2359.253482242145
 10
208.951448018941
 20
2359.253482242145
 10
208.951448018941
 20
2350.703482242145
 10
209.7951980189411
 20
2350.703482242145
  0
HATCH
  5
39D
330
2
100
AcDbEntity
  8
2-t. Schiebtreppe
100
AcDbHatch
 10
0.0
 20
0.0
 30
0.0
210
0.0
220
0.0
230
1.0
  2
AR-SAND,I
 70
     0
 71
     0
 91
        2
 92
        1
 93
        5
 72
     1
 10
209.7951980189411
 20
2350.671982242144
 11
208.951448018941
 21
2350.671982242144
 72
     1
 10
208.951448018941
 20
2350.671982242144
 11
208.951448018941
 21
2338.409482242144
 72
     1
 10
208.951448018941
 20
2338.409482242144
 11
209.7951980189411
 21
2338.409482242144
 72
     1
 10
209.7951980189411
 20
2338.409482242144
 11
209.7951980189411
 21
2339.309482242144
 72
     1
 10
209.7951980189411
 20
2339.309482242144
 11
209.7951980189411
 21
2350.671982242144
 97
        0
 92
        1
 93
        4
 72
     1
 10
209.7951980189411
 20
2365.409482242145
 11
208.951448018941
 21
2365.409482242145
 72
     1
 10
208.951448018941
 20
2365.409482242145
 11
208.951448018941
 21
2359.221982242144
 72
     1
 10
208.951448018941
 20
2359.221982242145
 11
209.7951980189411
 21
2359.221982242145
 72
     1
 10
209.7951980189411
 20
2359.221982242145
 11
209.7951980189411
 21
2365.409482242145
 97
        0
 75
     2
 76
     1
 52
0.0
 41
0.225
 77
     0
 78
     4
 53
37.5
 43
80.67791414178406
 44
2313.500908276354
 45
-0.0141735055746618
 46
0.4335353480279608
 79
     6
 49
0.0
 49
-0.342
 49
0.0
 49
-0.3825
 49
0.0
 49
-0.365625
 53
7.499999999999999
 43
80.67791414178406
 44
2313.500908276354
 45
0.3981997586852386
 46
0.6349828646766916
 79
     6
 49
0.0
 49
-0.1845
 49
0.0
 49
-0.30825
 49
0.0
 49
-0.118125
 53
327.5
 43
80.40116414178408
 44
2313.500908276354
 45
0.7006819188940864
 46
0.0012732870458171
 79
     6
 49
0.0
 49
-0.1125
 49
0.0
 49
-0.4050000000000001
 49
0.0
 49
-0.5287500000000001
 53
317.5
 43
80.40116414178408
 44
2313.500908276354
 45
0.6763784860287661
 46
0.1974770021102061
 79
     6
 49
0.0
 49
-0.05625
 49
0.0
 49
-0.2655
 49
0.0
 49
-0.30375
 98
        2
 10
209.6834527975143
 20
2348.961205014918
 10
209.4126323299545
 20
2361.479903533461
1001
GradientColor1ACI
1070
     5
1001
GradientColor2ACI
1070
     2
1001
ACAD
1010
0.0
1020
0.0
1030
0.0
  0
LINE
  5
39E
330
2
100
AcDbEntity
  8
2-t. Schiebtreppe
100
AcDbLine
 10
208.951448018941
 20
2365.409482242145
 30
0.0
 11
209.8176519126387
 21
2365.409482242145
 31
0.0
  0
LWPOLYLINE
  5
39F
330
2
100
AcDbEntity
  8
2-t. Schiebtreppe
100
AcDbPolyline
 90
        4
 70
     1
 43
0.0
 10
209.7951980189411
 20
2338.409482242145
 10
220.9548189763544
 20
2338.409482242145
 10
220.9548189763544
 20
2365.409482242145
 10
209.7951980189411
 20
2365.409482242145
  0
HATCH
  5
3A0
330
2
100
AcDbEntity
  8
2-t. Schiebtreppe
100
AcDbHatch
 10
0.0
 20
0.0
 30
0.0
210
0.0
220
0.0
230
1.0
  2
ANSI33
 70
     0
 71
     0
 91
        3
 92
        1
 93
        4
 72
     1
 10
209.7951980189411
 20
2365.409482242145
 11
220.9548189763545
 21
2365.409482242145
 72
     1
 10
220.9548189763544
 20
2365.409482242145
 11
220.9548189763544
 21
2338.409482242145
 72
     1
 10
220.9548189763544
 20
2338.409482242145
 11
209.795198018941
 21
2338.409482242145
 72
     1
 10
209.7951980189411
 20
2338.409482242145
 11
209.7951980189411
 21
2365.409482242145
 97
        0
 92
       16
 93
        4
 72
     1
 10
215.1720385390573
 20
2344.337104417718
 11
215.1720385390573
 21
2361.444946497236
 72
     1
 10
215.1720385390573
 20
2361.444946497236
 11
217.0730911706363
 21
2361.444946497236
 72
     1
 10
217.0730911706362
 20
2361.444946497236
 11
217.0730911706362
 21
2344.337104417718
 72
     1
 10
217.0730911706363
 20
2344.337104417718
 11
215.1720385390574
 21
2344.337104417718
 97
        0
 92
       16
 93
        4
 72
     1
 10
213.1505582759004
 20
2344.334801786139
 11
213.1505582759004
 21
2354.3089821039
 72
     1
 10
213.1505582759004
 20
2354.3089821039
 11
215.065426696953
 21
2354.3089821039
 72
     1
 10
215.0654266969529
 20
2354.3089821039
 11
215.0654266969529
 21
2344.334801786139
 72
     1
 10
215.0654266969529
 20
2344.334801786139
 11
213.1505582759003
 21
2344.334801786139
 97
        0
 75
     1
 76
     1
 52
90.0
 41
10.0
 77
     0
 78
     2
 53
135.0
 43
12.53530018489255
 44
2079.389887180634
 45
-1.767766952966368
 46
-1.767766952966368
 79
     0
 53
135.0
 43
12.53530018489255
 44
2081.157654130634
 45
-1.767766952966368
 46
-1.767766952966368
 79
     2
 49
1.25
 49
-0.625
 98
        1
 10
217.1126281523684
 20
2359.329834533847
1001
GradientColor1ACI
1070
     5
1001
GradientColor2ACI
1070
     2
1001
ACAD
1010
0.0
1020
0.0
1030
0.0
  0
TEXT
  5
3A1
330
2
100
AcDbEntity
  8
2-t. Schiebtreppe
100
AcDbText
 10
216.6971016251363
 20
2344.653946522981
 30
0.0
 40
1.26
  1
Konstruktionsdecke
 50
90.0
  7
TECHNICBOLD
100
AcDbText
  0
TEXT
  5
3A2
330
2
100
AcDbEntity
  8
2-t. Schiebtreppe
100
AcDbText
 10
214.6889766251373
 20
2344.653946522981
 30
0.0
 40
1.26
  1
Beton oder
 50
90.0
  7
TECHNICBOLD
100
AcDbText
  0
LINE
  5
3A3
330
2
100
AcDbEntity
  8
2-t. Schiebtreppe
100
AcDbLine
 10
98.58894801894109
 20
2365.409482242145
 30
0.0
 11
204.6764480189411
 21
2365.409482242145
 31
0.0
  0
CIRCLE
  5
3A4
330
2
100
AcDbEntity
  8
2-t. Schiebtreppe
100
AcDbCircle
 10
188.6514978458686
 20
2354.15867143102
 30
0.0
 40
0.421875
  0
LINE
  5
3A5
330
2
100
AcDbEntity
  8
2-t. Schiebtreppe
100
AcDbLine
 10
98.58894801894109
 20
2338.409482242145
 30
0.0
 11
204.6764480189411
 21
2338.409482242145
 31
0.0
  0
LWPOLYLINE
  5
3A6
330
2
100
AcDbEntity
  8
2-t. Schiebtreppe
100
AcDbPolyline
 90
        4
 70
     1
 43
0.0
 10
149.622167290868
 20
2248.259258335042
 10
203.4827629755874
 20
2338.835033710219
 10
204.2849780658162
 20
2338.357999067701
 10
150.4243823810976
 20
2247.782223692523
1001
AcDbBlockRepETag
1070
     1
1071
        9
1005
0
  0
LWPOLYLINE
  5
3A7
330
2
100
AcDbEntity
  8
2-t. Schiebtreppe
100
AcDbPolyline
 90
        3
 70
     1
 43
0.0
 10
145.9783538865835
 20
2252.350628278316
 42
0.2085074188449237
 10
146.6774297871694
 20
2250.611564524931
 10
147.2148627355305
 20
2251.515349664904
  0
LWPOLYLINE
  5
3A8
330
2
100
AcDbEntity
  8
2-t. Schiebtreppe
100
AcDbPolyline
 90
        9
 70
     1
 43
0.0
 10
152.719184738751
 20
2251.641325142012
 10
153.5379186363432
 20
2251.298208211376
 42
0.3738846794848048
 10
154.9916192646633
 20
2251.777912881454
 10
156.3917219591218
 20
2254.132424292687
 42
-0.3748546500691097
 10
157.1204017478305
 20
2254.3715062651
 42
2.199255981382728
 10
156.2844300718922
 20
2256.919400855565
 10
153.8953596871508
 20
2252.901771644955
 42
-0.3738846794848003
 10
153.749989624319
 20
2252.853801177947
 10
153.501984183228
 20
2252.957735882468
  0
LWPOLYLINE
  5
3A9
330
2
100
AcDbEntity
  8
2-t. Schiebtreppe
100
AcDbPolyline
 90
        6
 70
     0
 43
0.0
 10
198.2070587388589
 20
2339.66417302075
 10
192.9894923363016
 20
2330.889945471366
 42
0.4142135623731009
 10
193.4975867858483
 20
2328.891117763946
 10
194.5504940917743
 20
2328.265009795639
 42
0.4142135623730946
 10
196.5493217991946
 20
2328.773104245186
 10
201.7668882017519
 20
2337.54733179457
1001
AcDbBlockRepETag
1070
     1
1071
       16
1005
0
  0
LWPOLYLINE
  5
3AA
330
2
100
AcDbEntity
  8
2-t. Schiebtreppe
100
AcDbPolyline
 90
        9
 70
     0
 43
0.0
 10
198.2070587388589
 20
2339.66417302075
 10
202.0175804174487
 20
2337.398258468782
 10
202.674206677011
 20
2338.502487485107
 10
203.9547810604561
 20
2337.740998015926
 10
204.1038543862432
 20
2337.991690231624
 10
202.5725877871011
 20
2338.90225302659
 10
201.9159615275392
 20
2337.798024010267
 10
198.3561320646464
 20
2339.914865236448
 10
198.2070587388589
 20
2339.66417302075
1001
AcDbBlockRepETag
1070
     1
1071
       34
1005
0
  0
CIRCLE
  5
3AB
330
2
100
AcDbEntity
  8
2-t. Schiebtreppe
100
AcDbCircle
 10
204.2976497097668
 20
2338.317590112029
 30
0.0
 40
0.3791666644999999
1001
AcDbBlockRepETag
1070
     1
1071
       35
1005
0
  0
CIRCLE
  5
3AC
330
2
100
AcDbEntity
  8
2-t. Schiebtreppe
100
AcDbCircle
 10
204.2971840381994
 20
2338.316807005888
 30
0.0
 40
0.6708333295
1001
AcDbBlockRepETag
1070
     1
1071
        8
1005
0
  0
HATCH
  5
3AD
330
2
100
AcDbEntity
  8
2-t. Schiebtreppe
100
AcDbHatch
 10
0.0
 20
0.0
 30
0.0
210
0.0
220
0.0
230
1.0
  2
AR-SAND
 70
     0
 71
     0
 91
        2
 92
        7
 72
     1
 73
     1
 93
       10
 10
200.5240482643236
 20
2333.859450434919
 42
0.0
 10
199.822110060373
 20
2334.276855747123
 42
0.0
 10
196.5493217991946
 20
2328.773104245186
 42
-0.4142135623730994
 10
194.5504940917744
 20
2328.265009795639
 42
0.0
 10
193.4975867858483
 20
2328.891117763946
 42
-0.4142135623730896
 10
192.9894923363016
 20
2330.889945471366
 42
0.0
 10
196.26228059748
 20
2336.393696973304
 42
0.0
 10
192.5018973620293
 20
2338.629796860114
 42
0.0
 10
144.5587310998375
 20
2258.005188035539
 42
0.0
 10
152.5808820021317
 20
2253.234841610343
 42
0.0
 97
        0
 92
       23
 72
     1
 73
     1
 93
        6
 10
199.822110060373
 20
2334.276855747123
 42
0.0
 10
196.26228059748
 20
2336.393696973304
 42
0.0
 10
192.9894923363016
 20
2330.889945471366
 42
0.4142135623730921
 10
193.4975867858483
 20
2328.891117763946
 42
0.0
 10
194.5504940917744
 20
2328.265009795639
 42
0.4142135623730974
 10
196.5493217991946
 20
2328.773104245186
 42
0.0
 97
        0
 75
     1
 76
     1
 52
59.26230215448212
 41
0.349999998
 77
     0
 78
     4
 53
96.76230215448198
 43
-6.748270820770791
 44
2080.490538885561
 45
-0.5909164191682608
 46
0.3257352995210916
 79
     6
 49
0.0
 49
-0.5319999969599998
 49
0.0
 49
-0.5949999965999997
 49
0.0
 49
-0.5687499967499998
 53
66.76230215448213
 43
-6.748270820770791
 44
2080.490538885561
 45
-0.5323962609082976
 46
1.037251132000153
 79
     6
 49
0.0
 49
-0.2869999983599999
 49
0.0
 49
-0.4794999972600001
 49
0.0
 49
-0.18374999895
 53
26.76230215448213
 43
-6.968303049632936
 44
2080.120517175193
 45
0.5553801643619884
 46
0.937841684697463
 79
     6
 49
0.0
 49
-0.1749999989999995
 49
0.0
 49
-0.6299999963999982
 49
0.0
 49
-0.8224999952999981
 53
16.76230215448213
 43
-6.968303049632936
 44
2080.120517175193
 45
0.2737282303742647
 46
1.061340665510475
 79
     6
 49
0.0
 49
-0.0874999995
 49
0.0
 49
-0.41299999764
 49
0.0
 49
-0.4724999973
 47
0.1714396377124264
 98
        2
 10
170.6709214490727
 20
2296.537299185398
 10
196.3340486869647
 20
2330.840545383306
1001
GradientColor1ACI
1070
     5
1001
GradientColor2ACI
1070
     2
1001
ACAD
1010
0.0
1020
0.0
1030
0.0
  0
LWPOLYLINE
  5
3AE
330
2
100
AcDbEntity
  8
2-t. Schiebtreppe
100
AcDbPolyline
 90
        4
 70
     1
 43
0.0
 10
143.5265937215677
 20
2256.269473044978
 10
193.5340347402991
 20
2340.365511850674
 10
191.6287739010039
 20
2341.498469126658
 10
141.621332882273
 20
2257.402430320962
1001
AcDbBlockRepETag
1070
     1
1071
        8
1005
0
  0
LWPOLYLINE
  5
3AF
330
2
100
AcDbEntity
  8
2-t. Schiebtreppe
100
AcDbPolyline
 90
        9
 70
     1
 43
0.0
 10
202.7075816814933
 20
2337.531434188596
 10
200.5240482643236
 20
2333.859450434919
 10
192.5018973620293
 20
2338.629796860114
 10
193.5340347402991
 20
2340.365511850674
 10
195.6398493521517
 20
2339.113295914061
 10
196.6719867304214
 20
2340.849010904621
 10
202.0652728078579
 20
2338.04911638708
 10
202.7808247716374
 20
2339.252439022425
 10
203.4827629755873
 20
2338.835033710219
1001
AcDbBlockRepETag
1070
     1
1071
        1
1005
0
  0
LWPOLYLINE
  5
3B0
330
2
100
AcDbEntity
  8
2-t. Schiebtreppe
100
AcDbPolyline
 90
        9
 70
     1
 43
0.0
 10
150.3973485849629
 20
2249.562857856665
 10
152.5808820021317
 20
2253.234841610343
 10
144.5587310998375
 20
2258.005188035539
 10
143.5265937215677
 20
2256.269473044978
 10
145.6324083334203
 20
2255.017257108365
 10
144.6002709551505
 20
2253.281542117804
 10
149.6357810506971
 20
2249.879986282591
 10
148.9202290869179
 20
2248.676663647247
 10
149.6221672908681
 20
2248.259258335042
1001
AcDbBlockRepETag
1070
     1
1071
        1
1005
0
  0
HATCH
  5
3B1
330
2
100
AcDbEntity
  8
2-t. Schiebtreppe
 62
     7
100
AcDbHatch
 10
0.0
 20
0.0
 30
0.0
210
0.0
220
0.0
230
1.0
  2
ANSI31
 70
     0
 71
     0
 91
        1
 92
        7
 72
     0
 73
     1
 93
       23
 10
99.83744214047796
 20
2339.657841808012
 10
99.79878957793255
 20
2339.93853879795
 10
99.37061468560308
 20
2339.881958194653
 10
99.37061468560308
 20
2340.115291527986
 10
99.48020915629525
 20
2340.092680154391
 10
99.51036119619779
 20
2340.153270184395
 10
99.37061468560308
 20
2340.275850334568
 10
99.37061468560308
 20
2340.40695819465
 10
99.48020915629525
 20
2340.384346821057
 10
99.5077162354047
 20
2340.447039919846
 10
99.28894801893704
 20
2340.590850334566
 10
99.07017980247031
 20
2340.447039919846
 10
99.09768688157885
 20
2340.384346821057
 10
99.20728135227102
 20
2340.40695819465
 10
99.20728135227102
 20
2340.275850334568
 10
99.06753484167722
 20
2340.153270184395
 10
99.09061468560516
 20
2340.091958194652
 10
99.20728135227102
 20
2340.115291527986
 10
99.20728135227102
 20
2339.881958194653
 10
98.77273078168503
 20
2339.943775135367
 10
98.6223802523183
 20
2339.361153644905
 10
99.25441774582225
 20
2339.486814497698
 10
99.49893874186466
 20
2339.362884395668
 97
        0
 75
     1
 76
     1
 52
0.0
 41
0.116666666666
 77
     0
 78
     1
 53
45.0
 43
75.00184163286497
 44
2003.777076731434
 45
-0.0103119738922449
 46
0.0103119738922449
 79
     0
 47
0.0849248499850866
 98
        1
 10
99.62303773132418
 20
2339.675819464348
1001
GradientColor1ACI
1070
     5
1001
GradientColor2ACI
1070
     2
1001
ACAD
1010
0.0
1020
0.0
1030
0.0
  0
LWPOLYLINE
  5
3B2
330
2
100
AcDbEntity
  8
2-t. Schiebtreppe
100
AcDbPolyline
 90
       24
 70
     0
 43
0.0
 10
98.77273078168503
 20
2339.943775135367
 10
98.6223802523183
 20
2339.361153644905
 10
99.25441774582225
 20
2339.486814497698
 10
99.49893874186466
 20
2339.362884395668
 10
99.83744214047796
 20
2339.657841808012
 10
99.79878957793255
 20
2339.93853879795
 10
99.37061468560308
 20
2339.881958194653
 10
99.37061468560308
 20
2340.115291527986
 10
99.48020915629525
 20
2340.092680154391
 10
99.51036119619779
 20
2340.153270184395
 10
99.37061468560308
 20
2340.275850334568
 10
99.37061468560308
 20
2340.40695819465
 10
99.48020915629525
 20
2340.384346821057
 10
99.5077162354047
 20
2340.447039919846
 10
99.28894801893704
 20
2340.590850334566
 10
99.07017980247031
 20
2340.447039919846
 10
99.09768688157885
 20
2340.384346821057
 10
99.20728135227102
 20
2340.40695819465
 10
99.20728135227102
 20
2340.275850334568
 10
99.06753484167722
 20
2340.153270184395
 10
99.09061468560516
 20
2340.091958194652
 10
99.20728135227102
 20
2340.115291527986
 10
99.20728135227102
 20
2339.881958194653
 10
98.77273078168503
 20
2339.943775135367
  0
LWPOLYLINE
  5
3B3
330
2
100
AcDbEntity
  8
2-t. Schiebtreppe
100
AcDbPolyline
 90
       16
 70
     1
 43
0.0
 10
98.58894801894088
 20
2350.092815575407
 10
98.58894801894088
 20
2339.942815575465
 10
98.58894801894088
 20
2339.942815575465
 10
98.58894801894088
 20
2339.942815575465
 10
99.05561468560529
 20
2339.942815575465
 10
99.05561468560529
 20
2340.876148908793
 10
99.52228135226881
 20
2340.876148908793
 10
99.52228135226881
 20
2339.942815575465
 10
99.98894801893323
 20
2339.942815575465
 10
100.3389480189308
 20
2346.009482242097
 10
100.8056146855953
 20
2346.009482242097
 10
100.8056146855953
 20
2346.942815575424
 10
101.2722813522588
 20
2346.942815575424
 10
101.2722813522588
 20
2346.009482242097
 10
101.7389480189232
 20
2346.009482242097
 10
101.7389480189232
 20
2350.092815575407
  0
LWPOLYLINE
  5
3B4
330
2
100
AcDbEntity
  8
2-t. Schiebtreppe
100
AcDbPolyline
 90
       16
 70
     1
 43
0.0
 10
204.6764480189414
 20
2350.092815575407
 10
204.6764480189414
 20
2339.942815575465
 10
204.6764480189414
 20
2339.942815575465
 10
204.6764480189414
 20
2339.942815575465
 10
204.209781352277
 20
2339.942815575465
 10
204.209781352277
 20
2340.876148908793
 10
203.7431146856135
 20
2340.876148908793
 10
203.7431146856135
 20
2339.942815575465
 10
203.2764480189491
 20
2339.942815575465
 10
202.9264480189514
 20
2346.009482242097
 10
202.459781352287
 20
2346.009482242097
 10
202.459781352287
 20
2346.942815575424
 10
201.9931146856235
 20
2346.942815575424
 10
201.9931146856235
 20
2346.009482242097
 10
201.526448018959
 20
2346.009482242097
 10
201.526448018959
 20
2350.092815575407
  0
LINE
  5
3B5
330
2
100
AcDbEntity
  8
2-t. Schiebtreppe
100
AcDbLine
 10
101.7389480189232
 20
2350.092815575407
 30
0.0
 11
201.526448018959
 21
2350.092815575407
 31
0.0
  0
HATCH
  5
3B6
330
2
100
AcDbEntity
  8
2-t. Schiebtreppe
 62
     7
100
AcDbHatch
 10
0.0
 20
0.0
 30
0.0
210
0.0
220
0.0
230
1.0
  2
ANSI31
 70
     0
 71
     0
 91
        1
 92
        7
 72
     0
 73
     1
 93
       23
 10
101.5874421404679
 20
2345.724508474644
 10
101.5487895779225
 20
2346.005205464582
 10
101.1206146855931
 20
2345.948624861285
 10
101.1206146855931
 20
2346.181958194617
 10
101.2302091562852
 20
2346.159346821023
 10
101.2603611961877
 20
2346.219936851027
 10
101.1206146855931
 20
2346.342517001199
 10
101.1206146855931
 20
2346.473624861282
 10
101.2302091562852
 20
2346.451013487688
 10
101.2577162353947
 20
2346.513706586478
 10
101.038948018927
 20
2346.657517001197
 10
100.8201798024603
 20
2346.513706586478
 10
100.8476868815688
 20
2346.451013487688
 10
100.957281352261
 20
2346.473624861282
 10
100.957281352261
 20
2346.342517001199
 10
100.8175348416672
 20
2346.219936851027
 10
100.8406146855951
 20
2346.158624861284
 10
100.957281352261
 20
2346.181958194617
 10
100.957281352261
 20
2345.948624861285
 10
100.522730781675
 20
2346.010441801999
 10
100.3723802523083
 20
2345.427820311537
 10
101.0044177458122
 20
2345.55348116433
 10
101.2489387418546
 20
2345.4295510623
 97
        0
 75
     1
 76
     1
 52
0.0
 41
0.116666666666
 77
     0
 78
     1
 53
45.0
 43
76.75184163285496
 44
2009.843743398066
 45
-0.0103119738922449
 46
0.0103119738922449
 79
     0
 47
0.0849248499850866
 98
        1
 10
101.3730377313142
 20
2345.742486130981
1001
GradientColor1ACI
1070
     5
1001
GradientColor2ACI
1070
     2
1001
ACAD
1010
0.0
1020
0.0
1030
0.0
  0
LWPOLYLINE
  5
3B7
330
2
100
AcDbEntity
  8
2-t. Schiebtreppe
100
AcDbPolyline
 90
       24
 70
     0
 43
0.0
 10
100.522730781675
 20
2346.010441801999
 10
100.3723802523083
 20
2345.427820311537
 10
101.0044177458122
 20
2345.55348116433
 10
101.2489387418546
 20
2345.4295510623
 10
101.5874421404679
 20
2345.724508474644
 10
101.5487895779225
 20
2346.005205464582
 10
101.1206146855931
 20
2345.948624861285
 10
101.1206146855931
 20
2346.181958194617
 10
101.2302091562852
 20
2346.159346821023
 10
101.2603611961877
 20
2346.219936851027
 10
101.1206146855931
 20
2346.342517001199
 10
101.1206146855931
 20
2346.473624861282
 10
101.2302091562852
 20
2346.451013487688
 10
101.2577162353947
 20
2346.513706586478
 10
101.038948018927
 20
2346.657517001197
 10
100.8201798024603
 20
2346.513706586478
 10
100.8476868815688
 20
2346.451013487688
 10
100.957281352261
 20
2346.473624861282
 10
100.957281352261
 20
2346.342517001199
 10
100.8175348416672
 20
2346.219936851027
 10
100.8406146855951
 20
2346.158624861284
 10
100.957281352261
 20
2346.181958194617
 10
100.957281352261
 20
2345.948624861285
 10
100.522730781675
 20
2346.010441801999
  0
HATCH
  5
3B8
330
2
100
AcDbEntity
  8
2-t. Schiebtreppe
 62
     7
100
AcDbHatch
 10
0.0
 20
0.0
 30
0.0
210
0.0
220
0.0
230
1.0
  2
ANSI31
 70
     0
 71
     0
 91
        1
 92
        7
 72
     0
 73
     1
 93
       23
 10
203.7664572960185
 20
2339.362884395668
 10
204.0109782920609
 20
2339.486814497698
 10
204.6430157855649
 20
2339.361153644905
 10
204.4926652561973
 20
2339.943775135367
 10
204.0581146856113
 20
2339.881958194653
 10
204.0581146856113
 20
2340.115291527986
 10
204.1747813522781
 20
2340.091958194652
 10
204.1978611962059
 20
2340.153270184395
 10
204.0581146856113
 20
2340.275850334568
 10
204.0581146856113
 20
2340.40695819465
 10
204.1677091563034
 20
2340.384346821057
 10
204.195216235412
 20
2340.447039919846
 10
203.9764480189452
 20
2340.590850334566
 10
203.7576798024776
 20
2340.447039919846
 10
203.785186881587
 20
2340.384346821057
 10
203.8947813522792
 20
2340.40695819465
 10
203.8947813522792
 20
2340.275850334568
 10
203.7550348416845
 20
2340.153270184395
 10
203.785186881587
 20
2340.092680154391
 10
203.8947813522792
 20
2340.115291527986
 10
203.8947813522792
 20
2339.881958194653
 10
203.4666064599497
 20
2339.93853879795
 10
203.4279538974043
 20
2339.657841808012
 97
        0
 75
     1
 76
     1
 52
0.0
 41
0.116666666666
 77
     0
 78
     1
 53
45.0
 43
71.07267496682664
 44
2003.777076731434
 45
-0.0103119738922449
 46
0.0103119738922449
 79
     0
 47
0.0849248499850866
 98
        1
 10
203.6423583065581
 20
2339.675819464348
1001
GradientColor1ACI
1070
     5
1001
GradientColor2ACI
1070
     2
1001
ACAD
1010
0.0
1020
0.0
1030
0.0
  0
LWPOLYLINE
  5
3B9
330
2
100
AcDbEntity
  8
2-t. Schiebtreppe
100
AcDbPolyline
 90
       24
 70
     0
 43
0.0
 10
204.4926652561973
 20
2339.943775135367
 10
204.6430157855649
 20
2339.361153644905
 10
204.0109782920609
 20
2339.486814497698
 10
203.7664572960185
 20
2339.362884395668
 10
203.4279538974043
 20
2339.657841808012
 10
203.4666064599497
 20
2339.93853879795
 10
203.8947813522792
 20
2339.881958194653
 10
203.8947813522792
 20
2340.115291527986
 10
203.785186881587
 20
2340.092680154391
 10
203.7550348416845
 20
2340.153270184395
 10
203.8947813522792
 20
2340.275850334568
 10
203.8947813522792
 20
2340.40695819465
 10
203.785186881587
 20
2340.384346821057
 10
203.7576798024776
 20
2340.447039919846
 10
203.9764480189452
 20
2340.590850334566
 10
204.195216235412
 20
2340.447039919846
 10
204.1677091563034
 20
2340.384346821057
 10
204.0581146856113
 20
2340.40695819465
 10
204.0581146856113
 20
2340.275850334568
 10
204.1978611962059
 20
2340.153270184395
 10
204.1747813522781
 20
2340.091958194652
 10
204.0581146856113
 20
2340.115291527986
 10
204.0581146856113
 20
2339.881958194653
 10
204.4926652561973
 20
2339.943775135367
  0
HATCH
  5
3BA
330
2
100
AcDbEntity
  8
2-t. Schiebtreppe
 62
     7
100
AcDbHatch
 10
0.0
 20
0.0
 30
0.0
210
0.0
220
0.0
230
1.0
  2
ANSI31
 70
     0
 71
     0
 91
        1
 92
        7
 72
     0
 73
     1
 93
       23
 10
202.0164572960276
 20
2345.4295510623
 10
202.26097829207
 20
2345.55348116433
 10
202.893015785574
 20
2345.427820311537
 10
202.7426652562072
 20
2346.010441801999
 10
202.3081146856222
 20
2345.948624861285
 10
202.3081146856213
 20
2346.181958194617
 10
202.4247813522872
 20
2346.158624861284
 10
202.447861196216
 20
2346.219936851027
 10
202.3081146856213
 20
2346.342517001199
 10
202.3081146856213
 20
2346.473624861282
 10
202.4177091563134
 20
2346.451013487688
 10
202.4452162354229
 20
2346.513706586478
 10
202.2264480189552
 20
2346.657517001197
 10
202.0076798024876
 20
2346.513706586478
 10
202.035186881597
 20
2346.451013487688
 10
202.1447813522892
 20
2346.473624861282
 10
202.1447813522892
 20
2346.342517001199
 10
202.0050348416945
 20
2346.219936851027
 10
202.035186881597
 20
2346.159346821023
 10
202.1447813522892
 20
2346.181958194617
 10
202.1447813522892
 20
2345.948624861285
 10
201.7166064599597
 20
2346.005205464582
 10
201.6779538974144
 20
2345.724508474644
 97
        0
 75
     1
 76
     1
 52
0.0
 41
0.116666666666
 77
     0
 78
     1
 53
45.0
 43
72.82267496681754
 44
2009.843743398066
 45
-0.0103119738922449
 46
0.0103119738922449
 79
     0
 47
0.0849248499850866
 98
        1
 10
201.8923583065681
 20
2345.742486130981
1001
GradientColor1ACI
1070
     5
1001
GradientColor2ACI
1070
     2
1001
ACAD
1010
0.0
1020
0.0
1030
0.0
  0
LWPOLYLINE
  5
3BB
330
2
100
AcDbEntity
  8
2-t. Schiebtreppe
100
AcDbPolyline
 90
       24
 70
     0
 43
0.0
 10
202.7426652562072
 20
2346.010441801999
 10
202.893015785574
 20
2345.427820311537
 10
202.26097829207
 20
2345.55348116433
 10
202.0164572960276
 20
2345.4295510623
 10
201.6779538974144
 20
2345.724508474644
 10
201.7166064599597
 20
2346.005205464582
 10
202.1447813522892
 20
2345.948624861285
 10
202.1447813522892
 20
2346.181958194617
 10
202.035186881597
 20
2346.159346821023
 10
202.0050348416945
 20
2346.219936851027
 10
202.1447813522892
 20
2346.342517001199
 10
202.1447813522892
 20
2346.473624861282
 10
202.035186881597
 20
2346.451013487688
 10
202.0076798024876
 20
2346.513706586478
 10
202.2264480189552
 20
2346.657517001197
 10
202.4452162354229
 20
2346.513706586478
 10
202.4177091563134
 20
2346.451013487688
 10
202.3081146856213
 20
2346.473624861282
 10
202.3081146856213
 20
2346.342517001199
 10
202.447861196216
 20
2346.219936851027
 10
202.4247813522872
 20
2346.158624861284
 10
202.3081146856213
 20
2346.181958194617
 10
202.3081146856222
 20
2345.948624861285
 10
202.7426652562072
 20
2346.010441801999
  0
LWPOLYLINE
  5
3BC
330
2
100
AcDbEntity
  8
2-t. Schiebtreppe
100
AcDbPolyline
 90
        4
 70
     1
 43
0.0
 10
98.48894801894088
 20
2338.069482242145
 10
98.48894801894088
 20
2338.409482242145
 10
91.73894801894087
 20
2338.409482242145
 10
91.73894801894087
 20
2338.069482242145
  0
LWPOLYLINE
  5
3BD
330
2
100
AcDbEntity
  8
2-t. Schiebtreppe
100
AcDbPolyline
 90
        4
 70
     1
 43
0.0
 10
205.0680074727546
 20
2338.069482242145
 10
205.0680074727546
 20
2338.409482242145
 10
211.8180074727546
 20
2338.409482242145
 10
211.8180074727546
 20
2338.069482242145
  0
LWPOLYLINE
  5
3BE
330
2
100
AcDbEntity
  8
2-t. Schiebtreppe
100
AcDbPolyline
 90
        4
 70
     0
 43
0.0
 10
204.6764480189412
 20
2338.858779646944
 10
204.6764480189412
 20
2345.938648856146
 10
204.9672035828279
 20
2345.938648856146
 10
204.9680173676994
 20
2338.316807005888
1001
AcDbBlockRepETag
1070
     1
1071
        7
1005
0
  0
LWPOLYLINE
  5
3BF
330
2
100
AcDbEntity
  8
2-t. Schiebtreppe
100
AcDbPolyline
 90
        4
 70
     1
 43
0.0
 10
204.6764480189411
 20
2350.092815575407
 10
202.5389480189411
 20
2350.092815575407
 10
202.5389480189411
 20
2365.409482242145
 10
204.6764480189411
 20
2365.409482242145
  0
LWPOLYLINE
  5
3C0
330
2
100
AcDbEntity
  8
2-t. Schiebtreppe
100
AcDbPolyline
 90
        4
 70
     1
 43
0.0
 10
202.5389480189411
 20
2350.092815575407
 10
200.4014480189412
 20
2350.092815575407
 10
200.4014480189412
 20
2365.409482242145
 10
202.5389480189411
 20
2365.409482242145
  0
LWPOLYLINE
  5
3C1
330
2
100
AcDbEntity
  8
2-t. Schiebtreppe
100
AcDbPolyline
 90
        4
 70
     1
 43
0.0
 10
1160.8
 20
2599.893391009479
 10
1141.799999999999
 20
2599.893391009479
 10
1141.799999999999
 20
2742.893391009476
 10
1160.8
 20
2742.893391009476
  0
LWPOLYLINE
  5
3C2
330
2
100
AcDbEntity
  8
2-t. Schiebtreppe
100
AcDbPolyline
 90
        4
 70
     1
 43
0.0
 10
1141.799999999999
 20
2599.893391009479
 10
1122.8
 20
2599.893391009479
 10
1122.8
 20
2742.893391009476
 10
1141.799999999999
 20
2742.893391009476
  0
ENDSEC
  0
SECTION
  2
OBJECTS
  0
DICTIONARY
  5
9
330
0
100
AcDbDictionary
281
     1
  3
ACAD_COLOR
350
48
  3
ACAD_GROUP
350
35
  3
ACAD_LAYOUT
350
17
  3
ACAD_MATERIAL
350
B
  3
ACAD_MLEADERSTYLE
350
4B
  3
ACAD_MLINESTYLE
350
36
  3
ACAD_PLOTSETTINGS
350
37
  3
ACAD_PLOTSTYLENAME
350
8
  3
ACAD_SCALELIST
350
49
  3
ACAD_TABLESTYLE
350
4A
  3
ACAD_VISUALSTYLE
350
2F
  3
ACDB_RECOMPOSE_DATA
350
3D0
  3
AcDbVariableDictionary
350
3C7
  3
AcDsDecomposeData
350
3D6
  0
DICTIONARY
  5
1F
330
1E
100
AcDbDictionary
280
     1
281
     1
  3
ACAD_LAYERFILTERS
360
20
  3
ACAD_LAYERSTATES
360
21
  3
ACLYDICTIONARY
360
22
  0
DICTIONARY
  5
6C
330
6B
100
AcDbDictionary
280
     1
281
     1
  0
DICTIONARY
  5
3
330
2
100
AcDbDictionary
280
     1
281
     1
  3
ACAD_SORTENTS
360
3C3
  0
DICTIONARY
  5
AE
330
AD
100
AcDbDictionary
280
     1
281
     1
  3
AcDbContextDataManager
360
AF
  0
DICTIONARY
  5
B6
330
B5
100
AcDbDictionary
280
     1
281
     1
  3
AcDbContextDataManager
360
B7
  0
DICTIONARY
  5
BC
330
BB
100
AcDbDictionary
280
     1
281
     1
  3
AcDbContextDataManager
360
BD
  0
DICTIONARY
  5
C3
330
C2
100
AcDbDictionary
280
     1
281
     1
  3
AcDbContextDataManager
360
C4
  0
DICTIONARY
  5
13C
330
13B
100
AcDbDictionary
280
     1
281
     1
  3
AcDbContextDataManager
360
13D
  0
DICTIONARY
  5
1EE
330
1ED
100
AcDbDictionary
280
     1
281
     1
  3
AcDbContextDataManager
360
1EF
  0
DICTIONARY
  5
48
102
{ACAD_REACTORS
330
9
102
}
330
9
100
AcDbDictionary
281
     1
  0
DICTIONARY
  5
35
102
{ACAD_REACTORS
330
9
102
}
330
9
100
AcDbDictionary
281
     1
  0
DICTIONARY
  5
17
102
{ACAD_REACTORS
330
9
102
}
330
9
100
AcDbDictionary
281
     1
  3
Layout1
350
1D
  3
Model
350
16
  0
DICTIONARY
  5
B
102
{ACAD_REACTORS
330
9
102
}
330
9
100
AcDbDictionary
281
     1
  3
ByBlock
350
40
  3
ByLayer
350
38
  3
Global
350
A
  0
DICTIONARY
  5
4B
102
{ACAD_REACTORS
330
9
102
}
330
9
100
AcDbDictionary
281
     1
  0
DICTIONARY
  5
36
102
{ACAD_REACTORS
330
9
102
}
330
9
100
AcDbDictionary
281
     1
  3
Standard
350
4E
  0
DICTIONARY
  5
37
102
{ACAD_REACTORS
330
9
102
}
330
9
100
AcDbDictionary
281
     1
  0
ACDBDICTIONARYWDFLT
  5
8
102
{ACAD_REACTORS
330
9
102
}
330
9
100
AcDbDictionary
281
     1
  3
Normal
350
7
100
AcDbDictionaryWithDefault
340
7
  0
DICTIONARY
  5
49
102
{ACAD_REACTORS
330
9
102
}
330
9
100
AcDbDictionary
281
     1
  3
A0
350
52
  3
A1
350
53
  3
A2
350
54
  3
A3
350
55
  3
A4
350
56
  3
A5
350
57
  3
A6
350
58
  3
A7
350
59
  3
A8
350
5A
  3
A9
350
5B
  3
B0
350
5C
  3
B1
350
5D
  3
B2
350
5E
  3
B3
350
5F
  3
B4
350
60
  3
B5
350
61
  3
B6
350
62
  0
DICTIONARY
  5
4A
102
{ACAD_REACTORS
330
9
102
}
330
9
100
AcDbDictionary
281
     1
  3
Standard
350
4F
  0
DICTIONARY
  5
2F
102
{ACAD_REACTORS
330
9
102
}
330
9
100
AcDbDictionary
281
     1
  3
2dWireframe
350
2E
  3
Realistic
350
50
  3
Wireframe
350
51
  0
XRECORD
  5
3D0
102
{ACAD_REACTORS
330
9
102
}
330
9
100
AcDbXrecord
280
     1
 90
        1
330
4F
330
13B
330
1ED
  0
DICTIONARY
  5
3C7
102
{ACAD_REACTORS
330
9
102
}
330
9
100
AcDbDictionary
281
     1
  3
CANNOSCALE
350
3CC
  3
CMLEADERSTYLE
350
3C9
  3
CTABLESTYLE
350
3C8
  3
CVIEWDETAILSTYLE
350
3CA
  3
CVIEWSECTIONSTYLE
350
3CB
  3
XCLIPFRAME
350
3CD
  0
DICTIONARY
  5
3D6
102
{ACAD_REACTORS
330
9
102
}
330
9
100
AcDbDictionary
281
     1
  3
AcDsRecords
350
3D8
  3
AcDsSchemas
350
3D7
1001
ACAD
1070
     2
  0
DICTIONARY
  5
20
102
{ACAD_REACTORS
330
1F
102
}
330
1F
100
AcDbDictionary
281
     1
  0
DICTIONARY
  5
21
102
{ACAD_REACTORS
330
1F
102
}
330
1F
100
AcDbDictionary
281
     1
  0
DICTIONARY
  5
22
102
{ACAD_REACTORS
330
1F
102
}
330
1F
100
AcDbDictionary
281
     1
1001
ACAD
1000
<AllUsed
  0
SORTENTSTABLE
  5
3C3
102
{ACAD_REACTORS
330
3
102
}
330
3
100
AcDbSortentsTable
330
2
  0
DICTIONARY
  5
AF
102
{ACAD_REACTORS
330
AE
102
}
330
AE
100
AcDbDictionary
281
     1
  3
ACDB_ANNOTATIONSCALES
350
B0
  0
DICTIONARY
  5
B7
102
{ACAD_REACTORS
330
B6
102
}
330
B6
100
AcDbDictionary
281
     1
  3
ACDB_ANNOTATIONSCALES
350
B8
  0
DICTIONARY
  5
BD
102
{ACAD_REACTORS
330
BC
102
}
330
BC
100
AcDbDictionary
281
     1
  3
ACDB_ANNOTATIONSCALES
350
BE
  0
DICTIONARY
  5
C4
102
{ACAD_REACTORS
330
C3
102
}
330
C3
100
AcDbDictionary
281
     1
  3
ACDB_ANNOTATIONSCALES
350
C5
  0
DICTIONARY
  5
13D
102
{ACAD_REACTORS
330
13C
102
}
330
13C
100
AcDbDictionary
281
     1
  3
ACDB_ANNOTATIONSCALES
350
13E
  0
DICTIONARY
  5
1EF
102
{ACAD_REACTORS
330
1EE
102
}
330
1EE
100
AcDbDictionary
281
     1
  3
ACDB_ANNOTATIONSCALES
350
1F0
  0
LAYOUT
  5
1D
102
{ACAD_REACTORS
330
17
102
}
330
17
100
AcDbPlotSettings
  1

  2
HP Color LaserJet CP2020 Series PCL 6
  4

  6

 40
0.0
 41
0.0
 42
0.0
 43
0.0
 44
0.0
 45
0.0
 46
0.0
 47
0.0
 48
0.0
 49
0.0
140
0.0
141
0.0
142
1.0
143
1.0
 70
   688
 72
     0
 73
     0
 74
     5
  7
monochrome.ctb
 75
    16
147
1.0
 76
     0
 77
     2
 78
   300
148
0.0
149
0.0
100
AcDbLayout
  1
Layout1
 70
     1
 71
     1
 10
0.0
 20
0.0
 11
12.0
 21
9.0
 12
0.0
 22
0.0
 32
0.0
 14
1.000000000000000E+20
 24
1.000000000000000E+20
 34
1.000000000000000E+20
 15
-1.000000000000000E+20
 25
-1.000000000000000E+20
 35
-1.000000000000000E+20
146
0.0
 13
0.0
 23
0.0
 33
0.0
 16
1.0
 26
0.0
 36
0.0
 17
0.0
 27
1.0
 37
0.0
 76
     0
330
1A
  0
LAYOUT
  5
16
102
{ACAD_XDICTIONARY
360
18
102
}
102
{ACAD_REACTORS
330
17
102
}
330
17
100
AcDbPlotSettings
  1

  2
none_device
  4
Letter_(8.50_x_11.00_Inches)
  6

 40
6.349999904632568
 41
6.349999904632568
 42
6.350006103515625
 43
6.350006103515625
 44
215.8999938964844
 45
279.3999938964844
 46
0.0
 47
0.0
 48
0.0
 49
0.0
140
0.0
141
0.0
142
1.0
143
64.78996994265674
 70
 11952
 72
     0
 73
     1
 74
     0
  7
monochrome.ctb
 75
     0
147
0.0154344877900864
 76
     0
 77
     2
 78
   300
148
-2617.719647371877
149
1317.048691221335
100
AcDbLayout
  1
Model
 70
     1
 71
     0
 10
0.0
 20
0.0
 11
12.0
 21
9.0
 12
0.0
 22
0.0
 32
0.0
 14
0.0
 24
0.0
 34
0.0
 15
0.0
 25
0.0
 35
0.0
146
0.0
 13
0.0
 23
0.0
 33
0.0
 16
1.0
 26
0.0
 36
0.0
 17
0.0
 27
1.0
 37
0.0
 76
     0
330
2
331
2D
1001
ACAD_PSEXT
1000
Kein
1000
Kein
1000
Nicht anwendbar
1000
Das Layout wird erst geplottet, wenn ein neuer Plotter-Konfigurationsname ausgewählt wird.
1070
     0
  0
MATERIAL
  5
40
102
{ACAD_XDICTIONARY
360
41
102
}
102
{ACAD_REACTORS
330
B
102
}
330
B
100
AcDbMaterial
  1
ByBlock
 72
     0
 43
0.0208333333333333
 43
0.0
 43
0.0
 43
0.0
 43
0.0
 43
0.0208333333333333
 43
0.0
 43
0.0
 43
0.0
 43
0.0
 43
1.0
 43
0.0
 43
0.0
 43
0.0
 43
0.0
 43
1.0
 77
     0
 47
0.0208333333333333
 47
0.0
 47
0.0
 47
0.0
 47
0.0
 47
0.0208333333333333
 47
0.0
 47
0.0
 47
0.0
 47
0.0
 47
1.0
 47
0.0
 47
0.0
 47
0.0
 47
0.0
 47
1.0
171
     0
 49
0.0208333333333333
 49
0.0
 49
0.0
 49
0.0
 49
0.0
 49
0.0208333333333333
 49
0.0
 49
0.0
 49
0.0
 49
0.0
 49
1.0
 49
0.0
 49
0.0
 49
0.0
 49
0.0
 49
1.0
175
     0
142
0.0208333333333333
142
0.0
142
0.0
142
0.0
142
0.0
142
0.0208333333333333
142
0.0
142
0.0
142
0.0
142
0.0
142
1.0
142
0.0
142
0.0
142
0.0
142
0.0
142
1.0
179
     0
144
0.0208333333333333
144
0.0
144
0.0
144
0.0
144
0.0
144
0.0208333333333333
144
0.0
144
0.0
144
0.0
144
0.0
144
1.0
144
0.0
144
0.0
144
0.0
144
0.0
144
1.0
147
0.0208333333333333
147
0.0
147
0.0
147
0.0
147
0.0
147
0.0208333333333333
147
0.0
147
0.0
147
0.0
147
0.0
147
1.0
147
0.0
147
0.0
147
0.0
147
0.0
147
1.0
  0
MATERIAL
  5
38
102
{ACAD_XDICTIONARY
360
39
102
}
102
{ACAD_REACTORS
330
B
102
}
330
B
100
AcDbMaterial
  1
ByLayer
 72
     0
 43
0.0208333333333333
 43
0.0
 43
0.0
 43
0.0
 43
0.0
 43
0.0208333333333333
 43
0.0
 43
0.0
 43
0.0
 43
0.0
 43
1.0
 43
0.0
 43
0.0
 43
0.0
 43
0.0
 43
1.0
 77
     0
 47
0.0208333333333333
 47
0.0
 47
0.0
 47
0.0
 47
0.0
 47
0.0208333333333333
 47
0.0
 47
0.0
 47
0.0
 47
0.0
 47
1.0
 47
0.0
 47
0.0
 47
0.0
 47
0.0
 47
1.0
171
     0
 49
0.0208333333333333
 49
0.0
 49
0.0
 49
0.0
 49
0.0
 49
0.0208333333333333
 49
0.0
 49
0.0
 49
0.0
 49
0.0
 49
1.0
 49
0.0
 49
0.0
 49
0.0
 49
0.0
 49
1.0
175
     0
142
0.0208333333333333
142
0.0
142
0.0
142
0.0
142
0.0
142
0.0208333333333333
142
0.0
142
0.0
142
0.0
142
0.0
142
1.0
142
0.0
142
0.0
142
0.0
142
0.0
142
1.0
179
     0
144
0.0208333333333333
144
0.0
144
0.0
144
0.0
144
0.0
144
0.0208333333333333
144
0.0
144
0.0
144
0.0
144
0.0
144
1.0
144
0.0
144
0.0
144
0.0
144
0.0
144
1.0
147
0.0208333333333333
147
0.0
147
0.0
147
0.0
147
0.0
147
0.0208333333333333
147
0.0
147
0.0
147
0.0
147
0.0
147
1.0
147
0.0
147
0.0
147
0.0
147
0.0
147
1.0
  0
MATERIAL
  5
A
102
{ACAD_XDICTIONARY
360
C
102
}
102
{ACAD_REACTORS
330
B
102
}
330
B
100
AcDbMaterial
  1
Global
 72
     0
 43
0.0208333333333333
 43
0.0
 43
0.0
 43
0.0
 43
0.0
 43
0.0208333333333333
 43
0.0
 43
0.0
 43
0.0
 43
0.0
 43
1.0
 43
0.0
 43
0.0
 43
0.0
 43
0.0
 43
1.0
 77
     0
 47
0.0208333333333333
 47
0.0
 47
0.0
 47
0.0
 47
0.0
 47
0.0208333333333333
 47
0.0
 47
0.0
 47
0.0
 47
0.0
 47
1.0
 47
0.0
 47
0.0
 47
0.0
 47
0.0
 47
1.0
171
     0
 49
0.0208333333333333
 49
0.0
 49
0.0
 49
0.0
 49
0.0
 49
0.0208333333333333
 49
0.0
 49
0.0
 49
0.0
 49
0.0
 49
1.0
 49
0.0
 49
0.0
 49
0.0
 49
0.0
 49
1.0
175
     0
142
0.0208333333333333
142
0.0
142
0.0
142
0.0
142
0.0
142
0.0208333333333333
142
0.0
142
0.0
142
0.0
142
0.0
142
1.0
142
0.0
142
0.0
142
0.0
142
0.0
142
1.0
179
     0
144
0.0208333333333333
144
0.0
144
0.0
144
0.0
144
0.0
144
0.0208333333333333
144
0.0
144
0.0
144
0.0
144
0.0
144
1.0
144
0.0
144
0.0
144
0.0
144
0.0
144
1.0
147
0.0208333333333333
147
0.0
147
0.0
147
0.0
147
0.0
147
0.0208333333333333
147
0.0
147
0.0
147
0.0
147
0.0
147
1.0
147
0.0
147
0.0
147
0.0
147
0.0
147
1.0
  0
MLINESTYLE
  5
4E
102
{ACAD_REACTORS
330
36
102
}
330
36
100
AcDbMlineStyle
  2
STANDARD
 70
     0
  3

 62
   256
 51
90.0
 52
90.0
 71
     2
 49
0.5
 62
   256
  6
BYLAYER
 49
-0.5
 62
   256
  6
BYLAYER
  0
ACDBPLACEHOLDER
  5
7
102
{ACAD_REACTORS
330
8
102
}
330
8
  0
SCALE
  5
52
102
{ACAD_REACTORS
330
49
102
}
330
49
100
AcDbScale
 70
     0
300
1:1
140
1.0
141
1.0
290
     1
  0
SCALE
  5
53
102
{ACAD_REACTORS
330
49
102
}
330
49
100
AcDbScale
 70
     0
300
1/128" = 1'-0"
140
0.0078125
141
12.0
290
     0
  0
SCALE
  5
54
102
{ACAD_REACTORS
330
49
102
}
330
49
100
AcDbScale
 70
     0
300
1/64" = 1'-0"
140
0.015625
141
12.0
290
     0
  0
SCALE
  5
55
102
{ACAD_REACTORS
330
49
102
}
330
49
100
AcDbScale
 70
     0
300
1/32" = 1'-0"
140
0.03125
141
12.0
290
     0
  0
SCALE
  5
56
102
{ACAD_REACTORS
330
49
102
}
330
49
100
AcDbScale
 70
     0
300
1/16" = 1'-0"
140
0.0625
141
12.0
290
     0
  0
SCALE
  5
57
102
{ACAD_REACTORS
330
49
102
}
330
49
100
AcDbScale
 70
     0
300
3/32" = 1'-0"
140
0.09375
141
12.0
290
     0
  0
SCALE
  5
58
102
{ACAD_REACTORS
330
49
102
}
330
49
100
AcDbScale
 70
     0
300
1/8" = 1'-0"
140
0.125
141
12.0
290
     0
  0
SCALE
  5
59
102
{ACAD_REACTORS
330
49
102
}
330
49
100
AcDbScale
 70
     0
300
3/16" = 1'-0"
140
0.1875
141
12.0
290
     0
  0
SCALE
  5
5A
102
{ACAD_REACTORS
330
49
102
}
330
49
100
AcDbScale
 70
     0
300
1/4" = 1'-0"
140
0.25
141
12.0
290
     0
  0
SCALE
  5
5B
102
{ACAD_REACTORS
330
49
102
}
330
49
100
AcDbScale
 70
     0
300
3/8" = 1'-0"
140
0.375
141
12.0
290
     0
  0
SCALE
  5
5C
102
{ACAD_REACTORS
330
49
102
}
330
49
100
AcDbScale
 70
     0
300
1/2" = 1'-0"
140
0.5
141
12.0
290
     0
  0
SCALE
  5
5D
102
{ACAD_REACTORS
330
49
102
}
330
49
100
AcDbScale
 70
     0
300
3/4" = 1'-0"
140
0.75
141
12.0
290
     0
  0
SCALE
  5
5E
102
{ACAD_REACTORS
330
49
102
}
330
49
100
AcDbScale
 70
     0
300
1" = 1'-0"
140
1.0
141
12.0
290
     0
  0
SCALE
  5
5F
102
{ACAD_REACTORS
330
49
102
}
330
49
100
AcDbScale
 70
     0
300
1-1/2" = 1'-0"
140
1.5
141
12.0
290
     0
  0
SCALE
  5
60
102
{ACAD_REACTORS
330
49
102
}
330
49
100
AcDbScale
 70
     0
300
3" = 1'-0"
140
3.0
141
12.0
290
     0
  0
SCALE
  5
61
102
{ACAD_REACTORS
330
49
102
}
330
49
100
AcDbScale
 70
     0
300
6" = 1'-0"
140
6.0
141
12.0
290
     0
  0
SCALE
  5
62
102
{ACAD_REACTORS
330
49
102
}
330
49
100
AcDbScale
 70
     0
300
1'-0" = 1'-0"
140
12.0
141
12.0
290
     0
  0
TABLESTYLE
  5
4F
102
{ACAD_XDICTIONARY
360
3CE
102
}
102
{ACAD_REACTORS
330
4A
102
}
330
4A
100
AcDbTableStyle
  3
Standard
 70
     0
 71
     0
 40
0.06
 41
0.06
280
     0
281
     0
  7
STANDARD
140
0.18
170
     2
 62
     0
 63
     7
283
     0
 90
      512
 91
        0
  1

274
    -2
284
     1
 64
     0
275
    -2
285
     1
 65
     0
276
    -2
286
     1
 66
     0
277
    -2
287
     1
 67
     0
278
    -2
288
     1
 68
     0
279
    -2
289
     1
 69
     0
  7
STANDARD
140
0.25
170
     5
 62
     0
 63
     7
283
     0
 90
      512
 91
        0
  1

274
    -2
284
     1
 64
     0
275
    -2
285
     1
 65
     0
276
    -2
286
     1
 66
     0
277
    -2
287
     1
 67
     0
278
    -2
288
     1
 68
     0
279
    -2
289
     1
 69
     0
  7
STANDARD
140
0.18
170
     5
 62
     0
 63
     7
283
     0
 90
      512
 91
        0
  1

274
    -2
284
     1
 64
     0
275
    -2
285
     1
 65
     0
276
    -2
286
     1
 66
     0
277
    -2
287
     1
 67
     0
278
    -2
288
     1
 68
     0
279
    -2
289
     1
 69
     0
  0
VISUALSTYLE
  5
2E
102
{ACAD_XDICTIONARY
360
3D9
102
}
102
{ACAD_REACTORS
330
2F
102
}
330
2F
100
AcDbVisualStyle
  2
2dWireframe
 70
     4
 71
     0
 72
     2
 73
     0
 90
        0
 40
-0.6
 41
-30.0
 62
     5
 63
     7
421
 16777215
 74
     1
 91
        4
 64
     7
 65
   257
 75
     1
175
     1
 42
1.0
 92
        0
 66
   257
 43
1.0
 76
     1
 77
     6
 78
     2
 67
     7
 79
     5
170
     0
171
     0
290
     0
174
     0
 93
        1
 44
0.0
173
     0
291
     0
 45
0.0
1001
ACAD
1000
AcDbSavedByObjectVersion
1070
     0
  0
VISUALSTYLE
  5
50
102
{ACAD_XDICTIONARY
360
3DB
102
}
102
{ACAD_REACTORS
330
2F
102
}
330
2F
100
AcDbVisualStyle
  2
Realistic
 70
     8
 71
     2
 72
     3
 73
     0
 90
        2
 40
-0.6
 41
30.0
 62
     5
 63
     7
421
 16777215
 74
     0
 91
        0
 64
     7
 65
   257
 75
     1
175
     1
 42
1.0
 92
        8
 66
   257
 43
1.0
 76
     1
 77
     6
 78
     2
 67
     7
 79
     3
170
     0
171
     0
290
     0
174
     0
 93
       13
 44
0.0
173
     0
291
     0
 45
0.0
1001
ACAD
1000
AcDbSavedByObjectVersion
1070
     0
  0
VISUALSTYLE
  5
51
102
{ACAD_XDICTIONARY
360
3DD
102
}
102
{ACAD_REACTORS
330
2F
102
}
330
2F
100
AcDbVisualStyle
  2
Wireframe
 70
     5
 71
     0
 72
     2
 73
     0
 90
        0
 40
-0.6
 41
-30.0
 62
     5
 63
     7
421
 16777215
 74
     1
 91
        4
 64
     7
 65
   257
 75
     1
175
     1
 42
1.0
 92
        0
 66
   257
 43
1.0
 76
     1
 77
     6
 78
     2
 67
     7
 79
     3
170
     0
171
     0
290
     0
174
     0
 93
        1
 44
0.0
173
     0
291
     0
 45
0.0
1001
ACAD
1000
AcDbSavedByObjectVersion
1070
     0
  0
DICTIONARYVAR
  5
3CC
102
{ACAD_REACTORS
330
3C7
102
}
330
3C7
100
DictionaryVariables
280
     0
  1
1:1
  0
DICTIONARYVAR
  5
3C9
102
{ACAD_REACTORS
330
3C7
102
}
330
3C7
100
DictionaryVariables
280
     0
  1
STANDARD
  0
DICTIONARYVAR
  5
3C8
102
{ACAD_REACTORS
330
3C7
102
}
330
3C7
100
DictionaryVariables
280
     0
  1
STANDARD
  0
DICTIONARYVAR
  5
3CA
102
{ACAD_REACTORS
330
3C7
102
}
330
3C7
100
DictionaryVariables
280
     0
  1

  0
DICTIONARYVAR
  5
3CB
102
{ACAD_REACTORS
330
3C7
102
}
330
3C7
100
DictionaryVariables
280
     0
  1

  0
DICTIONARYVAR
  5
3CD
102
{ACAD_REACTORS
330
3C7
102
}
330
3C7
100
DictionaryVariables
280
     0
  1
2
  0
DICTIONARY
  5
3D8
102
{ACAD_REACTORS
330
3D6
102
}
330
3D6
100
AcDbDictionary
281
     1
  0
DICTIONARY
  5
3D7
102
{ACAD_REACTORS
330
3D6
102
}
330
3D6
100
AcDbDictionary
281
     1
  3
2337992976
350
3D1
  3
2337992992
350
3D2
  3
2337993008
350
3D3
  3
2337993024
350
3D4
  3
2337993040
350
3D5
  0
DICTIONARY
  5
B0
102
{ACAD_REACTORS
330
AF
102
}
330
AF
100
AcDbDictionary
281
     1
  0
DICTIONARY
  5
B8
102
{ACAD_REACTORS
330
B7
102
}
330
B7
100
AcDbDictionary
281
     1
  0
DICTIONARY
  5
BE
102
{ACAD_REACTORS
330
BD
102
}
330
BD
100
AcDbDictionary
281
     1
  0
DICTIONARY
  5
C5
102
{ACAD_REACTORS
330
C4
102
}
330
C4
100
AcDbDictionary
281
     1
  0
DICTIONARY
  5
13E
102
{ACAD_REACTORS
330
13D
102
}
330
13D
100
AcDbDictionary
281
     1
  0
DICTIONARY
  5
1F0
102
{ACAD_REACTORS
330
1EF
102
}
330
1EF
100
AcDbDictionary
281
     1
  0
DICTIONARY
  5
18
330
16
100
AcDbDictionary
280
     1
281
     1
  0
DICTIONARY
  5
41
330
40
100
AcDbDictionary
280
     1
281
     1
  3
BUMPTILE
360
42
  3
DIFFUSETILE
360
43
  3
OPACITYTILE
360
44
  3
REFLECTIONTILE
360
45
  3
REFRACTIONTILE
360
46
  3
SPECULARTILE
360
47
  0
DICTIONARY
  5
39
330
38
100
AcDbDictionary
280
     1
281
     1
  3
BUMPTILE
360
3A
  3
DIFFUSETILE
360
3B
  3
OPACITYTILE
360
3C
  3
REFLECTIONTILE
360
3D
  3
REFRACTIONTILE
360
3E
  3
SPECULARTILE
360
3F
  0
DICTIONARY
  5
C
330
A
100
AcDbDictionary
280
     1
281
     1
  3
BUMPTILE
360
D
  3
DIFFUSETILE
360
E
  3
FBXASSET
360
F
  3
OPACITYTILE
360
10
  3
REFLECTIONTILE
360
11
  3
REFRACTIONTILE
360
12
  3
SPECULARTILE
360
13
  0
DICTIONARY
  5
3CE
330
4F
100
AcDbDictionary
280
     1
281
     1
  3
ACAD_ROUNDTRIP_2008_TABLESTYLE_CELLSTYLEMAP
360
3CF
  0
DICTIONARY
  5
3D9
330
2E
100
AcDbDictionary
280
     1
281
     1
  3
ACAD_XREC_ROUNDTRIP
360
3DA
  0
DICTIONARY
  5
3DB
330
50
100
AcDbDictionary
280
     1
281
     1
  3
ACAD_XREC_ROUNDTRIP
360
3DC
  0
DICTIONARY
  5
3DD
330
51
100
AcDbDictionary
280
     1
281
     1
  3
ACAD_XREC_ROUNDTRIP
360
3DE
  0
XRECORD
  5
3D1
102
{ACAD_REACTORS
330
3D7
102
}
330
3D7
100
AcDbXrecord
280
     1
  1
AcDb_Thumbnail_Schema
102
{ATTRRECORD
341
3D2
  2
AcDbDs::TreatedAsObjectData
280
     1
291
     1
102
ATTRRECORD}
102
{ATTRRECORD
341
3D3
  2
AcDbDs::Legacy
280
     1
291
     1
102
ATTRRECORD}
  2
AcDbDs::ID
280
    10
 91
        8
102
{ATTRRECORD
341
3D4
  2
AcDs:Indexable
280
     1
291
     1
102
ATTRRECORD}
102
{ATTRRECORD
341
3D5
  2
AcDbDs::HandleAttribute
280
     7
282
     1
102
ATTRRECORD}
  2
Thumbnail_Data
280
    15
 91
        0
  0
XRECORD
  5
3D2
102
{ACAD_REACTORS
330
3D7
102
}
330
3D7
100
AcDbXrecord
280
     1
  1
AcDbDs::TreatedAsObjectDataSchema
  2
AcDbDs::TreatedAsObjectData
280
     1
 91
        0
  0
XRECORD
  5
3D3
102
{ACAD_REACTORS
330
3D7
102
}
330
3D7
100
AcDbXrecord
280
     1
  1
AcDbDs::LegacySchema
  2
AcDbDs::Legacy
280
     1
 91
        0
  0
XRECORD
  5
3D4
102
{ACAD_REACTORS
330
3D7
102
}
330
3D7
100
AcDbXrecord
280
     1
  1
AcDbDs::IndexedPropertySchema
  2
AcDs:Indexable
280
     1
 91
        0
  0
XRECORD
  5
3D5
102
{ACAD_REACTORS
330
3D7
102
}
330
3D7
100
AcDbXrecord
280
     1
  1
AcDbDs::HandleAttributeSchema
  2
AcDbDs::HandleAttribute
280
     7
 91
        1
284
     1
  0
XRECORD
  5
42
102
{ACAD_REACTORS
330
41
102
}
330
41
100
AcDbXrecord
280
     1
270
     1
271
     1
  0
XRECORD
  5
43
102
{ACAD_REACTORS
330
41
102
}
330
41
100
AcDbXrecord
280
     1
270
     1
271
     1
  0
XRECORD
  5
44
102
{ACAD_REACTORS
330
41
102
}
330
41
100
AcDbXrecord
280
     1
270
     1
271
     1
  0
XRECORD
  5
45
102
{ACAD_REACTORS
330
41
102
}
330
41
100
AcDbXrecord
280
     1
270
     1
271
     1
  0
XRECORD
  5
46
102
{ACAD_REACTORS
330
41
102
}
330
41
100
AcDbXrecord
280
     1
270
     1
271
     1
  0
XRECORD
  5
47
102
{ACAD_REACTORS
330
41
102
}
330
41
100
AcDbXrecord
280
     1
270
     1
271
     1
  0
XRECORD
  5
3A
102
{ACAD_REACTORS
330
39
102
}
330
39
100
AcDbXrecord
280
     1
270
     1
271
     1
  0
XRECORD
  5
3B
102
{ACAD_REACTORS
330
39
102
}
330
39
100
AcDbXrecord
280
     1
270
     1
271
     1
  0
XRECORD
  5
3C
102
{ACAD_REACTORS
330
39
102
}
330
39
100
AcDbXrecord
280
     1
270
     1
271
     1
  0
XRECORD
  5
3D
102
{ACAD_REACTORS
330
39
102
}
330
39
100
AcDbXrecord
280
     1
270
     1
271
     1
  0
XRECORD
  5
3E
102
{ACAD_REACTORS
330
39
102
}
330
39
100
AcDbXrecord
280
     1
270
     1
271
     1
  0
XRECORD
  5
3F
102
{ACAD_REACTORS
330
39
102
}
330
39
100
AcDbXrecord
280
     1
270
     1
271
     1
  0
XRECORD
  5
D
102
{ACAD_REACTORS
330
C
102
}
330
C
100
AcDbXrecord
280
     1
270
     1
271
     1
  0
XRECORD
  5
E
102
{ACAD_REACTORS
330
C
102
}
330
C
100
AcDbXrecord
280
     1
270
     1
271
     1
  0
XRECORD
  5
F
102
{ACAD_REACTORS
330
C
102
}
330
C
100
AcDbXrecord
280
     1
 70
     1
 90
1959938040
 71
     1
  1
85222250-3C87-4E71-AE15-2B44F8BD2B38
311
504B03041400060808005A579C4402AF3C2FD7000000200100004F00000035453142344239322D444630432D343533322D383742452D4439453831313743333342452F4173736574446174612F446566696E6974696F6E4974657261746F7250726F706572746965732E62696E454E4B4EC33010352C402CBAE006BD8071FC
311
535C2454E1C465D50D1C004DD3A18DE424559D88252C39331B188BA28EF4E6CD7FDE1763ECE76414B20BC227F919F113F6786C9B97668F1DB0AB5C89C306E2F5B97749614E6B7C83298E796BDDA60663841E8729DD9E47E71D8C740EE25D5EBA21FC1752BEB0FB7B96FFBF13B2A4CCB03DDC2F21251C1F840DD21BBF50BC5E
311
151537562BEE4A1F78BD084ECAB2D2DA07F18C69988E0D26E1AC22B305D7952BB909A5E48F415AAEBC312BE76BE5B513E37EEA363DB45114E224E1F5D0EFAAD9F7C732ABF805504B03041400060808005A579C447FF37C0AFE000000300200004500000035453142344239322D444630432D343533322D383742452D443945
311
3831313743333342452F4173736574446174612F496E7374616E636550726F706572746965732E62696EEB606060F80F0540260323103700495E20ED9E9A975A94991C9C9C919A9BA80214B03035020253035D63670B735D135773435D475743535D23271313370B27172327630B7684469016634313175723534B5D531313
311
635D133323435D273727175D43736303673367674B47574BA032B0BD0C9A31FD87BE6A5CB107D24C40B1062086F1C134900F041FEC21AA1918041C1804C0426042C501C1C6CA026A84003803AB32A0205CC1076620AF0188A15A1F40691EA0102600852342066E0886C2949D0E18622802985A41466B20A9F960CF02E48162
311
8B0F8883CB134B9233749D8A12F3525253403220F5400A0E407C0E8857C0BA74A132DC7015A80C5CFA01504B03041400060808005A579C4488E57597CD3F0000904100006B00000035453142344239322D444630432D343533322D383742452D4439453831313743333342452F5265736F75726365732F3835323232323530
311
2D334338372D344537312D414531352D3242343446384244324233382F7468756D626E61696C2F302F67656E657269635F706E67355B773CD4FF1FBF73E71C0E67EF7576C9DEF3EC995D46C6A1EC5046649CBDF79E192942562825CE965D8A868C2842C8DE9FDFD1F7E7F138F7078FCF6B3F5FCFD7EBFDFEC41B1968919130
311
91804020321D6D7513FC77D8C5070EC3FFEE51B21F068154CC75D455CC028A3EA68992803810109FDDE5D5CEC5521B28A1B422BF80741695D5B529DA1C2D058AD2388BDA9F476F7C2CADC939304173DBF48A452BF8A700C0C70C3D121C1AA15A5270C22E2B9E28763651F7DA0D12CE11077B2ECD0D560B5E3DE2368B1E65C5
311
E1C87384A4CC5F2D9FB8BE39E9B77C753783A37998F5CEF1B4FEE553463245C9712270880DF339E0B882A6BA713D865F6F384C842D440934EF264F4A304F8DE4EEFA1E2BF5E2D91F5ADD9613D6E31DDB33ED31DB1D7916CAF091286EA3D31B9CFECB78BB0060245B943C4C040119FF780A74DD308BA9D028678674EB5504EC
311
F284EE814DAED07440BAF649BE4B55DA2890F4D73E2D489A59EE54FDB0A85B59F2F52C4858A02705C4815A792B0C4A996A2023ECB195073E115E3E3647F64243A8338F2000BCB58DA5692C7E7C3D413F963FEDF3CF00FBB0F831A9D51360FECA43819F527B89FA260EB63C5DA676830AA3626A3693B23F1A17A0DFFCE3EE16
311
4E31B5365EDF0C89EF64D8E38AB0BA9A1117D7C3A0EC44F44F4023095E80BA610DE336D0F99593A88BFC5306E72DF98F7FD132ED95878DF2964EA7E43071359FD83B2BDF9C6B5BDF768F0F3C0FC351199526F53D9460A34511F75D1B63E488178569472C91A94497807A3FD4A390C6558F26D416365C3656DE6E769DA9D8FC
311
73774E1709812842DD8EF96AED1960F79D21B395CDDFE6F92CB4EB962A4668C76990E2EF29798C8941D67DA50F4A5F947872460F1F6FDB794E8A29FD7AC0C0D6E0714339CE258FB17AE8535221E3464A10F29A0BE5EEECEFC5675926A89F49EB14E5711894F6586DB5754EB4D5DA9C6437EBA57DB97A24F8B8A8DB295FFD73
311
266CF57E82694DF5166DDF93573AFE9C9C5EB05F8FEF8E89E0A8917B0B3724DB7BEBB53252581EFC3E38166BA131A3A5B42FE2AD00A769BBFA4458D2DE7822F8C4F63D0B8E21B285AE13325F3410A435C648C9D91FDEB109E73CEDA7BC796961AF79175E1A3CE4C5E8B0D009B0C9E29EFD98BC8E97554E3D8D838424E270F7
311
685226E5AC268E021EDE3522D583E8F20C0BDE2959EF5BBFEEDAB32FE9A3ED0E39F211A86AA9DEBFC68182EDED132AB8BB794442D2D7EA9F4D8BFF52BC4D55BB165124EE90A42D101E67BBBB292FFB4F66DE5BF2300E44546757DA7CEF8932BFC9F92A0707953491A55C5A5ACEDABD9FA1AEA01BAC3DC5A24E22E7C4721349
311
3996EFBC369D086ED9397C9BA6C7F9855C7BD5E15BFC8C53DB3D2A4C5901A57ACD2FBDF4D1676E95338B2C2BCE65FDA4C64F5FEFDC7D9CA5AA1FCF11E193F2FDABF0F4916BF13FB916A224380E6462A9815F2300DC49CC4DF8D055CEF76462F4B7A7ACA7365C2707891370BC1D0AA6203C44CCAB47084FEC057F27FFCD57F8
311
9B8B9852459798A675C66BD7CE572CAF71FF7E6D7ECF7BF62CAB7B3F1107DCD04DC55A3F9961700286141C94A4F771FEB2BCDA2DDEE0CB0BAE402FF1DB0100F8E475DFFFC074DDB4498AB7D186A7654DDB1CB680D703D47CEB4E72F8CB13D86A4AA68116E26387B93FD6738779B34FEDB8E517EDF2BAF28D9BE93A1D3A1643
311
20E07D42E514725C29515FF361754213EDE06B079A2E99EB1CA82A02019EADEEB87B9AF005BD04BBCECB14AACD6B24EFBE482194A97DD32400685FF1FEF1544D1B14EFB1E7F08E6D2CD2AF52DE757F35F5E62332EE88EA26417AD5C3E0E319D68F25414E6D672BD4522B278C57D18F0113921C71D96527E091F00CEB15AE23
311
D24667369BD3CEFA10C7549D930890BA4366F4EBC55F01F746109F98ABCDD5A3EE06619C6AD78AB33E48E4C9BD21BF7478B385EC05C4F8987E2C1BFA0A60EBEDAA0AE0B015C2720ECE180FB6F2DEFBEB822D96338C9B63822183BBF52FB664A7AE57003AABCE512BF77E7E31BDA2E739AC4C131657DDFE5225E900FB56CC01
311
CDE808FA4A9C9DA16AC679656BB64796283D89812B8F91136AE18EE5EBBAF47A73BE3C153EB5D4CD491B4BFB4FE690A4CF9ABA08C0D8AA64220C438C96EA6CA80B58FE5761E697B3A292EB9FBDA502FA863E49FE694ADDFFF9D62C520BDD1A22014147A0903A05B9B729F54272EF83931FEEC057BFF8C8055C279EAC5C0011
311
804828734024F6CFA319C9CC6867C727184465CD9BB7ED386AFFD96B294A85E3802FAE47244602D8273615952B98C4F23F7EAE4463D9D638EEE374A20959E0FE519C4CFB0FBFE5DD80C2AA3F9DB961D1BDE57E67C9BB47B77FDD74EE3094F5DBBE3EBC1FBDB7393F5116263009E2EFE1AF9A221B2AE234C902BF70E9F280ED
311
23E73908361565964333A3F01D0B006AF32FB21AA1316744B489D5A198E85299241735BE559675130955C902A8ED761FC0DBE337A9F91919AF5CE32AF902ADF9AB2615E00E8A94586BA1A90839B61832FF1BFB76D2EFADE6DB1BA04CCAD3DA649E7E2A0219F592E22F2AD54847EEA8E42271011E9074F8F3DD9FBA6CDF88FF
311
C9FC7E811AD1CA8F4557CE4AFC7BBEDCF0114A48689F20A584520C74DA8127124B767E2FB91A6B186246727BE63C9445BAE02088D58B8EFDC0F1072407CD9B89A13F6303B4A928F593AD489B58E6869325790ADC406036C591729FE14021F94B7796BB11848D463536A092A26F077F94639F7CEEE2A724C66EC885F4A24F8B
311
8A0AC321F8FD149BA529460FAA34E4663C02D41FDF80BCA222D42F0ABFF8490F4FA74C673807C2051D8E467B47B616072860069A9A303ABA9B319D58404461401B0A0F9BE5E1E151C14BC33B32ABE03DDE91708DFAEB15E7C0D593C86BB7D7EC17BE56E57975F077BFD5525F3A1A361D584A75E08CF29FC7B44B2B3085014F
311
3A5A14517377C3F6B8F37E59514C3B12F8AACDEDDA4DFC49BE5710101534CD6FB6DE15B50F11A09472AABA727F0C49D9CB906B158030065F48EB3625E010CEC1D511D0053474B11E6A4F01C0D6EF1BED3A944FDEC70E0DDCDC756C86545910E0DAE3BE3AA9A404574C2995CD5CAF9549226BC94B4F4F0F5F9086F418F6B323
311
46464610D8BC7391D3C3A3CCF04CFC1FB2A3A3170E369511868F14EEA4E5E438CC73DB1F3248AA94B6B2FF33B222FF3D1E7BF146CAD229770158063BCE4F5391964DF62F7E52A7BE0EEA829C9E13C4C147D6F93FE59E111DAB5E4594D6F3CD1AD375EE039930EFE5AF2BB2D41C83C7DABD8C659BAFBE8FAB392CA634F3D15C
311
1D945DB4588D2B0824A4EC928AAC565557CA2F0DAA588CA5BE30B3A8004F7BF005E96CBF891D7F18112A3619FDF530DC8AA64954258E1811789B5189B49B4EB53F5F89F7D37523894F3EB57B373763C91E502F52CC99EB7BDDF933FC324C4FFC2561DFFA7339FAFDD0A4BFBE6D3A8FF9ED1FC4989813986460245896891318
311
1918F719CCF5A68B2EE9C1FF050E34E63107003B8120FA982C21B30A874E4F5E4B38D5A8290C4B8D9BE48A0BE31EA995BDC37AC6DE90BA17D259DEF53605D55922FEB1855D915B659FBEB350EE0DFB2F9F766E1C84CC8964B75D08667445EAB966015F63A18A9E0A325C1B3DC628C0D3CB60F767FA93CC65F25458BD23C3B3
311
12716E5F40E5858AC06EBA9AB14F95DB99147B832069201541D09A0D856E12C629CF32683760EE855537D1901988D5EBC156676C7DD51D7207CF3267AF1D76C2AD867315E44618015313A98B19941C696FED3461CAA9B5415F918556D7802EDACEFD6B2E45853A9735DFC9DBF7E440F9319F8B6805A973BCCDC76C069A9144
311
E51F187EDCC12FC31B5DEAAF0A76137199B106EC84ADA6B6EE697D4E6A96E007417F4E880E8B1E89B4BCE9D81EF611E2ED8F0C1A6C25F620FAFAAB656A7C42D464880E8AFAB0E0FC8EA38CA9A8AEEAEE3E4648BA4680270A89743CDD3E6C6CBF34B7B640EFA285ABC7EA0A1E28F3CC963D114A80123EE66D0AF7D5380EB419
311
09B605AB4765B709B808590458157E69BA1378FEC4B48CAF6A730E3BE3C5EF2DD1A5EAF94B1DDE50CEB55DDFD7EE9A16747FA4B223359FB1FCC69E1194892BABB93A1D5C4E807AC0EA2E30180811E77A2291F6E7F7FAA5E0F60215BC6024E48DE436C511F0628B8CA189982D4D83CCA17D305A7E923C37941CFDFDCD93ACAF
311
735EF5F0E61BBD3E6C41A59B242790D3A3BAC7064DCD89AA2E37214EC839820949D5CAA31E240D2948E48F690298974A96BA9A8432BC90F5071D6537C9666EA4564796B7AFFFA548077BEEA75F63083435074BA182F3699557397F71548383FDA8CA34D99B981E72835ECDA5DDDC151315173D05A21F651AAF8524E88209E2
311
E7A737ED1045800CE3390050BCFB8BE588DF111617874C62575039CA588EEFDEFEFE319B739DE2EDC147092A262611E159650E787917885EF08F1F51B8F2D8A71D60B58B190FEF9541A1BE94BC19FEA50784DA1419FE4B0FB51B8D36B5FF8E1286FD8AF42B91E59A5F1CC4D60174E764045FD8C57B18209B217F89A62252BD
311
20BE0E63E12B8E8F029FE19E0E8D0870F58721A557082250D5424F7909369376E41666C0EE77CD87CB283F661D5FB6D0DA023CB67320A20DC7BE661E9E1BFE5463085C557DA1FF9BE835733766C3D139F2CF9E2208873AD0EB4814DE9E6BF2CAF81614D4D43906ED1C05A3265CABBFE192770FC2F64F940CB6B17B5F166F13
311
3C9AEEAD2641807C3E69515171DD74C4A85311513D6EC9530B3B601B6BA3EBFF3B5C3D2F7D69765141E345F75433953D013ADDF8F6AA7DC3F4A7563FE5C7D367937E2900D7EAD0F9FC9A4A1A9B5BDF1FEF08532660C01C5D6DE22199AA774383E306DAB87E301ABB7D213887F9869D4942D0D71E94B27EDF216A318BD488D4
311
5DF84529EF575AF3C3938C0AAA0215B01994153E2054A0B894DA5C784980633AAD48576957CF4AEAEAFADC7C587368551C73DBE1E57C58AC713303A8BFC258BD04B51724459FF9E24C03A81E0E0679CEB9B348C0DC998FEB9C6D6EFA77D247CC8F92D3848599ED89A23218D0636465AD1CEEB7DC140D7426F83491C4E8E828
311
1C2FB35240918FFECE880CA2A42D70E8B20B34DF5221C7DB0CF90ECCB9C745B37A47E9B716FF7A97B7A252C1F3814DC7B1E1A7F72B8751D524EF7CAE45B0C73B3BE7D08ED39781B380DDFC9AA4A4749C9493DB5BAD07A6EA6C092FBD0E85DB004DF06B8C9D3089C5320187E4CE1846158C7EA7DDAE8AD9AFFF21AA3A1026BB
311
06A259845E8232DEE62811A4DA9CEAB3A4887320B76E2AE5615EAB7BDF738CBDD01F1E64064BC13D9EC53576751CA8CACD58B3CEB0E6CA585BD089B2A59B9FC101403387AADBDBE70586B93D64BF3AD4453EF9C3B6A93817E8346991798601344F79A83C51F3D50F7BF2683A3605F51A72449489E0EE6169C749C60B103565
311
1103AEE24D24E51A759C840DD3FC6504DA6FE107510E447B43461C79D22970B75DE5E1BD3007D1AFC619A4A4A69B5626AF5E9B8374E20677F77E2F8E73DF868E8BEC7EBA7B6A75EEF7205E1AB9486CB642741D6E03FF13FCCEDB1C4AC129886268B01CDF4B124AF797CF784F3C6DEC97A17D4B558070A0F1C04DA4FF9BDBF3
311
4159AEFE958479824B3F58EBD1E19088A2AFDE501B6F2052368A3FD0E650A179EFAB1561E1D27527077136E652676C3670F42DCB3352F48F6BC86D2C3B0051727E41A0A4DC6CE2BE9D47F5CAA2935A3C0539AF080665997194ABECD723B08129CC5B6B21D2E7D54CD4D12610E7E9FB8306771A89576C7A982002775ED44F3F
311
744CF21EEBB27A631671D921938AAEE3EB0D19CD1E083727F607823E817BF599DCED5394E37EEBC2E88782E638920CA641EF74D4CDFCDEF06F4278ECB18E31E7E9876F2D783C8BF429C75395F57E98C2B495A3DA077EB3AC3C158608B6B57FE3EA48484D9A480096FCEE0DE880950E7E5A5714131C5C41AAA29FD19AE81AC1
311
45FA1B9E85C7169A5AB837B213493DF7E9AA4B5FBF9CDEB36EBD21EF1181B7CF7366AB2A951D01E37AF4EB835D1BE8C117CFBE7625D2EBCDB0B20C5A4B45CED0BCDE3EE8DA9DA78C2E21DEAAFFD1197E463C33CC6A80FB785669B856EFF7A8CCCA2841B5A5369173320B1170C368B2748D81062EA0296E5E2D95D7667A4A46
311
D98A6FF475C76AAB0A8C8D45E226FAFC9FE0133EA9F60111F99CA81ACE03A1D14C89E8B0D69079C91464FA1D99E651D0EAF606F345C42A8A1AA9BA391031582B96D5B4176A77AADB01F12FD298A75DEEBB2C82F0B8650E880722F8DDD90C56A7A058E5FDEF1AC93545BA27367C76F5D8F9690CB6F8DAE141EDD7971F0FB548
311
A2AE435F224D6E5954CA155512F7332029D5A1230854B79F258EC5FFDB09F5F6343A8EB193229B7F7E79B3E48F8E183860B38C8269D1B53738FF1E0BACF6AADA6D4869E9DE708E79B5DADCC09B1BC76F649731CFAF59A83FD8BAE4C749D66FA87A3810D4D62FFE826FA400C0F325D2BC0F3CA35F5847B82A2ACC7961745C82
311
3E4D863D54460AF792CE6F79B5C7A33B25C3AEA6CDE15A919B6367D781E9D44F61BF828672594A3E1D9EDD6DF179A81F27EAC05B936575D73E05C209DDD2115CFB705DF9BBF3C911589B3640735E9E618FC9C36A7326C82B2205E244C55D56FDB9D5DC93CE958D4BF8174D2B3DA54CB3C09F2C2A6DFF73D23B2197355761AD
311
421EC581284A7EF8DE2CE3497C0C804D49B41DFD6A7360844E5BEFFB495CFCDB97A4595911CDBA623274CE852B5E278AF0BEB1770E9D37CD977B2766A7DED0E94B840E1E95E8C77DE5CB6354AF7871427C28ADBEEF7BA0A28E19DE9ACD75F379FE373EAE6DDDAE3834692F9C2B03B4FCA8FCA9ABE8EEEBEBB725B88A7C9094
311
1E850682CA04061A7DF0CE82ED49BFAFFD42C309818FAE14755CAAE78B0F73243ECCCAD7DF58FCB9CDFAE7A4D3E6671A613639130D056C8383C8F4FCF4808C331E544DD26E4755D09EA05253B3049A1E32587CC25D72E073E2CD96D04A71BBCB0038FEC3F53D254199C3CDC67CD66640269431860225392B2CB3ECD0B4498A
311
AE78BA1994246AE1EE78F2EDFB79F6C6CB6B5E279C4D373FBC21CB2698C9ACBBEB6A4BB6B39E16AB0E421CCBFC7654D81ED86022F9BB522146F9F4772E2D0E4FA70120C95A85A417BF5078B232F4754363EB1750B2AC2148EB46B1EA72AD9B4D23ADCBC589D70106C3EC2ABEEED84DFE28E718C6C83502C28E9FDD3B09DA0A
311
6F6F7B72B706A31C9E2A331EE70DA56A083D2177BFD63C55B11D8D949FAFCF90B23A1E24B9B5018B9A17E99F2890EC302F330FE7936E2C23F0D237EC8916F5166AB84B62A21BB0B950146962D754F92CC2C8877BED8FC7B7B25726DD19545392570B3A2C66B58F027BEF412E552D12A588C4A3CC5C3193FCB3485EFFF700D0
311
B9EEC077754A33DC1FB9E25AF814628F91DDFECB667D3F7690803F38D13F8AE39353523BB08FC6760144AFA2CE28236F65EDBB3D5F59A57D612B99E3D7E5F8A851666BF9B5A6658EFC96EEB37A378ABB0EB3FDDF1303AF32C41BD1C8560745D7BD81066B0D6313359CF488563D3BA3F8E2185D1FAA3EBA1397C9D0E3DD2321
311
80A4DCADB6AF25DB3AC3CC26589C8239E66E81547BC7E2F328F9884764CA37EB5DBE390DFC03A5246B456A7C3684C4377D0EEF9A350680FA9A077E8B2957B489E09AB1AD41316944C2254B5984830F691C93CAA767EECF976FA5647538830B5E63236A6F0365C1E0F3E327F24FE35EDDBD7360B0F7374837409F7A6311BECC
311
12B7026D4FA1AE204FA3F5FE904B1F420C7A9044AE58E403E7C4848E7DA25DC9EDAC79DD756FAA26B9EA83ACE8A214A2612A22AFA19DAE7DBAC5F8CDE1292A485F98DAC731A29FE01A3966E96BCB9FB5A4C8830E1B9AF0C54B87FBE221A097036E5D28D1F869F810C06A9BB0AC0612F69AEBAF893C6E7AD59460208BAB3A6B
311
09CA4F6BDDAB8CF0D1F84B72487498395A70DCD754796E271099A567A55CF242BBED64696378BB6CF25EF0FCDB589F3A82F1116D010A9AB9FA4358809EE0C973A2B4229BAA876A70B03AB49CBA7FBE71DB1832FFD32F9BF2C8E98075CACAFB36921235D0F552B6A67E94E094097A5D7DF681B40623DA535ADA7A9AD8E9A624
311
07D7C9A5AE51D62A17A83A23728DE86BB56115804D3F2675F2C6B87541A0FC497BF0CA86420F558C9859EBE9FAD62747E323E3AADC03FDCDDFE7407B09DA90B44E3185723C5381EAEF589765E2F7A099BA46695BAD60CEF3491B8A171F5F56444F7CE9455312C3498C74173AEA0214EC029833B34B650CBB5A5508D5091665
311
309642791708ECF27CF11DB3D797D6CFE474453BD4BFADB768094B2147814D81C7CBAF8228DCAF5564B5891F5EF6A860EB2E323CB82AB868D8EA048880D63B0DE5341F1B3D53297B928A11E15F25E5148990F710747C3509ED14909C552EBE3973246FCE55D00564D8310BC3EBC5085D08D806799B77D6C57FDF5E55837F9E
311
934F09C03C729271B64F12D0A9F9E938107CAF7BF1EC8CF1BB9B42363D33070F4CACB425E605DDB0A34A12BB936DE286B9887A4E2E558F0886498BFF49C311D96C277CF6A9FC0D75AD0ECC5226D7E0E3572012E56D7FDE4410CEC7A6D0F997F225A2055B8B92E3956E875AE4993CB3D4C9063AF98FD45E1BAB165640A43439
311
A2C9181A7C355B297C0A0CCFFAE19B6FA3C2BA238A885FBC98B8F6DAF4B94B97304878DF4D8BFF6A4AEDF79E90ED4E68F00CD7299F4E0D83E35601AF0CBEF18C1E870E74758FA91F5131075004DB3CFCF09AE1DABC11957FD9808C92E8A678CE9DBE40DDA0E0D1D505AAFBCBA208232BFB6FB3704E8985E61ADE53DE74152F
311
5C7DE74B1DEDCD37DC3E8FB30D7EBA8B9EFFC3606BF90B8D438279CB7709FC7C00D327F41817EEA71CD9E49FE9C8C9A81C70915D9F0F15958EC5AA4C3BBFAF46986B90F188BDB24B89DE3C6F29EC3E6F66D84856EE96A35E657CA41B41EFD8DBFA16AD6E91439EA92B40B21C053249F51AE50EB0B24C770FFAF40DF12C8436
311
366819C48E36547D4E7B72FE2BBF10828583057814A668BDF183F6B2E58DFB151103E56303E63D00F39C27C4661605DB644D19175D02E3F0241E8FC3458D17AAAADB117CE9EEA690D0DB01E634878C04C2C9310B69FCAB831151E3AD293BEF6E46B0ABCECB50F5939B39C613D41E81FAE8D34CAE3C4566B761D37185FE864A
311
C32FCB71AEF39DAA5BAB88609BB980CD2F07A8F941653B529567726E2B2A58D079DD57E1E5E31426CF184A04D7B03B985F276D47406AF276FE32E3328BA866EB1FD39BEF57863A317634AA5FE467409B3873F5069EF0D71AF00AD189D17BA1974ECDB2D623E9E14086386A6AAB5807825C37B015BFE892AFD154920EC437EB
311
945D958E18622E1E0FE2FA06557CE4BB9BBD05A2D40E774DA2B65473791E314B7D6C886820B2FCFE4AA272B3B8B15E7344A145E8AF919B5454D89D36D413E87211186BF6F645E5EC94DCCE8E1C799022E4EC9BC86D7A0F2AFB1FC4B2CE48F84B3F49ECE65BAD24CADCC07EFF39AB06BE9E6B27A059938EA7208838455383DD
311
BCFCD967DDE4650EF92A14FF933C975DB20BD7FEEBC4487576485963D757D16340D9599FEB362F775F38CA4185A86F74B629C81B133644A3B18FD056E997E0734F9BE26D11C0AAFC669E2AC9FC41D281F8B2E1C35AE27BCE05F3DA295488096688719D974DF1B5D182DB7792288697F8763CFB43562C1CDEE11C4AABD5C22B
311
6E33F6F389CFC3477C5919DC0D533F8A7A1846B7ADB60ABDC26C43D0CFC8910B7C15EE22675BD02702ED39DB77A87A192CA7A543E6205B979B9F5A6B512A3CA799E198B2D5797C0AF8D1D872CA455D4D431A7879D4DD76110B5FF7F4176B54477A9EB5E4A5D11214FDA585F0382751D8E2582BA5D2075053298FEB8F153730
311
4E32CB22C2E2B693DC0A760B1DFCA751BDC445AFDCBB12820ED85F6D5298933C7EF1211E9E057684056CDA3FEF3BB6052355E162DF27C59E965A8DDB7F9437EB72CDDA3A090DE65A5B2F50326247B7EC67B73ACC7047FC9B353D6EE990F772207C6EC52B39DC2F3C0754821DAB559F7C1809C7D0DD5B0499D0442E0A6E391B
311
3D5DB46D11E731E6794EC77523FBDAA242ED67F9FA1FB684255671F63C9BCFE6E7E896D51001A6113EF2298BA494E0B0980D1FA5B9D60796554C02256B1E0345FB7C6186B6A19D2DCA270416262845FA4F42DB5D9B0A0B6F07FCA2E56C242522E001E0CEB734AF310FC8BFB57E38E03AACE93B3326A2197891E68452B26A63
311
07FDABFEE0223D3C03C3C73D2D5BC054C8311F12004CAE488E5C29287F8156A2CAA4AD0D7BE6B97264E4139F437CE73ADF52E5134C52B819777C18B323A5924E4F67AFD13B1CDC3A61793A79FAF5C0CEB718E441071E797C6DCCB9EFCF7E4A1E9F3DF3C2F9C9E8294E9586868788C972857FB0556D7A26941A7EEB9B580AD7
311
8EC40B85DC906B4120A563CA3B87797ED612D3B035962BB75F6515A393F4CB057F564CDF54F2E5A024514E6A1F901DB80C7E70B1FC05E356A7E72FABF4775B3E3FB8F70A2A8E7B6A94542BB304157978CCC999E707A29CC795E67A59CC546A5D47B368954CA7B6E75EC9E1F6FC73CE3B4F71F8CB1A6B15923D61EAAEB14626
311
AAA9D04A26EB9C66CD1BE86CA31A5D8703DE04CD1EBCE4F5CCB62F93909AD11E55799A781A956ED27D3E738F4538CB04ADABC7DAEF20BC35BA6A90BCC1DC61BA05F20D8832FFB9BC9B15E2DB838A0AFBB7E0C82A562127E0446894F427794C3037186F622BF24DE1B00AA10A23BFA47B2A180D6DA5AD6F7326FEB8C100C2D7
311
142EB2A0B2A9D1008A09BA343D70E054AB69E2A7EDB783CBD92537FAF4A44D1296AC2792729104B3276C276C951D0CF3CF3F1E6B017720A7B8505A5FF9589365979678C36F1BAF759EAF57C60F1FF5FE9DCF5F8E764FF25A2D06CF25117A8FED51884C13B2B750DB0E4F5E3D64124FCF11F0AD8F1CC3B3DA4B38ED22BF1CB2
311
585EE6BFEBBA63FBFD44F9537B9B37BDD6B358720F98A8125AED4349CCFEB0E135F19E208A04CA7E2B10711185D72E381F448036EF57C9F874E54A971CA37A639E986AC0226DC5AA00D5B14FEA9192234B3DE617814FC221C92F33F1D392F297731B567FD98FD91D989379AF567A65B8ADF177591DB90FBEA99BF4ED11B16E
311
50A0AB1DBF1156D034BBE04D69D08F939D8E92BF525A1DDAFF80ECBC95D8F45D3FDD289FD23F7D8B452F8EBB34EC082DEEE68E18EDDF072060FAD2AB1504DD4879BF67099FC58F6E9DEFBF645D16334A3E9A127C6F1AF6132CF287E433B43A0EE93812B4AA0B194E03EE3FF91EF9C6ED0074A2F6EB18A96A7C9890B1FCDA1F
311
2095E944DB911ED54C60DF16FB74C8CE9BDC7C54C4F14078CF73C2FFF1F1BBCCD7CF64F71407EA1683DBC410D226627F66E509060D5C0AFD611DE681D509DB8DD12FB1265B03C6F5C55FF4C30BD94187FF692B4F152982502F193098A789526A038AB529A52BC0DC4FB6285CBAC10A8B8DB75DCD9BDABBB221E27D1F8DA9F5
311
EE5926A1C8AA9BA9BC09239C6A7F12914EA3B59EFF7AAEC3FFCCE56F1C5C2980AD072793527565E774F4631DB178CEEC691B1F367BEA0CF2907E1D6B854D527065979DDEF002D8B2ACEA7CE21AE297737EDE1D45B31233B73FEA35BCFDD0B09721FDBAF6432681F2FD10C3E9EFB246FD6E854B344ACC9D8A0EEF876A7314B4
311
9B6A499FC650B099D650DBFEC7638ADFD245E2B7839DA5AC5F7D5623FC0ECEEC8653FC9B2BDD1AD4D00A566FBA7186DD3C9CD26512551637498CADB950FEC71ADB9A5524285DE328B8EC7EC75D2345AEC6A27C42AF6D9B92155315C80DBFCABBB7DA0FAE425C4FB896B15C9BFAC4FE67DF5A23D30C93DA4D8F36FB15D10005
311
0DA6062E22AEC5F4DAC4F6FEEF97AE05DE63C6D38F9E068A20BC5E3B6BCD75320C5090924E7F93640A7735B1A43451C2D91EE62C6238B797349E59890AF3A520DF4A87095F3ABEC2E61F0593416CE46CDCBE0E00E2523FCCD04408588B5B6C9DB6459C786CE378770B54F51DA3A5E1DF2A3349BEAAC234A6CF8993B598B3B2
311
5B4B113E353A4D750FA7534749430F3EBF2512E7EA3FD43C6AB9A1F765A58463B306721A15D224FAFE8C6F5E3432D57EE697DA0DD5A9D4866A8BCCAAA9DFF1F06047851408FEC060471D0E3EB86BFAF46E4B5E60311DC3E3CEA147C75CF971BE74689507154FF2D2E92F15CDB2B9182B11459FD8ACAC5A85F174BC94A7F4EE
311
4C4F5CAFA7C02E37BF0BC77B7DCD0C047BC316F562A01A441AFA7931CC84A28CB9F4AA367EB515778F29BFE61195FA671F4352E5E46E3A64773F1F76EE5EB36D7BCE9BCEAD837A4D77F8DB8C92AEEF6711920D7C7D0F76B0FD0EB7AB83724CD35BCA7D36DDDF5FBB7FF6F04A91F3E2BB3B8F1A43CD659639507FF6331C5F69
311
7BCC782AE57D757A27D97F1AB9E0AEDB43F92F1B2AACDF5FEC8ADBAF9F814E2027003BA2F9E144B1938A7A04050AE5D953B82C45619165C813A10E76DD6906B3C16438064D14CDA713AEC420034613E1AC7241904A49FBF87409AFB1FCB9B72FE7933A87D8FBEDACECE4EDCF6A4FE9FB94D5DEB74FAB7CFEAE17EE965DF980
311
DCCA2D04134994F9A2E94D2265DA4FE6AA7B7AC15FACAC2B5ABBCD7DFF542C5314FDAB2E1B9D8B65220B8E2B638BE008E8DCA22678C820C5053664D15E89F2D735B51A84955E81A443545E9FF787BE0FA700A76D136C27DA179A7C6E8939E01BE756E19CB292798063D8B97F44E8A27BCF3A614FEB8BE974A718E86F7EC99B
311
53CA35FA24F61F2B07266684623A3D4CF073E511F3A10A8FDAFAF0078C577F4DF9D339FE7862E5FA47CF4344209E5BF76D783B1B48E152AD281B15FCB934DCDA49CEC5706B1EE8B460F435324A5CAD154725E21AB8044B75A557A79F6C807B9340AA3D92503E866F4274412926C8C504E4D5EF8C0E68DD0B028781A6B4054F
311
11CF18941F101C57CCC796773ABC8DED9CD91FE5788806C05E548895354AEAC96546D55B0E94A59F148D061F42AA398D822CDECA4CDE79E13469BDCC44FDC990F366BA5978C15F97ED80CBFD73B0CD9B8B83A4F6845BDFBFAF034019473FB9A63BD55D3A4A7284757071574029A4D016DCCBE95DD679EF3C4880BF169422F8
311
C89B68A988D2B13793CAED4F74DE7486C72DC94DF46B8E93D8E02EFCB1FF9B3BA10C8AE7F653DF94F4AF466CDDCEF5776687F7C4C14B63E4EED1719DC2EC482D7DBCC7AE518CDE3D5FF86D39000EC3673C0044E1D308BF05F74D1B5F033A7D1BE7F74BC55BBE3E4A20F920946CA0271EB17BD2B80E5660ACB8A29A79F5E4BB
311
A49D4D945B6EEF4A7EFEAA65E5555BBB57A7E15D2F83C69F30BBB978D2B39F1F26FC097424D39BB33CA3D87ABF64E307938B685BAD44F71556A30B7E712CA4FE600613C3E554B69ADE949A7CFE214DF1FFF05CB82151EC6FC31950239F94CF7AD39DC473F6EA356E5EC2C4EFA04383CEFE985A127484366FBEE3C0EC4FEA36
311
3E4F6632AE781392FD45D67B63FB8DF70E82734F431FD3443172A0E30A83D60982D55FA6A2CF86DBA8382502ACC6CDEF3B907982EED1160E14863FA242F9757347E1544275CCDCF71ECD5F8621CBEA326B8BA884AD7F825781923E66971F04010D574C541D8427A438A37EEF8AF88240EED7362C953F5A81DE2D56109CDE25
311
24EA0F5D2F87308C0C47BD97AD605878AB8589E17CA83930CB5E0DCCD75853D68B1AB136594926DE426C367428E9334AFAFF90ECE221BB5DC9E5BB53D2CDEF954EAA9CD814F0E5725F1965DD458E5F8487683AD86B9D0076BE3EE91EB1CECC5331A67A3F79D8B27587C12EC2A6A70474749F27B4C0BBAFB94B34189E88DC18
311
964BE4121B9137FD516C7755356E50D6714E31ACD222621EBBCD1CFF81D87479056A9DA0E0B8EA19D24CF937DA89F78E8650CCBDC110AAB6C4E46DCBFD0446BA9E2060E81F314AC2031E88135E5476AC0160EF5C0DD2EEF1B8B5CB2D198BE9A554A9093B5F7D7E4B5407DDFCA1D9C152FD97F55BFFFDFE802954DFEC8995B9
311
83E28AC92F1971E28F531DC407A1280EB125F64A72E617EFB27DFBCEDCDA2D6F2BDADA36873EE46B9BE1782998C63DA7182BC383FB6FD15DA472B175D7E8B4FC88F38D6E07FEAA3FA3CBB8F6B449ECF14D2175E5C5CCA3A42ABF24CA6C9395AF74535F4DDB38CB84F56614B0FD32D7E19CA5CF988DB4449C40E23DF2B16772
311
594554579094450F56F253CD25EA7F77366FB1CFE79696C428BB64D5A41E986189427E5E4D7E2DAE3D5BB4972B3DC44EAABDDDD63A2264ECFA5C786EB0EE1FDC5BE34FA0F08376869FD1E61EA06CAE15191135445EE8F0394161C3266A596AA035572BB0C8876180D8B9C77D307DF9DCDF7365ABDA6F3A2366436457A4DFC1
311
F259666569A9E4A79C817BDD5610E5200FCE894A358EC72858D50EF67545DA81C6FACE3D457BAF70367E1E6BDD9A952FB4F56247F58F523B97E640246051A72F79BE42FFA0B3187F63097F91C48B868586F714B0EBD5A00A8412C1236E1298F60C72BE6C96B82B404CADAA304AE9F303176B14BA53FBC2D5E86377E3554201
311
9E24D97B96A49B2C0E5006E7795954DEAF5DA58958839043C6C70BD3B1B33B6DC5C31316D8A6923F142E26F6711A2258AF977DDF1F970ECC4F1F2B434B96D81BEB6E89BF3BBB3C7C8CC80505070723D6D7D7D3C8CA27CA164A26024FED94B12A86031867241DA53D929636DA600F050BC40CE48B8BA03D69224720DEE2ED21
311
27390BDF5E6EA64527BBD4C4C63FA76BB801FEEC0E61218EC98A8A86CD8313781617877E66692839B9468CF4DB8E50A73986E558E309C0D6F676F921BE02F1185454DC75B111572FF9D27D85EA14C05AD7271225B391C4275659CA4A43759D0BA44639BE4C30A84DB7F67A41399FB95CBF923B1B1672ABC807C1590557FB18
311
D811983FA97F5E609516D62281D38B1281F68FC75528C35E4CD7DF0F7DBB5E5DD69C414EBEA2F4A5B241B996BA77AE6C772E367408C633EA3E438B68563EA8BE7667F3A4C4FDEEA52ABD78A2820F443B7914A15F180018D231E64519C56A12F6CA7C8DAE18F06F6B769DBF92329EF6A5D18FBCE600F36BD8E8198DE5CDAA96
311
181F3A756EBA5501CEE58F497EA4F418A2B82565B9BCC611713C0B708CCA1F398B78C5F7D03B3437CC18F13061F55C7BEDADD5ACB1DB0E36D3CE47FF6EA1A563A57E9649EA5D14D1A50EAA457463381C073777EF1600607BAF6428A7DDC079D47A204EF1E1F1F0589FB054D45E02CE623B3823C317C601E589E22B1E88B448
311
524B86A82828E32345EC18AE17214B42F8C41C6D428016D9BA31DDCB47572561E5A402E5BA4FCE55F78AF7268524AA04130F3A20BA5D1E9F9948EA48FC8F5314FDB35E21898198060034ACE5E3E2BBCA34092518F275190AF65F45867FF0900AA4B81F25427414C372BF51DC29AA855C5428EE1EEDD6B849AD60F6E73475C2
311
D2523F8A2772C840A478DED18A8C5C91B085F255DC4F54EA7AA8947354FD17ECF8FB3B4A0DE7B483CAF3A1165EE05BBA413E5C1FEF3DE1D6B8F2F3F3251C17D9FCAB48A9AAF63AC773A0E413BBC46A9ADF84A566FC920E4D8C52C9769EE3301CADEEEDD92B312E02E2A7E35B7F1E7D203FE5A7D75578B06E99D0E46FFADB8F
311
DA17ED8880390DA29094202D6F645F76F6F96409CDA05495A96E84B04A00D1A6C6C81D7F3DE9376E828CCF144EE50E364ACCE7237EA0BFB5607ED1AC3CFE73794E5B61739D14DF1743441B1AC98F00ECEDE9E7301FA29755FBEFA68C91EF2B314CF510537EF1ABFC9A762496280B546F5EDAAF8A5B387D469FC9A878A92828
311
C88608453ACEC6094DCA54111E7AD5B2663DFE2DD151B7F123B9F4FEF8EE36AB125FD7AD52A59B1B765B3E3F73E3F73DEA93875004D2AFFE3CDE9493B87A9904DD052028949041A91DC0E1BA47BA714343FD5B25E0A6A09503AFC17C790058A836A324FE31D7893512E28230332F153181C1E018E1124EBE1BA262AA428A51
311
8237D1EA7275E48C5C561BD19ED6912EDD8367DA0F31E40EEAE9683DA9257525AEA7B632B97119E17145A90231768A4F3B9120FF32E8319B015E3CBE26F1A754177D8185345817C096B0CE443A955D13AC15E1FB5DEEA0239EC32A3C92241A237B0B02FFCB4F93CF2B02570C8D192E2F2A68CEEB42F12E6F8CEEFF46C251E2
311
2B4341C56FB08CCE550E7A9D6F4D6564B9EA52A83D5BF2C6E03FA19D2775E15A8A7ACF30A13C259EE7F5EF2AC3BA354F1500E1A07FC63FB4686E2F12EC69719F9ECF5FE3F35598DF2CE944008CE78F0911BA5BE5D0A34E0098FF038669C26030BA9B300303039852A8F6F496341737CA7E0D2E3AAA36DE0A70AA7D9CA0D54D
311
9AD84B18A44C9E625475E1C97B93BEBB38DCE7D227E67A2D00F531436136355F243D1FC0D712C5765754FA22FCFFAE97919161F46D6E61ACB37D83777B385889770B50765B127768443A5C4D3A4E35A3151111F146B7CA116F918A049F1C272F2CD7976C69A0068773451659A97E0F4A08FE604C3FF6CE7385DB19F4D3ABC8
311
A0D80DA8A42096AC377DB49382B36E270B6FA7570188B4B7D1DDDDA82ACA487CCA5D38BD3BD039ADBAFA4ACFF27809239B722081E2EB9F145320553D183F28471C388BC8814E5045676767AB58A8E72D1CED2CA731379515D2E533E4CF0B39DFC625F97AC4836831A4DE330E87A8126FA17EBE583D614E71E22A8DBF282559
311
9743E0640037303E8E1B1E8EA4E1ABFA4F62907B5E4E0E5DCFDAB417C36C6848A2B8D15F1E505434C0707E16B1CFC2A1C36A42BBF55734F8F4301DDC2A5110CEE8C0747F69519265012A2174BF4E955ECD4FDE095A3ABC70536B7AD0B9D7892F81287D667C108703C9B66A221E9A0929D030008F77FF6F5D2108EF5706FC87
311
A3069B976F7C9FC3239D13D283CDEA83597461079FEEE049B0F392889898B7D87D31F8D60ED7B56B91823A8E4EDDB36C6172ECEE42BD42B12CD67994FA0F0DFAE9389356F4CD4425A4B8AA55CBF7ECD585C6A2C2316791E43D5C06841ADBB226A87FD61515FFBB0167B74E56BD7F3E90A57A97FEDCBDF483A0D6699A8C0849
311
CAEB4947FAA90D8E332D9DEBD9F4738C37DA0CAF9CF3DAA68BCB67C420459C7A64498D6E848E5CADE92BB6901F607AA331104A67F7CD650EE169B1DAE94D2C31C2F993632259B6957E246EFE4C5481107B07118607700040E5812A2A2A38DA0076875258C753F60E0F2662C748EDD5F3F3686B8FC3BD6FE631ECCAA1E8B1C1
311
E565AD117E54893E79F4672E32F9E46B2A183DFDCF3EECB4D4D077DBEA0DA254D256045109670050129E9B9B1A9E4A11344D61497A992778095151510C4BB7EF2009B63AA4360635312E4CF668B7E0D3D85A8688E2BD83B569439892ADB63461930D428E0DE42E4AC57CE48DA5CC1449530D8BD3D6A0F08DF20C8E8F570F2C
311
FFFCEA286E30969B4654D498A58D9DA782E19FE3F002181838925592C4A1EF0B332D88B61A92C644547BED490D3A42CFFAB70E36D961F694F6307F72FF15A1C79D5B1B5CEFD353D9E2B52566DEC8F8F09CB3E8359C0F68EBBB7898243E34E12A015B2685AB303C04D3A9E00671FF3DFF0A184E4A2ABEB2B666AF5B3A209C73
311
D8EF29DCDB069C9F391EEE9DD0F74C7BCDE16F8F02E3B8816122BBEB50665775B600549D8BB33A54A6BF940C028118BC6878C79958D6784F9DEAA6E26748386FFAF8D0D0101E2847B6563F5D8DC1D78F787BE00E2C941AE12148D4A81599FE8F68D4DA5CDED75530ADE138240300EE13B0FC13A1687FED6774662C05A2B7DF
311
B186732F0D7A93545D8B0A6390AE5054D9CB582DA846D7A061B3358B45E2B52DDE63E114397EDB7E09233A579155D795BE76102CF277F4DF8B188C4F2879BEAE3C08347124BF9ED23B128259FE107D31E34A652F090B30B39E0D9AF917B76A2806135621A8A60681F16AF216514BBD02711585B5B1AE823F4B2D0369EA5B6B
311
CB863072727FFC871CA6C9AB79A814D989057E9470A3D238BC87CBB4A0EA49AFE2B86F22E499793CAA9047080450166BDC357524561E258C77CB697F1ABB32562CF87C3B7AA12F911EF19FB3E5C02222E887D08202A60A17151F5E053A86B437771088B4FEE14D652C43E8D939995D34545E12E2FF93D4E366EAD25F10CB7D
311
ED141563C3D0C447AF06078A91135FD4B9611583CB4BF3BD167F2399CEAB0E0100F8FFC305F00F1711717173138B4B48C83022295DE657EFEDD97F238ECA80F528AFB4F8D67AD4E2594B9A3AA86D7487EFC313BA95745C186F0CDD84CC12DC9CB0424B42203D351FD9C0A3AF10CC7F388E0329279087386421F194F4A29464
311
C1DEF7EF8BE515E4A199DCD5B909342598D8FE6A231F71336248D5CEC5454455C7BE383B3BC7B260FED27F703FDC39A170F3827239102F59D4DEE7FEF82EAA1A5E4BA94DCC4CC44E7E2EDE20F24244E4454369D2E87C3F823F193FD4FD27E1C23984B01898D15ABC20711A8A558054951A6AE280096BA36CBA439603B7B0B4
311
C45F248C14B2383B4B5CD8ECECE4FF859AD4A6CA2326D020EF090F4041D28DB66E5256B56232CC52829DE8060BAE6BBF37D4B7469B822454FE93210A3E8D15E69FFCF01123222611C51C4FD0A041A0CFA2471CF6BE38D2B20FA4C3525B5B8B586759475CF80ADFE67A284AC24651E52B8E683D24C2622642F27E7C3C22783B
311
CF63648BC398BD6CD0D9C97E7E7E3EACB6126DB7A6C1FD9F1031302EE67ED96F22B77C7CA0239BB324207559B105E4693EB26EC46182A92C9C0DBD24F29B31C5C5AC1F84300E0E17CEEAC15F5736FA4A98971E2F1423BFCD68D4BBD5F86E74B40A369F39507C88FCDB35D2DD8DEBEA4AF999E23CF2816D204200DF6E611781
311
B9884C1AC8888B4DE397320472959434323A5A36B22A8E1F721A270DF3BD65E4A31C11FF048AFB0D8B7B6881423793963A23CFCE935FC189ED36FAE35C46DA3574C979E4394BE52084F3081837BE033396D2EBD80F1F691B273F660D2B32FA27A33B1DE4ADA5F0FA4651511102DFA410DDA86E065272CA314D5249DF91B06B
311
B92807B28EFD54F08F7B525252782CD276DD02E6B0319B13DF87B1F6361AD6B28FC0D711CF445429B9E5A433CD493051C49A9E03DDB1B147D880253514A5DED88009018620EE229101C041950E2D8AA8E1F5F5438E0C0C0C60EEDEE9E3E0C051948C69F84BB7B2A48A1F3C8EB9E6864687F4F4F6F6E2FA87608ADAF9C5E117
311
B7C1A737E710769DA1D15ECE6A84502AA855398712D5FB51BE92E4EF824969CE18278798AC303C2C7980DD2500ADF8FB1E6D6C2FAAFF9987178923334A244758BAA01A9A1B70FA5097D01E1CC2A58DAD0EC94CE6430AA9B0C10D75E3C6BAC670EFBADEE1607739CE0FC18A2587E3EC3058562014C64219C69BC269082D5C2F
311
4A659278D585755912176D78A1B641719C2A394CED495A1AC5D583FD2F5EDD93308EA7EAE8A6DD396598BDBD3D4CFED62D18A5BDFDE0DD5C80D1A89BA62697B131AE7CE9A6594138582F1B37D68F1749AC7CB67A70695D48A4A056AC1FBD4E82358CEAE38F54B95A9016F9000F9879C0D9D131768635CA798895F27D6F1614
311
F11F2838A83611AA51C9A3DDB539D42979C29F10465655C17BEC3E2760B80DCBF609198C7B171A531905F3EC218D696025975E986C6B4C666666787271F202805577DD5A3EF0CAFAF91B62DC4B2DB4217A7606282F31D8DDBC290593BAA93EA6353AFA9939B877978481E15CFC9F2755CDC00C538F63A4BA3E80AE009B73CA
311
0185687D339A507D165B74290D6EE46D5C58148F020C3668ABE9EF2F7549170DC80DB41FFC1D678FF19AEB10C7133832B104B80F691B3138F97A92D26E551F1F110400D45AC71A9B9AC41A1A1B1DAEED0B0810638EFFB511D46B121C6FEA0F38CD00E03CFFEB9713FE1F9C263E4DDEC160D0497FA9A132BA608584057FB153
311
80825DE6C7FC3C667EE947D488A09898D8E939C4953BF4EC9836344D2CC6B2971B2A21A572B06096F4982D2CC7232D46E8EA69DC83722E267754D777F97F96D5DA74E1E75178084D0E70F12AD33E5F71EF2AFA599B2BEBF60A5BE475F444F240CBFE8143C334E7ED9150FEEFEF7EB020C4DBED388DD1D6A167A76F3CBF119B
311
578AE8CFA7736ACAFA4440A1C47185638A0D2F3EB5BDDEFDA958FB13CE4AA4923D5BF840392D45544329525749734866684BF7F8D9D54D892E19BCA9F829A0F8BFCBEEA6CFDFC61D74EA1A645ED7A1FF241739F15694BD835B66FEC5677E40FE69BD3F91AE402F036537218A401CB0828604AD189E575015C6F3F6BBC8AC79
311
CF6C70653847254B31551EFCBEB5978B9DB85D58D0FA41A9DFE9C624834AA04949D24B5AE6D299E072D152D12097920F14AA92C31C3B97E28B6C2E6E9C23D63043ECBBC0A60FDF5BD0C33C127EA8A3308B8B6AFFEB28B4455BF6E7AF4FC6222728357EB8E46E85053E6A8843AB23295BF838ABDA94658FEF3F832F147046B4
311
ACD6F7D48E8FCC9618582961C898D1C7A253C91BFECBDA6BA18A1FCF70755DCCEE2222F41B76D23CA98D0CB3D95F0CF66D57FFF65E2A90F5DF40FC3187621E981BD0BC1D992787212688976B94A8F0C6EF646624B570B78E068826F87CE27041A95C9A4871FF65CC17FCB1639629AD6A9517000D63AC231F3D741CB8430777
311
E7ECF80CE7A3F73C0F162F7E56AA71F4DA80A33CD6ACEE78E2C11FAC03DAFCE929B106F8F6B3ED2DC71FF994BD9CEF4E9A94896EF1B6E2B7B4978168BCF0847A3D2A4F1B0500B926E634B174548E9FBAD27153FB5FC36799B1E6C7C38A94E1F9E996796D7B485E635D5287A2AE76FBD11A341DB3F8F810385BB7296391973D
311
C6C37C452A9305AEBBE0CDB6C566DB59FE60C8E94B1FD090354BF51439FFD1B48D725228FFA88C84F686F547107A7A235665A4593B7C34D748C1AC8D56DD5DA861EEFBADDECBBD65117E65851F90351AEB65F0EFCFF4BCFEF24CB7A5879699FAC437A7AF9099186CF006BB923A59E37D7A36A29FD8D2CBB914A5E9D0A8FD21
311
2FBF796AE9A67958FF1D5D8B85F78F96219D4714EB919929241B6C018AAE0C02069F8D919961EC5DDFBFB7573E3AC8E08BFB7C8534BE6DE045B3CD63DBD71F7638BA2309CAE398EA3A7D8F98BBBC7AEB367EFA5CFA27A9F8F2F52FE878058E6209C026453F8E7E8A237DFC389E9590F6059B397CFD65183BBF936E86896612
311
A5B5FEE49DAC8455D026218AFEBEC12B3523A45B57B82C9C97E02ACFA1184DB18E48CF615DBF39C3CC6F0B4AE6BBEEA2E39D944E290302FA3DE33FA7E40296E2EF7BF1CD855BBECFAD0FD622BEE9746FC4FDFDE545AE6E3BC234CADF83A0FB76DFB145BF3828AE3436368AC24989454F8FF70A177672C711CAA1A76107218C
311
F948CA01F873520E7A2B118EBB161ABAD432932029628B6761590C98AB590C8C8C79798CE9F715BA696E839E9131A4BB68BE923F1747FBFF165331FFDD4D05997ACD168F12CA75348DAC04C7F509FE83898A8B421181AF492861CE81E4A2DD0A30850CFA95E05F097FF70F9E777310D584A75BA7018922E271DAB1D7856711
311
57685B7D383D3E074DDB4F1E44EF04B07BAAC75A062077C54B9752C738C9D804D402E02851F3F89605AF189738C18C021D2139EAF72513824E10DDD3047BACC8521ED7E98B257D1166903B1B08FA6F918FD7E162913FEC7D0EF4787E29C35FBA8C6E2C9C20E9AB30AE42CA2A01A090E7D010C1B5BF9CEE2A304BF3A987FB40
311
D836979B79E18D70F257DA61E808472DD85B82761825779D6B90CAEB0F23360C6F80A7D7D77545E95B3DFF0CF96A827F9B5BCECD2C9698718417EF80FEEDEE938AFF55859D0D540B7FE09435583A6F04874A0C7E8CF234DF4879722000167F5872CEC6BF3EF7E5A8CC8121E6A359227C8A29C95212F9F735BC72A887D56B8F
311
309FC525BFB4FD767AAEC4AEFF249CFBBD2DE1AB9969A6155C7D8DABC307E47324C1F916C7BCFF40ABA5644E9FFB9238D19ADADA49D9610F01ABBA57E4DFCBDCCBB2B93C8953206C91DE01B0E2651A6D6C31721915B31F7B7CBCE55466F6D70402788FA91D73BE4ADCBA99A35F17D6B83383704917D6833F0FA3CD45C926AD
311
B8BC17999A4A0AFBCE2541F7B8CF4C2F5FBA611B3E626D64407CB32C122DFF4EF8674D6EDBB86C8F7C6A16D50FA685E2CCA34F8F7D1D8265BB0042E9D7F1F666F7BE5FAA5184DF58E12122A42EF02F461B3F369AC746F96528AD208512AB56844CF75B97F352DF7995024FB02855385854F3798670D01CAC771AC3E1889EC2
311
5F61A20C1F8CAB46898817F9C47E2CDA1F286BF2F358298709FE567C91133E2638C8B53975E753EA8BFD3578B5F7186B7BF084EBA3F77BAC3132A5779902EC22AF2D2E79F42D324E083386DAEE9810D1B44A5DAA54513C7A71E52A4AB9257D975B621308FE4D2141CC3DCFE946C154A3C1DFCCA7629EC69ACFA831634ADDA9
311
3C0388D2A9A2DDAFCF957C6995BCE7FBB6DC4EBAE79E63EB08E9A25F52F67076F7093CA545CA3053B5BF576DEAD4E0017143C5F759F32B2D6F145B52B67B48909B7C7FCA6586EE385A2189C16932CB6DDFD9152AE317C430492A578ED27B72D85D40C7C93C097939E1B50F4D67F05334FE9DC362C30B7FF561B95259138ECF
311
D9274C8D695C31B14D4EAA9F3D7FA8DDF652F8C5DEFA23284C799B7D94416DEE81E05A866302DC70192A5368EA65E1CED8BF107A1E2D3119A71E85DC1A7B0C1E93274CE04DD0F2ABC8AC7C987FDB002B6F81757B43502EF7A0D92E416494FAEEA4C9C090CD9557AA4D532F4996A272B94355C5A0E4974EEA9627476F30809B
311
94D8D8D860062E02204643BEC7D0438AF800FC7E2B26955D595421E83C69E1A07E0E3122285835F014AD538188CF9737CE76D464A353FA55A001AB2526B84E985083693BC76FE211CA1D000679C889E3C009832C87E1AC2EDD05C302557422DF0800E316FCAC86978A371F025A6C7DAA9F333E7BD160403A1A06EA75AA9888
311
FF01504B03041400060808005A579C4428BB58AF800100009E0500003D00000035453142344239322D444630432D343533322D383742452D4439453831313743333342452F536368656D61732F436F6D6D6F6E536368656D612E786D6CBD544D4FC23018BEFB2B96DE15493C78601010A34B880709DEDFB52FD0D8B54BD70D
311
F6EFED3AC0B12E6442E2716BFB3CEFF3D18E26FB440405EA8C2B1992E1C323095052C5B8DC842437EBFB673219DF8DA659866649B798C078B48AE6410122242F2A4994AC7F93815DF85C049C8564CA0A901499DD886B2EB9B1E02448F358701A9235880C49A0119892A20C89D1B9FD768815CAD268CB5E0355B40B1E47F3E3
311
7A2020464BED06AA57CE8FCC20C3C3446D46761A2632A8C1283D07031EFF2AE7CCB1BFEEE916E406DFAC8E36FFD99A9D60A6944090EEDC3B670C7DC13DE86B6B2C5C240D6E503BB85ACD579D513F1B9F9A69DC9CC22AFA80C426D40AF0B21EA168559156B6276F0F726A6BFF04DCD513A87A62CAD41FB24FCB2858B3952E3D
311
852084DA25B9303C15687973CC8E8AAE11DF2836C38C6A9E765E8C1BA1BFB1DC29CDFE518C8B5A7655A4ED7E77291ABEB80DBD82EC866ADE1B8D05AF9E35CF09D7A061F38A986D9EC412B8F0F65E5D81534D9B231D1E5A8FE577A241F3A5FD01504B03041400060808005A579C442CCEBD668A040000E01200003E00000035
311
453142344239322D444630432D343533322D383742452D4439453831313743333342452F536368656D61732F47656E65726963536368656D612E786D6CD5586D6FDB380CFE7EBF42F0F7A649B70E1B90744856B4970F450FCD7A5F05459613EDE4174872DADCAF3F522F8ED3B88D2F1D06AC4050DBA2493EE4438AF2F8EB73
311
AEC8466823CB62928C06C384888297A92C5693A4B6D9D9E7E4EBD51FE3A931C22EF85AE4EC6AFC38BF261BA626C9AD288496DC3F4FCEAFC63366845F7A10452AF41DB320C0D44EC26EAB20918735565582695670811A6A49643A49A6E9069FA4604A64B29016DC4B48552F95E4932463CA888468C1D2B250DB4962750DF7CE
311
273069CE8363F1FF4EDB00E0A21999574AE4A2B00C353B93F3BD4777B8A61ED8F604ABFEDD79CE56A2B7BDFBDBC50996E0ADDE16FED26223C5D30956C29BDF4A55EA686E5E58B112DA45CE67F76F4FA27EFA3FB672FD7372FC388FAECDCA5209E693CAD167BADCD272F943701B3812F8A3D852008B1D2E32DB927B2F833C6E
311
A95879925356D254582695095A3CE982924720BE5774A3CB9CDCDB350427D2DF20DA1B5532EBE2D5D6288D75D4F7E4FD9890A0EF8E3D93EBB8F8BA4758158EF6FB90A6F9520281C93DE7AAC6D24607DA296BB96018123F821A7D6A5C5884050C475DA4865442732C8B95684A50165CBB3A32F25F783A4A480ED59AD7F924B9
311
68AEA50131F46303223E6A397B0E52976030DC1DCA81D7E7C1EDEEA42C19FF27635C505E2BD5198A599020DF50A2330FCB3AAF28CB0124108429553EF1B228802E2265D8F7CC2401042B155BCC7070F1E5C55F13B4A9577362CCCE46C32174E010C3C378C44841A4BDA00FE3A12006CE11EE6AEC59894D3526DDE1CD59D503
311
ECC324017F8061B7F162162FA62EDD81AE3308617770796DCBDAD2B2625C5AE8A63DE20B2C8AA5E95E76E5730823955956E33E705425A2187C185D36489A1B44D3DCEC2172F6BA2105C3546287A7194B2331768EBBE64F6E70A9930ABE0ADEA89E9E2C38523B810287AD67A54A039C1606EAFE68F8304610BB9093DBDDABC0
311
B2AE4E290DCDA15376D7E39F72B556F0B32EAB5D3D498B4C41ABADEC3A1434C422D87E8025A84BDCB2B1417ED750FAE4DA8976863974C577C7F902D3F156AD354DEA3540DE6BEAE2BEA52F7A2EB4CA43802ECE5BF2CE2EDC9347179FFB023CE412E60BE16DA0BE29B374988A553F561DC04615DD35F7D2C8979F60E5955CE9
311
3DF29DED8AFA1EE6642D53418086C03C47C377910F75F7E8F5EF665F70B60FFB22AEDF897D119E8423C773E819A3C1E55E550599EE6EDCA34D0C86FD72057DF2CD46F16A470682471C164E4346D5306BF12D7D12D82CFF673D41636C347443FEB51B50D72EA171A8E4A58623A4A16E0FA2B8B10A0D23268D87C33896EE8FB7
311
3305A74BF224EDBADFA0BD674AB354D63DB7BD5D83426761C077DE767728235446A552754EB93B755891C3C4CC6CADE37CF0E912A7BB38DBA010F9DE1282EDF470CA69A9CDA482E334C4A6EA4107987980B17E72F31730EBF88BBD39E7C629F56797A3C0009C2C5AE7951D9A05A02773440F02EEB4DE396A3B6A570C72CCFB
311
CD823B0B8ED3F1D5CEDDFED772FA70236C83FB7D86C385D570B87107535572A60A96035F8F7C6A7192F13007246BBE0521855E6AC46F3E27689CEE7D186A6FD679D98CDCAD13333E04EBE7ED6F55FF01504B03041400060808005A579C446180134D5F0100006B0300004500000035453142344239322D444630432D343533
311
322D383742452D4439453831313743333342452F536368656D61732F52656E6465724D6174657269616C536368656D612E786D6CA5934D6FC2300C86EFFB1551EEE343DBA41D1A103009551ADAD40EAE28A4A68D9426284961FCFBE5A340113B2071746D3F765EBF4DC6BFB5407BD0862B49F0B037C0082453059725C18DDD
311
3EBFE3F1E829991803366715D474942CD30FB4A782E00C64017A412D684E454CE3FE28995203B162A6EA5AC94B66997D225E109CD63B0135484BAD1B3C07E9080CA35DB3119C11BCA5C200461A68A1A438126C75E3E230D40FF81FB3F03C91D1E3A3A0AF79FE28E25BC39EC3E17E4C2A2D94A0833A51AF55BCCA7D88572FCB
311
AC529C4140B020FC3AAFA886621DCED7EAD7664CC86024E806DC297DA1BB393E4156543457A4537DB8817349A70F8ACBF09B3EEE2CB2F33E91B65D60786E4E3B39B77E3FEEEF5650424525DA657FB8B46BE6BF064646F0A0F7327C0BC1BC1B4CBBC1C419FA3CCB23500007872A2580CAAE5461865565294E4EDB4617B62FF5
311
79DF9A5B2F54E834076A597573A020912FED777F9B3F504B03041400060808005A579C44F5CF69E24F000000570000004700000035453142344239322D444630432D343533322D383742452D4439453831313743333342452F4173736574446174612F41737365745461626C654F66436F6E74656E74732E62696E53616060
311
B03035020253035D63670B735D135773435D475743535D23271313370B27172327630B21A0BADCC492D4A2CCC49CC48282D4C4A2C4BCE454A02018F00249F7D43CA06C727072466A6E2200504B03041400060808005A579C44F865834058000000680000004500000035453142344239322D444630432D343533322D383742
311
452D4439453831313743333342452F4173736574446174612F53747265616D56657273696F6E5461626C652E696E66558CBD0A80300C06F73E4B117FB66E451741D041DC5BF98480A492E4FDD18EAEC7DD4555D89EF28DF51A0B1BD8340C4DE7DD848B988C0ACF0649566493F2408C508DDEBB99D5129FF8F1AF8CF5B9503E
311
20FAE5A16B5AF702504B03041400060808005A579C44121574E9350100009A0400003600000035453142344239322D444630432D343533322D383742452D4439453831313743333342452F4173736574446174612F636E782E786D6CCD94314FC3301085FF4AE43D76525A29AA1C5708964E205131B05D9D4BB1EAD8917D41
311
F0EFB1DB0CA022A60E5DCFEFCECF9FFC4E6E3E075B7C6088C6BB96D5BC62053AED3BE30E2D9BA82F1B566C940CDED30F192B1C0CD8B25C664A1E829FC6B9D4610F93CD556BDC712EDEC788B483BDC5A7FEC13B42479115DA428C2D8BFA1D07E03091EF301E790704BCE601A39F82C63489CC80F3241D10083BA61655BD2CAB
311
65B9687675B55E35EBD5DD9B1459A9E4DE7B3BEB4DBA2CF8B1D0E75B99AAA4C8C74A4EC1CC9AFC16A6FEF2C8F7C64991944A460A89C9DC415F63EA8071B446032574C26B422A93086190E22C56526406BF483C626F9CC92DDB640CC887E7640F0319BC3922FF79BD3E99AD8B044EE3EDF2B874787D0A2FA71FF47A0EE42931
311
B796934B87DCB8FE0A2911A735924293B78AFA06504B03041400060808005A579C44FBEC0013E40000005E0100006700000035453142344239322D444630432D343533322D383742452D4439453831313743333342452F5265736F75726365732F38353232323235302D334338372D344537312D414531352D324234344638
311
4244324233382F7468756D626E61696C2F302F636E782E786D6C4D90C16EC4200C447F05F99E906C77A56845D89FE8A9978A126F8A966004A66AFFBED072D893AD9927CB33EAF67D78F185293B0A2BCCE3040283A5CD857D85C2F7610171D32A11F1130622980357683268B5272AB14B1BDE4DF14DF52E3CBAB863C0E4EC7B
311
0C3B08EB4DCE2B64FB8987194D61DA303FC6CDB019E73161A6922CD603EC0EEC076C42C3B8813E4DF37998CEC369799DA7EB65B95E5EDE946CA4561F44BEF32E30268AC2525D42FD6652B2D95A95E43AD322807E7A4DC96A6A9539D5F41DE29F582113A377D6702D499265E4A142680E25FF61AD644B5BC75F1575B666F42F
311
504B03041400060808005A579C44A233C2345D000000800000006500000035453142344239322D444630432D343533322D383742452D4439453831313743333342452F5265736F75726365732F38353232323235302D334338372D344537312D414531352D3242343446384244324233382F7468756D626E61696C2F636E78
311
2E786D6C4D8B490E80201004BF42E6EE76F3C0F216234B883063108CCF170C074F95AE5473F5C4C06E932E4F28601967600677D21E9D8092EDB002539227A2FCCB80E1168D80A6417297A89C5D6963B7129A0D1E8F2EE73AA7B62BBEB8B27DE50B504B03041400060808005A579C44BE89762363000000880000005B000000
311
35453142344239322D444630432D343533322D383742452D4439453831313743333342452F5265736F75726365732F38353232323235302D334338372D344537312D414531352D3242343446384244324233382F636E782E786D6C4DCC3B0E80201004D0AB90EDFD75167CCE820A4A845D83603CBE602CAC26799919AEEEE0
311
D965E2E908050C6D0FCCE04C8BC355404EB6198129C92351FAD580A10E464065907C8D948F8F166375F655BDC3FDC3B4E530A176BE7057BDC43B2A593FE403504B03041400060808005A579C44AACDD5997E000000A30000003600000035453142344239322D444630432D343533322D383742452D44394538313137433333
311
42452F5265736F75726365732F636E782E786D6C4D8C410EC2201444AF42FE1E2D14521640235AEFD158DA102934588CC7174C17CEE6252F3323FBCFEAD1DBA6978B41013935806C78C4C9854541DE672C00F55AA618F7BF1AA030AE5641D5A0E59262DE0E35D979CCBE5AEFC2F39082D312DEE0F62A3ACC868EE0CB4038A6
311
86B1BB30376A5A5116E73A29F8FD15D67BFD05504B03041400060808005A579C4454BE4D49080100004F0300003400000035453142344239322D444630432D343533322D383742452D4439453831313743333342452F536368656D61732F636E782E786D6CCD93316FC3201484FF0A6237D8692259112643874E5DDA4EDD28
311
BCA428C0B30057EDBF2FB80C89D4AD1DB2C1F109DD1D0F71F8F48E7C404C16C34407D6530241A3B1E134D1251FBB9192831411315F609404E561A255A6529C222E73930C1CD5E2AAEA6C3837F11EBDC7F0ACDFC12B4AB453294D34AD5BA6968C06D2991995151B5884844BD4506EC8D643BB414750190C959B7ED876FDB6DB
311
8C2F43BFDF8DFBDDDDABE09594E20DD135DE860C1167A2B12C42B1D30B5E8FA558A26D4CCD40E5A53756DA10BC1052A41C4B078DCC5F7321D53C3BAB552E55F115FC61A4E035EA55E0070810ADBECDC457E6FE2DF2130403F1B1BC52B4CADD66F2DF3CFEAD00BECE7E1981FA15E437504B03041400060808005A579C44E360
311
3EBE7A000000C20000002C00000035453142344239322D444630432D343533322D383742452D4439453831313743333342452F636E782E786D6C6DCD410EC2201085E1AB90D9DBEACE05D09878023D01A1D34A8419C380F1F82DA68B9AB8FDFEC93C3D7C52546FCC12980C9CBA232824CF63A0D9402DD3E10C6AB03A3397DD
311
192872090D3406ABE7CCF5B5D18893ABB1690CF4DCF02282E5EA8A5BB96FFE536F285CB347F95BEFFE81C9ED5AFF9D5B1FB575BB00504B03041400060808005A579C4401CEF9407E000000A300000007000000636E782E786D6C4D8CD10A832018465F45FE7BB7CC220335B0DC7BC4B290990E97638F3F1D5DECEA83C3770E
311
1F3EBB436F135F367801E4520132FE1E16EB3701E958310334481E4338FE6E80FCBC1B010583E45B0CE979A2C5AC7372853AEB1F276C35518DEA6B3CDDAA11372DAD31EB94C653AF1921DD48A9D2D9B81625CFAF97B7E4E517504B03041400060808005A579C44CA1DF9C9A900000073010000130000005B436F6E74656E74
311
5F54797065735D2E786D6CA590410EC2300C04BF12E5DEBA70400835E500FC800F84E0B411AD13252E2ABF27A55740421CEDDDD9B55CEFA7A117778CC979527255565220197F75D42A39B22DB652EC9BFAFC089844F65252B2630E3B80643A1C742A7D40CA8AF571D09CC7D842D0E6A65B8475556DC07862242E78CE904D7D
311
44ABC79EC569CAEBA537E3521C16DF5CA5A40EA17746733E0B6615DE7217475F386F18B9481C510F1F021CD9FF027EA0E1F5C4E609504B03041400060808005A579C443DEE336E64000000790000001B0000006175746F6465736B2D64657369676E2D7061636B6167652E786D6C35CBC10E83200C00D05F21DCA56CA76D41
311
FC96062B120735B69A7DBE268BB7777961F8D5AF396893C2ADB70FE7ADA196782C2DF776D7A97B5933C430F15651E5469C55D70F80A4992A3ADC954792C525AE70A1E4D6AD9816CC044FEFDF01FE3FDE907802504B03041400060808005A579C444437BF6FF8000000960100003700000035453142344239322D444630432D
311
343533322D383742452D4439453831313743333342452F4173736574446174612F636F72652E786D6C8550CB6EC32010FC156BEFD8F855DC08135549FC053DF58680382831583CAA7E7E2176A5F6D4D3AE66676677871EBF9647F1A99CD7D68C5097180A658495DACC23C47045031447469DB5E1170D0AC31735428681D1D9
311
D9B8EE90B02628935163A5DA41EEBD0A5088476A46F0E2A6165EF21812C3DFCB958B3B9F5559971B8FD118B5DCA55A26377DD5CA01234D7B216782119E2E13EA082668C07D8F86FED4BFE0E9F544C840AB2C6634E8E567BB708A07258135B8EE10EE5033BCD7F8D00F87BEFDA0556632EA834B3FEF4BF377C0DEF2D5671E38
311
ADB6E91FD7B8CAFF5DA336A16D76D74DE181D5E9C8E780D12AA794CA33C25473A2EC1B504B03041400060808005A579C44D0D11B19F30000008E0100006800000035453142344239322D444630432D343533322D383742452D4439453831313743333342452F5265736F75726365732F38353232323235302D334338372D34
311
4537312D414531352D3242343446384244324233382F7468756D626E61696C2F302F636F72652E786D6C8550CB6EC32010FC156BEFD8F841A111268734F9829E7A4386382831583CAA7E7E2176A5F6D4D3AE66676677871FBF9647F5A97D30CE8ED0D6182A6D27A78C9D4748F18A185447C1BD73F1170D2A2B173D428141F0
311
D9BBB4EED0E46CD4B6A0D629BD8332041DA19A1EB919214C37BDC85AA69819E15EAF72BACB59D76DBDF1044FC9A85D6A54763357A33D08DAF567FA4631C297F3050D1453C4302188911379C197D713A58C37452C7834CBCFF6C96B19B502D1E1764078401D7B6FF181B003E93F7853988287E8F3CFFBD2F21D08CC9B0DFDE3
311
9656F5BF5B3236F6DDEEB6290288361FF71C08DE9474727946976B49527C03504B03041400060808005A579C4424F98E6DF9000000960100006600000035453142344239322D444630432D343533322D383742452D4439453831313743333342452F5265736F75726365732F38353232323235302D334338372D344537312D
311
414531352D3242343446384244324233382F7468756D626E61696C2F636F72652E786D6C8550CB6EC32010FC156BEFD8F855DC089343127F414FBD51200E8A0D168FAA9F5F485CA93DF5B4ABD999D9DDA1C7AF75293E95F3DA9A11EA1243A18CB0529B798418AE6880E2C8A8B336FCA24161F8AA46C830303A3B1BB71D12D6
311
0465326AAC543BC8BD57010AB1A466042F6E6AE5258F2131FCBDDCB8B8F3599575F9E4311AA396BB54CBE4A6AF5A3960A4692FE44C30C2D365421DC1040DB8EFD1D09FFA173CBD9E08196895C58C06BDFE6C174EF1A024B006D71DC21D6A86B71A1FFAE1D0B7EFB4CA4C467D70E9E77D69FE0E58B8C5F5C370BDD0EA39FDE3
311
1A37F9BF6BD426B4CDEEFA547860753AF23160B4CA29A5F28830D59C28FB06504B03041400060808005A579C44C3E3356E0C010000B10100005C00000035453142344239322D444630432D343533322D383742452D4439453831313743333342452F5265736F75726365732F38353232323235302D334338372D344537312D
311
414531352D3242343446384244324233382F636F72652E786D6C8590416EC3201045AF62CD1E07B02934C2444D629FA0ABEE904D1294182203558F5F485CA95D95CDA0CFFFF39891BBAFF9567D9A2558EF3A203586CAB8D14FD69D3B48F18404543B2517EFE32F1B544ECFA683228392E7C5A7FB2A8DDE45E38AEAFC645651
311
87602254E32D5F3A08E3C5CCBAD6296647B8D6773D5EF5D9D4A47EFA944CC94E6BD44EB99B3D59B380E2B4E9F9916384877E402DC71C09CC1812ECC05EF0F07AE05CC84D092B19EDFC431F17A3A39940514C5A845B44C53BC15B26B6ACF9909BE25432C425CFBC42CB74A004A3F9308C9A83E0A8ED39416F3D6188EEDB7610
311
FB23DD3719F70CFE01A6FBF43F3059171BBA029F89008AE4FF3F1E94DC9405E6F2D86EAE65D9EA1B504B03041400060808005A579C44D06BD832F9000000960100003700000035453142344239322D444630432D343533322D383742452D4439453831313743333342452F5265736F75726365732F636F72652E786D6C8550
311
BB6EC3300CFC1583BB6CF955B981AC0C69FC0145A76E82CCB84262C9D0A3E8E7574A5CA09D3A9138DE1DC9E3C7AFF5567CA2F3DA9A11EA92428146D9599B6584182E6480E228B8B336FCA24161E48A236418045F9C8DDB0E296B029A8C1A3BE30E4AEF3140A16EA919C1AB0F5C652963480C7F2D37A9AE72C1B22E1F3CC163
311
D4F32ED57372D3178D0E046BDA337B6194D0E93C918E514606DAF764E84FFD139D9E4F8C0DBCCA62C1835E7FB62B8732E00CA2A1754768479AE1ADA6877E38F4ED3BAF3253701F5CFA795F9ABF03F18ADE46A7D0F3EA31FDE31AB7F97FD7A84D689BDDF5A1F020EA74E47D207895534AE51E61AA3951F10D504B0304140006
311
0808005A579C44602551C1F7000000940100003500000035453142344239322D444630432D343533322D383742452D4439453831313743333342452F536368656D61732F636F72652E786D6C8550CB6EC32010FC156BEFD8F841A111268734FE81F6D41BB2898B1283C5A3EAE7176C576A4F3DED6A76667677F8F96B79149F
311
CA796D4D0F7589A15066B49336730F31DC1083E22CB8B336FCA24161E4A27AC830083E3B1BD7031AAD09CA64D4D8491DA0F45E0528C6476A7AF0E3875A642963480C7F2F5739DEE5ACCABADC7982C7A8A743AAA7E4A66F5A3910B469AFF485628487EB803A8A29629810C4C8853CE1E1F94229E355160B1EF4F2B37D744A06
311
35816870DD21DCA186BDD5F844D889B4EFBCCA4CC17D70E9E76369FE0EC4EB76A7E7D53EFBE319D7E97FCFA84D689BC373577810753A711B085EE58C52D9024C35E729BE01504B03041400060808005A579C44E873ABF601010000D70100002D00000035453142344239322D444630432D343533322D383742452D44394538
311
31313743333342452F636F72652E786D6C9591CB6EC32010457F05B1C7367E284E8489E4C4FD82AEBAA330495062B07854FDFC42EDAAEDAE5D812EE7CE7067D8F17D7EA037705E5B33605A541881915669731D700C17D26374E4CC591B7E60181931C380B38C39BB3A1B974D92D60430593556C1260AEF2160241FE932602F
311
6F308B42C490087F2F1621EFE20A052D568EB3A0E72FAB74200228CCEB8AB6A46A49DD3FD3EAD0F587AE79616526398BDA84A6DE9AC1FC0A0AD925A4489877AC5C5F1315B5DA18ADD21FF545834BC444C776DCD7E4FC549D48DB3535E977E344CEFBA9A774776A9A714A459299331F5C9ACC5624CFE0AFF6D5F82B595CD43F
311
93AD0E8F39FD0E55E63173567EEE209D7925FC03504B03041400060808005A579C440ED8FAC906010000B201000008000000636F72652E786D6C8D50CB6EC32010FC15B4776CFCA0B811268734FE829E7AA386B82836580647EDDF17122AB5B79E16CDCCEE0CC38F9FCB8C6E7AF3C6D91EAA8200D27674CAD8A9873D5C7007
311
E828F8E65CF8250364E5A27B4830083E6D6E5F33343A1BB44DA8754A67507AAF03A0718E8F1EFCF8A11759C83D4485BF16AB1CAF72D245553C748207B3FCAC8E9B96412B1035A95A4C5A5C77AF1539D0EE409B375E26A5E0FB6E54B6322ABA9B8BD11B08563767F6C20826C379C02D230C778452DCD1137D22C3F389B18E97
311
6959701FB6F8E77C24E60CC8CB5BF2E5E58312FCDDB9390B6228859C9DBF40105E26E24FE87D55FF086D6C68EA7CF0B1E1415431D09D88C6A9C138EEF5C699DA16DF504B010214001400060808005A579C4402AF3C2FD7000000200100004F000000000000000000000000000000000035453142344239322D444630432D34
311
3533322D383742452D4439453831313743333342452F4173736574446174612F446566696E6974696F6E4974657261746F7250726F706572746965732E62696E504B010214001400060808005A579C447FF37C0AFE0000003002000045000000000000000000000000004401000035453142344239322D444630432D343533
311
322D383742452D4439453831313743333342452F4173736574446174612F496E7374616E636550726F706572746965732E62696E504B010214001400060808005A579C4488E57597CD3F0000904100006B00000000000000000000000000A502000035453142344239322D444630432D343533322D383742452D4439453831
311
313743333342452F5265736F75726365732F38353232323235302D334338372D344537312D414531352D3242343446384244324233382F7468756D626E61696C2F302F67656E657269635F706E67504B010214001400060808005A579C4428BB58AF800100009E0500003D00000000000000000000000000FB420000354531
311
42344239322D444630432D343533322D383742452D4439453831313743333342452F536368656D61732F436F6D6D6F6E536368656D612E786D6C504B010214001400060808005A579C442CCEBD668A040000E01200003E00000000000000000000000000D644000035453142344239322D444630432D343533322D38374245
311
2D4439453831313743333342452F536368656D61732F47656E65726963536368656D612E786D6C504B010214001400060808005A579C446180134D5F0100006B0300004500000000000000000000000000BC49000035453142344239322D444630432D343533322D383742452D4439453831313743333342452F536368656D
311
61732F52656E6465724D6174657269616C536368656D612E786D6C504B010214001400060808005A579C44F5CF69E24F0000005700000047000000000000000000000000007E4B000035453142344239322D444630432D343533322D383742452D4439453831313743333342452F4173736574446174612F41737365745461
311
626C654F66436F6E74656E74732E62696E504B010214001400060808005A579C44F865834058000000680000004500000000000000000000000000324C000035453142344239322D444630432D343533322D383742452D4439453831313743333342452F4173736574446174612F53747265616D56657273696F6E5461626C
311
652E696E66504B010214001400060808005A579C44121574E9350100009A0400003600000000000000000000000000ED4C000035453142344239322D444630432D343533322D383742452D4439453831313743333342452F4173736574446174612F636E782E786D6C504B010214001400060808005A579C44FBEC0013E400
311
00005E0100006700000000000000000000000000764E000035453142344239322D444630432D343533322D383742452D4439453831313743333342452F5265736F75726365732F38353232323235302D334338372D344537312D414531352D3242343446384244324233382F7468756D626E61696C2F302F636E782E786D6C
311
504B010214001400060808005A579C44A233C2345D000000800000006500000000000000000000000000DF4F000035453142344239322D444630432D343533322D383742452D4439453831313743333342452F5265736F75726365732F38353232323235302D334338372D344537312D414531352D32423434463842443242
311
33382F7468756D626E61696C2F636E782E786D6C504B010214001400060808005A579C44BE89762363000000880000005B00000000000000000000000000BF50000035453142344239322D444630432D343533322D383742452D4439453831313743333342452F5265736F75726365732F38353232323235302D334338372D
311
344537312D414531352D3242343446384244324233382F636E782E786D6C504B010214001400060808005A579C44AACDD5997E000000A300000036000000000000000000000000009B51000035453142344239322D444630432D343533322D383742452D4439453831313743333342452F5265736F75726365732F636E782E
311
786D6C504B010214001400060808005A579C4454BE4D49080100004F03000034000000000000000000000000006D52000035453142344239322D444630432D343533322D383742452D4439453831313743333342452F536368656D61732F636E782E786D6C504B010214001400060808005A579C44E3603EBE7A000000C200
311
00002C00000000000000000000000000C753000035453142344239322D444630432D343533322D383742452D4439453831313743333342452F636E782E786D6C504B010214001400060808005A579C4401CEF9407E000000A300000007000000000000000000000000008B540000636E782E786D6C504B0102140014000608
311
08005A579C44CA1DF9C9A90000007301000013000000000000000000000000002E5500005B436F6E74656E745F54797065735D2E786D6C504B010214001400060808005A579C443DEE336E64000000790000001B00000000000000000000000000085600006175746F6465736B2D64657369676E2D7061636B6167652E786D
311
6C504B010214001400060808005A579C444437BF6FF8000000960100003700000000000000000000000000A556000035453142344239322D444630432D343533322D383742452D4439453831313743333342452F4173736574446174612F636F72652E786D6C504B010214001400060808005A579C44D0D11B19F30000008E
311
0100006800000000000000000000000000F257000035453142344239322D444630432D343533322D383742452D4439453831313743333342452F5265736F75726365732F38353232323235302D334338372D344537312D414531352D3242343446384244324233382F7468756D626E61696C2F302F636F72652E786D6C504B
311
010214001400060808005A579C4424F98E6DF90000009601000066000000000000000000000000006B59000035453142344239322D444630432D343533322D383742452D4439453831313743333342452F5265736F75726365732F38353232323235302D334338372D344537312D414531352D324234344638424432423338
311
2F7468756D626E61696C2F636F72652E786D6C504B010214001400060808005A579C44C3E3356E0C010000B10100005C00000000000000000000000000E85A000035453142344239322D444630432D343533322D383742452D4439453831313743333342452F5265736F75726365732F38353232323235302D334338372D34
311
4537312D414531352D3242343446384244324233382F636F72652E786D6C504B010214001400060808005A579C44D06BD832F90000009601000037000000000000000000000000006E5C000035453142344239322D444630432D343533322D383742452D4439453831313743333342452F5265736F75726365732F636F7265
311
2E786D6C504B010214001400060808005A579C44602551C1F7000000940100003500000000000000000000000000BC5D000035453142344239322D444630432D343533322D383742452D4439453831313743333342452F536368656D61732F636F72652E786D6C504B010214001400060808005A579C44E873ABF601010000
311
D70100002D00000000000000000000000000065F000035453142344239322D444630432D343533322D383742452D4439453831313743333342452F636F72652E786D6C504B010214001400060808005A579C440ED8FAC906010000B2010000080000000000000000000000000052600000636F72652E786D6C504B05060000
311
00001A001A00210B00007E6100000000
310
504B03041400060808005A579C44000000000000000000000000370000006662782F43373834384633332D323138462D344635462D383839372D3135433733344138434142322F617474726962757465732E62696E504B03041400060808005A579C44000000000000000000000000350000006662782F4337383438463333
310
2D323138462D344635462D383839372D3135433733344138434142322F76657274696365732E62696E504B03041400060808005A579C44F270F1330600000004000000360000006662782F43373834384633332D323138462D344635462D383839372D3135433733344138434142322F747269616E676C65732E62696E6366
310
60600000504B03041400060808005A579C4488E57597CD3F000090410000420000006662782F43373834384633332D323138462D344635462D383839372D3135433733344138434142322F7265736F75726365732F322F305F67656E657269632E706E67355B773CD4FF1FBF73E71C0E67EF7576C9DEF3EC995D46C6A1EC50
310
46649CBDF79E192942562825CE965D8A868C2842C8DE9FDFD1F7E7F138F7078FCF6B3F5FCFD7EBFDFEC41B196891913091804020321D6D7513FC77D8C5070EC3FFEE51B21F068154CC75D455CC028A3EA68992803810109FDDE5D5CEC5521B28A1B422BF80741695D5B529DA1C2D058AD2388BDA9F476F7C2CADC939304173
310
DBF48A452BF8A700C0C70C3D121C1AA15A5270C22E2B9E28763651F7DA0D12CE11077B2ECD0D560B5E3DE2368B1E65C5E1C87384A4CC5F2D9FB8BE39E9B77C753783A37998F5CEF1B4FEE553463245C9712270880DF339E0B882A6BA713D865F6F384C842D440934EF264F4A304F8DE4EEFA1E2BF5E2D91F5ADD9613D6E31D
310
DB33ED31DB1D7916CAF091286EA3D31B9CFECB78BB0060245B943C4C040119FF780A74DD308BA9D028678674EB5504ECF284EE814DAED07440BAF649BE4B55DA2890F4D73E2D489A59EE54FDB0A85B59F2F52C4858A02705C4815A792B0C4A996A2023ECB195073E115E3E3647F64243A8338F2000BCB58DA5692C7E7C3D41
310
3F963FEDF3CF00FBB0F831A9D51360FECA43819F527B89FA260EB63C5DA676830AA3626A3693B23F1A17A0DFFCE3EE164E31B5365EDF0C89EF64D8E38AB0BA9A1117D7C3A0EC44F44F4023095E80BA610DE336D0F99593A88BFC5306E72DF98F7FD132ED95878DF2964EA7E43071359FD83B2BDF9C6B5BDF768F0F3C0FC351
310
199526F53D9460A34511F75D1B63E488178569472C91A94497807A3FD4A390C6558F26D416365C3656DE6E769DA9D8FC73774E1709812842DD8EF96AED1960F79D21B395CDDFE6F92CB4EB962A4668C76990E2EF29798C8941D67DA50F4A5F947872460F1F6FDB794E8A29FD7AC0C0D6E0714339CE258FB17AE8535221E346
310
4A10F29A0BE5EEECEFC5675926A89F49EB14E5711894F6586DB5754EB4D5DA9C6437EBA57DB97A24F8B8A8DB295FFD73266CF57E82694DF5166DDF93573AFE9C9C5EB05F8FEF8E89E0A8917B0B3724DB7BEBB53252581EFC3E38166BA131A3A5B42FE2AD00A769BBFA4458D2DE7822F8C4F63D0B8E21B285AE13325F3410A4
310
35C648C9D91FDEB109E73CEDA7BC796961AF79175E1A3CE4C5E8B0D009B0C9E29EFD98BC8E97554E3D8D838424E270F7685226E5AC268E021EDE3522D583E8F20C0BDE2959EF5BBFEEDAB32FE9A3ED0E39F211A86AA9DEBFC68182EDED132AB8BB794442D2D7EA9F4D8BFF52BC4D55BB165124EE90A42D101E67BBBB292FFB
310
4F66DE5BF2300E44546757DA7CEF8932BFC9F92A0707953491A55C5A5ACEDABD9FA1AEA01BAC3DC5A24E22E7C47213493996EFBC369D086ED9397C9BA6C7F9855C7BD5E15BFC8C53DB3D2A4C5901A57ACD2FBDF4D1676E95338B2C2BCE65FDA4C64F5FEFDC7D9CA5AA1FCF11E193F2FDABF0F4916BF13FB916A224380E6462
310
A9815F2300DC49CC4DF8D055CEF76462F4B7A7ACA7365C2707891370BC1D0AA6203C44CCAB47084FEC057F27FFCD57F89B8B9852459798A675C66BD7CE572CAF71FF7E6D7ECF7BF62CAB7B3F1107DCD04DC55A3F9961700286141C94A4F771FEB2BCDA2DDEE0CB0BAE402FF1DB0100F8E475DFFFC074DDB4498AB7D186A765
310
4DDB1CB680D703D47CEB4E72F8CB13D86A4AA68116E26387B93FD6738779B34FEDB8E517EDF2BAF28D9BE93A1D3A164320E07D42E514725C29515FF361754213EDE06B079A2E99EB1CA82A02019EADEEB87B9AF005BD04BBCECB14AACD6B24EFBE482194A97DD32400685FF1FEF1544D1B14EFB1E7F08E6D2CD2AF52DE757F
310
35F5E62332EE88EA26417AD5C3E0E319D68F25414E6D672BD4522B278C57D18F0113921C71D96527E091F00CEB15AE23D24667369BD3CEFA10C7549D930890BA4366F4EBC55F01F746109F98ABCDD5A3EE06619C6AD78AB33E48E4C9BD21BF7478B385EC05C4F8987E2C1BFA0A60EBEDAA0AE0B015C2720ECE180FB6F2DEFB
310
EB822D96338C9B63822183BBF52FB664A7AE57003AABCE512BF77E7E31BDA2E739AC4C131657DDFE5225E900FB56CC01CDE808FA4A9C9DA16AC679656BB64796283D89812B8F91136AE18EE5EBBAF47A73BE3C153EB5D4CD491B4BFB4FE690A4CF9ABA08C0D8AA64220C438C96EA6CA80B58FE5761E697B3A292EB9FBDA502
310
FA863E49FE694ADDFFF9D62C520BDD1A22014147A0903A05B9B729F54272EF83931FEEC057BFF8C8055C279EAC5C0011804828734024F6CFA319C9CC6867C727184465CD9BB7ED386AFFD96B294A85E3802FAE47244602D8273615952B98C4F23F7EAE4463D9D638EEE374A20959E0FE519C4CFB0FBFE5DD80C2AA3F9DB961
310
D1BDE57E67C9BB47B77FDD74EE3094F5DBBE3EBC1FBDB7393F5116263009E2EFE1AF9A221B2AE234C902BF70E9F280ED23E73908361565964333A3F01D0B006AF32FB21AA1316744B489D5A198E85299241735BE559675130955C902A8ED761FC0DBE337A9F91919AF5CE32AF902ADF9AB2615E00E8A94586BA1A90839B618
310
32FF1BFB76D2EFADE6DB1BA04CCAD3DA649E7E2A0219F592E22F2AD54847EEA8E42271011E9074F8F3DD9FBA6CDF88FFC9FC7E811AD1CA8F4557CE4AFC7BBEDCF0114A48689F20A584520C74DA8127124B767E2FB91A6B186246727BE63C9445BAE02088D58B8EFDC0F1072407CD9B89A13F6303B4A928F593AD489B58E686
310
9325790ADC406036C591729FE14021F94B7796BB11848D463536A092A26F077F94639F7CEEE2A724C66EC885F4A24F8B8A0AC321F8FD149BA529460FAA34E4663C02D41FDF80BCA222D42F0ABFF8490F4FA74C673807C2051D8E467B47B616072860069A9A303ABA9B319D58404461401B0A0F9BE5E1E151C14BC33B32ABE0
310
3DDE91708DFAEB15E7C0D593C86BB7D7EC17BE56E57975F077BFD5525F3A1A361D584A75E08CF29FC7B44B2B3085014F3A5A14517377C3F6B8F37E59514C3B12F8AACDEDDA4DFC49BE5710101534CD6FB6DE15B50F11A09472AABA727F0C49D9CB906B158030065F48EB3625E010CEC1D511D0053474B11E6A4F01C0D6EF1B
310
ED3A944FDEC70E0DDCDC756C86545910E0DAE3BE3AA9A404574C2995CD5CAF9549226BC94B4F4F0F5F9086F418F6B32346464610D8BC7391D3C3A3CCF04CFC1FB2A3A3170E369511868F14EEA4E5E438CC73DB1F3248AA94B6B2FF33B222FF3D1E7BF146CAD229770158063BCE4F5391964DF62F7E52A7BE0EEA829C9E13C4
310
C147D6F93FE59E111DAB5E4594D6F3CD1AD375EE039930EFE5AF2BB2D41C83C7DABD8C659BAFBE8FAB392CA634F3D15C1D945DB4588D2B0824A4EC928AAC565557CA2F0DAA588CA5BE30B3A8004F7BF005E96CBF891D7F18112A3619FDF530DC8AA64954258E1811789B5189B49B4EB53F5F89F7D37523894F3EB57B373763
310
C91E502F52CC99EB7BDDF933FC324C4FFC2561DFFA7339FAFDD0A4BFBE6D3A8FF9ED1FC49898139864602458968913181918F719CCF5A68B2EE9C1FF050E34E63107003B8120FA982C21B30A874E4F5E4B38D5A8290C4B8D9BE48A0BE31EA995BDC37AC6DE90BA17D259DEF53605D55922FEB1855D915B659FBEB350EE0DFB
310
2F9F766E1C84CC8964B75D08667445EAB966015F63A18A9E0A325C1B3DC628C0D3CB60F767FA93CC65F25458BD23C3B312716E5F40E5858AC06EBA9AB14F95DB99147B832069201541D09A0D856E12C629CF32683760EE855537D1901988D5EBC156676C7DD51D7207CF3267AF1D76C2AD867315E44618015313A98B19941C
310
696FED3461CAA9B5415F918556D7802EDACEFD6B2E45853A9735DFC9DBF7E440F9319F8B6805A973BCCDC76C069A9144E51F187EDCC12FC31B5DEAAF0A76137199B106EC84ADA6B6EE697D4E6A96E007417F4E880E8B1E89B4BCE9D81EF611E2ED8F0C1A6C25F620FAFAAB656A7C42D464880E8AFAB0E0FC8EA38CA9A8AEEA
310
EE3E4648BA4680270A89743CDD3E6C6CBF34B7B640EFA285ABC7EA0A1E28F3CC963D114A80123EE66D0AF7D5380EB41909B605AB4765B709B808590458157E69BA1378FEC4B48CAF6A730E3BE3C5EF2DD1A5EAF94B1DDE50CEB55DDFD7EE9A16747FA4B223359FB1FCC69E1194892BABB93A1D5C4E807AC0EA2E30180811E7
310
7A2291F6E7F7FAA5E0F60215BC6024E48DE436C511F0628B8CA189982D4D83CCA17D305A7E923C37941CFDFDCD93ACAF735EF5F0E61BBD3E6C41A59B242790D3A3BAC7064DCD89AA2E37214EC839820949D5CAA31E240D2948E48F690298974A96BA9A8432BC90F5071D6537C9666EA4564796B7AFFFA548077BEEA75F6308
310
3435074BA182F3699557397F71548383FDA8CA34D99B981E72835ECDA5DDDC151315173D05A21F651AAF8524E88209E2E7A737ED1045800CE3390050BCFB8BE588DF111617874C62575039CA588EEFDEFEFE319B739DE2EDC147092A262611E159650E787917885EF08F1F51B8F2D8A71D60B58B190FEF9541A1BE94BC19FE
310
A50784DA1419FE4B0FB51B8D36B5FF8E1286FD8AF42B91E59A5F1CC4D60174E764045FD8C57B18209B217F89A62252BD20BE0E63E12B8E8F029FE19E0E8D0870F58721A557082250D5424F7909369376E41666C0EE77CD87CB283F661D5FB6D0DA023CB67320A20DC7BE661E9E1BFE5463085C557DA1FF9BE835733766C3D1
310
39F2CF9E2208873AD0EB4814DE9E6BF2CAF81614D4D43906ED1C05A3265CABBFE192770FC2F64F940CB6B17B5F166F133C9AEEAD2641807C3E69515171DD74C4A85311513D6EC9530B3B601B6BA3EBFF3B5C3D2F7D69765141E345F75433953D013ADDF8F6AA7DC3F4A7563FE5C7D367937E2900D7EAD0F9FC9A4A1A9B5BDF
310
1FEF08532660C01C5D6DE22199AA774383E306DAB87E301ABB7D213887F9869D4942D0D71E94B27EDF216A318BD488D45DF84529EF575AF3C3938C0AAA0215B01994153E2054A0B894DA5C784980633AAD48576957CF4AEAEAFADC7C587368551C73DBE1E57C58AC713303A8BFC258BD04B51724459FF9E24C03A81E0E0679
310
CEB9B348C0DC998FEB9C6D6EFA77D247CC8F92D3848599ED89A23218D0636465AD1CEEB7DC140D7426F83491C4E8E8281C2FB35240918FFECE880CA2A42D70E8B20B34DF5221C7DB0CF90ECCB9C745B37A47E9B716FF7A97B7A252C1F3814DC7B1E1A7F72B8751D524EF7CAE45B0C73B3BE7D08ED39781B380DDFC9AA4A474
310
9C9493DB5BAD07A6EA6C092FBD0E85DB004DF06B8C9D3089C5320187E4CE1846158C7EA7DDAE8AD9AFFF21AA3A1026BB06A259845E8232DEE62811A4DA9CEAB3A4887320B76E2AE5615EAB7BDF738CBDD01F1E64064BC13D9EC53576751CA8CACD58B3CEB0E6CA585BD089B2A59B9FC101403387AADBDBE70586B93D64BF3A
310
D4453EF9C3B6A93817E8346991798601344F79A83C51F3D50F7BF2683A3605F51A72449489E0EE6169C749C60B1035651103AEE24D24E51A759C840DD3FC6504DA6FE107510E447B43461C79D22970B75DE5E1BD3007D1AFC619A4A4A69B5626AF5E9B8374E20677F77E2F8E73DF868E8BEC7EBA7B6A75EEF7205E1AB9486C
310
B642741D6E03FF13FCCEDB1C4AC129886268B01CDF4B124AF797CF784F3C6DEC97A17D4B558070A0F1C04DA4FF9BDBF34159AEFE958479824B3F58EBD1E19088A2AFDE501B6F2052368A3FD0E650A179EFAB1561E1D27527077136E652676C3670F42DCB3352F48F6BC86D2C3B0051727E41A0A4DC6CE2BE9D47F5CAA2935A
310
3C0539AF080665997194ABECD723B08129CC5B6B21D2E7D54CD4D12610E7E9FB8306771A89576C7A982002775ED44F3F744CF21EEBB27A631671D921938AAEE3EB0D19CD1E083727F607823E817BF599DCED5394E37EEBC2E88782E638920CA641EF74D4CDFCDEF06F4278ECB18E31E7E9876F2D783C8BF429C75395F57E98
310
C2B495A3DA077EB3AC3C158608B6B57FE3EA48484D9A480096FCEE0DE880950E7E5A5714131C5C41AAA29FD19AE81AC145FA1B9E85C7169A5AB837B213493DF7E9AA4B5FBF9CDEB36EBD21EF1181B7CF7366AB2A951D01E37AF4EB835D1BE8C117CFBE7625D2EBCDB0B20C5A4B45CED0BCDE3EE8DA9DA78C2E21DEAAFFD119
310
7E463C33CC6A80FB785669B856EFF7A8CCCA2841B5A5369173320B1170C368B2748D81062EA0296E5E2D95D7667A4A46D98A6FF475C76AAB0A8C8D45E226FAFC9FE0133EA9F60111F99CA81ACE03A1D14C89E8B0D69079C91464FA1D99E651D0EAF606F345C42A8A1AA9BA391031582B96D5B4176A77AADB01F12FD298A75D
310
EEBB2C82F0B8650E880722F8DDD90C56A7A058E5FDEF1AC93545BA27367C76F5D8F9690CB6F8DAE141EDD7971F0FB548A2AE435F224D6E5954CA155512F7332029D5A1230854B79F258EC5FFDB09F5F6343A8EB193229B7F7E79B3E48F8E183860B38C8269D1B53738FF1E0BACF6AADA6D4869E9DE708E79B5DADCC09B1BC7
310
6F649731CFAF59A83FD8BAE4C749D66FA87A3810D4D62FFE826FA400C0F325D2BC0F3CA35F5847B82A2ACC7961745C823E4D863D54460AF792CE6F79B5C7A33B25C3AEA6CDE15A919B6367D781E9D44F61BF828672594A3E1D9EDD6DF179A81F27EAC05B936575D73E05C209DDD2115CFB705DF9BBF3C911589B3640735E9E
310
618FC9C36A7326C82B2205E244C55D56FDB9D5DC93CE958D4BF8174D2B3DA54CB3C09F2C2A6DFF73D23B2197355761AD421EC581284A7EF8DE2CE3497C0C804D49B41DFD6A7360844E5BEFFB495CFCDB97A4595911CDBA623274CE852B5E278AF0BEB1770E9D37CD977B2766A7DED0E94B840E1E95E8C77DE5CB6354AF7871
310
427C28ADBEEF7BA0A28E19DE9ACD75F379FE373EAE6DDDAE3834692F9C2B03B4FCA8FCA9ABE8EEEBEBB725B88A7C90941E850682CA04061A7DF0CE82ED49BFAFFD42C309818FAE14755CAAE78B0F73243ECCCAD7DF58FCB9CDFAE7A4D3E6671A613639130D056C8383C8F4FCF4808C331E544DD26E4755D09EA05253B3049A
310
1E32587CC25D72E073E2CD96D04A71BBCB0038FEC3F53D254199C3CDC67CD66640269431860225392B2CB3ECD0B4498AAE78BA1994246AE1EE78F2EDFB79F6C6CB6B5E279C4D373FBC21CB2698C9ACBBEB6A4BB6B39E16AB0E421CCBFC7654D81ED86022F9BB522146F9F4772E2D0E4FA70120C95A85A417BF5078B232F475
310
4363EB1750B2AC2148EB46B1EA72AD9B4D23ADCBC589D70106C3EC2ABEEED84DFE28E718C6C83502C28E9FDD3B09DA0A6F6F7B72B706A31C9E2A331EE70DA56A083D2177BFD63C55B11D8D949FAFCF90B23A1E24B9B5018B9A17E99F2890EC302F330FE7936E2C23F0D237EC8916F5166AB84B62A21BB0B950146962D754F9
310
2CC2C8877BED8FC7B7B25726DD19545392570B3A2C66B58F027BEF412E552D12A588C4A3CC5C3193FCB3485EFFF700D0B9EEC077754A33DC1FB9E25AF814628F91DDFECB667D3F7690803F38D13F8AE39353523BB08FC6760144AFA2CE28236F65EDBB3D5F59A57D612B99E3D7E5F8A851666BF9B5A6658EFC96EEB37A378A
310
BB0EB3FDDF1303AF32C41BD1C8560745D7BD81066B0D6313359CF488563D3BA3F8E2185D1FAA3EBA1397C9D0E3DD232180A4DCADB6AF25DB3AC3CC26589C8239E66E81547BC7E2F328F9884764CA37EB5DBE390DFC03A5246B456A7C3684C4377D0EEF9A350680FA9A077E8B2957B489E09AB1AD41316944C2254B5984830F
310
691C93CAA767EECF976FA5647538830B5E63236A6F0365C1E0F3E327F24FE35EDDBD7360B0F7374837409F7A6311BECC12B7026D4FA1AE204FA3F5FE904B1F420C7A9044AE58E403E7C4848E7DA25DC9EDAC79DD756FAA26B9EA83ACE8A214A2612A22AFA19DAE7DBAC5F8CDE1292A485F98DAC731A29FE01A3966E96BCB9F
310
B5A4C8830E1B9AF0C54B87FBE221A097036E5D28D1F869F810C06A9BB0AC0612F69AEBAF893C6E7AD59460208BAB3A6B09CA4F6BDDAB8CF0D1F84B72487498395A70DCD754796E271099A567A55CF242BBED64696378BB6CF25EF0FCDB589F3A82F1116D010A9AB9FA4358809EE0C973A2B4229BAA876A70B03AB49CBA7FBE
310
71DB1832FFD32F9BF2C8E98075CACAFB36921235D0F552B6A67E94E094097A5D7DF681B40623DA535ADA7A9AD8E9A62407D7C9A5AE51D62A17A83A23728DE86BB56115804D3F2675F2C6B87541A0FC497BF0CA86420F558C9859EBE9FAD62747E323E3AADC03FDCDDFE7407B09DA90B44E3185723C5381EAEF589765E2F7A0
310
99BA46695BAD60CEF3491B8A171F5F56444F7CE9455312C3498C74173AEA0214EC029833B34B650CBB5A5508D5091665309642791708ECF27CF11DB3D797D6CFE474453BD4BFADB768094B2147814D81C7CBAF8228DCAF5564B5891F5EF6A860EB2E323CB82AB868D8EA048880D63B0DE5341F1B3D53297B928A11E15F25E5
310
148990F710747C3509ED14909C552EBE3973246FCE55D00564D8310BC3EBC5085D08D806799B77D6C57FDF5E55837F9E934F09C03C729271B64F12D0A9F9E938107CAF7BF1EC8CF1BB9B42363D33070F4CACB425E605DDB0A34A12BB936DE286B9887A4E2E558F0886498BFF49C311D96C277CF6A9FC0D75AD0ECC5226D7E0
310
E3572012E56D7FDE4410CEC7A6D0F997F225A2055B8B92E3956E875AE4993CB3D4C9063AF98FD45E1BAB165640A43439A2C9181A7C355B297C0A0CCFFAE19B6FA3C2BA238A885FBC98B8F6DAF4B94B97304878DF4D8BFF6A4AEDF79E90ED4E68F00CD7299F4E0D83E35601AF0CBEF18C1E870E74758FA91F5131075004DB3C
310
FCF09AE1DABC11957FD9808C92E8A678CE9DBE40DDA0E0D1D505AAFBCBA208232BFB6FB3704E8985E61ADE53DE74152F5C7DE74B1DEDCD37DC3E8FB30D7EBA8B9EFFC3606BF90B8D438279CB7709FC7C00D327F41817EEA71CD9E49FE9C8C9A81C70915D9F0F15958EC5AA4C3BBFAF46986B90F188BDB24B89DE3C6F29EC3E
310
6F66D84856EE96A35E657CA41B41EFD8DBFA16AD6E91439EA92B40B21C053249F51AE50EB0B24C770FFAF40DF12C8436366819C48E36547D4E7B72FE2BBF10828583057814A668BDF183F6B2E58DFB151103E56303E63D00F39C27C4661605DB644D19175D02E3F0241E8FC3458D17AAAADB117CE9EEA690D0DB01E634878C
310
04C2C9310B69FCAB831151E3AD293BEF6E46B0ABCECB50F5939B39C613D41E81FAE8D34CAE3C4566B761D37185FE864AC32FCB71AEF39DAA5BAB88609BB980CD2F07A8F941653B529567726E2B2A58D079DD57E1E5E31426CF184A04D7B03B985F276D47406AF276FE32E3328BA866EB1FD39BEF57863A317634AA5FE46740
310
9B3873F5069EF0D71AF00AD189D17BA1974ECDB2D623E9E14086386A6AAB5807825C37B015BFE892AFD154920EC437EB945D958E18622E1E0FE2FA06557CE4BB9BBD05A2D40E774DA2B65473791E314B7D6C886820B2FCFE4AA272B3B8B15E7344A145E8AF919B5454D89D36D413E87211186BF6F645E5EC94DCCE8E1C7990
310
22E4EC9BC86D7A0F2AFB1FC4B2CE48F84B3F49ECE65BAD24CADCC07EFF39AB06BE9E6B27A059938EA7208838455383DDBCFCD967DDE4650EF92A14FF933C975DB20BD7FEEBC4487576485963D757D16340D9599FEB362F775F38CA4185A86F74B629C81B133644A3B18FD056E997E0734F9BE26D11C0AAFC669E2AC9FC41D2
310
81F8B2E1C35AE27BCE05F3DA295488096688719D974DF1B5D182DB7792288697F8763CFB43562C1CDEE11C4AABD5C22B6E33F6F389CFC3477C5919DC0D533F8A7A1846B7ADB60ABDC26C43D0CFC8910B7C15EE22675BD02702ED39DB77A87A192CA7A543E6205B979B9F5A6B512A3CA799E198B2D5797C0AF8D1D872CA455D
310
4D431A7879D4DD76110B5FF7F4176B54477A9EB5E4A5D11214FDA585F0382751D8E2582BA5D2075053298FEB8F1537304E32CB22C2E2B693DC0A760B1DFCA751BDC445AFDCBB12820ED85F6D5298933C7EF1211E9E057684056CDA3FEF3BB6052355E162DF27C59E965A8DDB7F9437EB72CDDA3A090DE65A5B2F50326247B7
310
EC67B73ACC7047FC9B353D6EE990F772207C6EC52B39DC2F3C0754821DAB559F7C1809C7D0DD5B0499D0442E0A6E391B3D5DB46D11E731E6794EC77523FBDAA242ED67F9FA1FB684255671F63C9BCFE6E7E896D51001A6113EF2298BA494E0B0980D1FA5B9D60796554C02256B1E0345FB7C6186B6A19D2DCA270416262845
310
FA4F42DB5D9B0A0B6F07FCA2E56C242522E001E0CEB734AF310FC8BFB57E38E03AACE93B3326A2197891E68452B26A6307FDABFEE0223D3C03C3C73D2D5BC054C8311F12004CAE488E5C29287F8156A2CAA4AD0D7BE6B97264E4139F437CE73ADF52E5134C52B819777C18B323A5924E4F67AFD13B1CDC3A61793A79FAF5C0
310
CEB718E441071E797C6DCCB9EFCF7E4A1E9F3DF3C2F9C9E8294E9586868788C972857FB0556D7A26941A7EEB9B580AD78EC40B85DC906B4120A563CA3B87797ED612D3B035962BB75F6515A393F4CB057F564CDF54F2E5A024514E6A1F901DB80C7E70B1FC05E356A7E72FABF4775B3E3FB8F70A2A8E7B6A94542BB3041579
310
78CCC999E707A29CC795E67A59CC546A5D47B368954CA7B6E75EC9E1F6FC73CE3B4F71F8CB1A6B15923D61EAAEB14626AAA9D04A26EB9C66CD1BE86CA31A5D8703DE04CD1EBCE4F5CCB62F93909AD11E55799A781A956ED27D3E738F4538CB04ADABC7DAEF20BC35BA6A90BCC1DC61BA05F20D8832FFB9BC9B15E2DB838A0A
310
FBB7E0C82A562127E0446894F427794C3037186F622BF24DE1B00AA10A23BFA47B2A180D6DA5AD6F7326FEB8C100C2D7142EB2A0B2A9D1008A09BA343D70E054AB69E2A7EDB783CBD92537FAF4A44D1296AC2792729104B3276C276C951D0CF3CF3F1E6B017720A7B8505A5FF9589365979678C36F1BAF759EAF57C60F1FF5
310
FE9DCF5F8E764FF25A2D06CF25117A8FED51884C13B2B750DB0E4F5E3D64124FCF11F0AD8F1CC3B3DA4B38ED22BF1CB2585EE6BFEBBA63FBFD44F9537B9B37BDD6B358720F98A8125AED4349CCFEB0E135F19E208A04CA7E2B10711185D72E381F448036EF57C9F874E54A971CA37A639E986AC0226DC5AA00D5B14FEA9192
310
234B3DE617814FC221C92F33F1D392F297731B567FD98FD91D989379AF567A65B8ADF177591DB90FBEA99BF4ED11B16E50A0AB1DBF1156D034BBE04D69D08F939D8E92BF525A1DDAFF80ECBC95D8F45D3FDD289FD23F7D8B452F8EBB34EC082DEEE68E18EDDF072060FAD2AB1504DD4879BF67099FC58F6E9DEFBF645D1633
310
4A3E9A127C6F1AF6132CF287E433B43A0EE93812B4AA0B194E03EE3FF91EF9C6ED0074A2F6EB18A96A7C9890B1FCDA1F2095E944DB911ED54C60DF16FB74C8CE9BDC7C54C4F14078CF73C2FFF1F1BBCCD7CF64F71407EA1683DBC410D226627F66E509060D5C0AFD611DE681D509DB8DD12FB1265B03C6F5C55FF4C30BD941
310
87FF692B4F152982502F193098A789526A038AB529A52BC0DC4FB6285CBAC10A8B8DB75DCD9BDABBB221E27D1F8DA9F5EE5926A1C8AA9BA9BC09239C6A7F12914EA3B59EFF7AAEC3FFCCE56F1C5C2980AD072793527565E774F4631DB178CEEC691B1F367BEA0CF2907E1D6B854D527065979DDEF002D8B2ACEA7CE21AE297
310
737EDE1D45B31233B73FEA35BCFDD0B09721FDBAF6432681F2FD10C3E9EFB246FD6E854B344ACC9D8A0EEF876A7314B49B6A499FC650B099D650DBFEC7638ADFD245E2B7839DA5AC5F7D5623FC0ECEEC8653FC9B2BDD1AD4D00A566FBA7186DD3C9CD26512551637498CADB950FEC71ADB9A5524285DE328B8EC7EC75D2345
310
AEC6A27C42AF6D9B92155315C80DBFCABBB7DA0FAE425C4FB896B15C9BFAC4FE67DF5A23D30C93DA4D8F36FB15D100050DA6062E22AEC5F4DAC4F6FEEF97AE05DE63C6D38F9E068A20BC5E3B6BCD75320C5090924E7F93640A7735B1A43451C2D91EE62C6238B797349E59890AF3A520DF4A87095F3ABEC2E61F0593416CE4
310
6CDCBE0E00E2523FCCD04408588B5B6C9DB6459C786CE378770B54F51DA3A5E1DF2A3349BEAAC234A6CF8993B598B3B25B4B113E353A4D750FA7534749430F3EBF2512E7EA3FD43C6AB9A1F765A58463B306721A15D224FAFE8C6F5E3432D57EE697DA0DD5A9D4866A8BCCAAA9DFF1F06047851408FEC060471D0E3EB86BFA
310
F46E4B5E60311DC3E3CEA147C75CF971BE74689507154FF2D2E92F15CDB2B9182B11459FD8ACAC5A85F174BC94A7F4EE4C4F5CAFA7C02E37BF0BC77B7DCD0C047BC316F562A01A441AFA7931CC84A28CB9F4AA367EB515778F29BFE61195FA671F4352E5E46E3A64773F1F76EE5EB36D7BCE9BCEAD837A4D77F8DB8C92AEEF
310
6711920D7C7D0F76B0FD0EB7AB83724CD35BCA7D36DDDF5FBB7FF6F04A91F3E2BB3B8F1A43CD659639507FF6331C5F697BCC782AE57D757A27D97F1AB9E0AEDB43F92F1B2AACDF5FEC8ADBAF9F814E2027003BA2F9E144B1938A7A04050AE5D953B82C45619165C813A10E76DD6906B3C16438064D14CDA713AEC420034613
310
E1AC7241904A49FBF87409AFB1FCB9B72FE7933A87D8FBEDACECE4EDCF6A4FE9FB94D5DEB74FAB7CFEAE17EE965DF980DCCA2D04134994F9A2E94D2265DA4FE6AA7B7AC15FACAC2B5ABBCD7DFF542C5314FDAB2E1B9D8B65220B8E2B638BE008E8DCA22678C820C5053664D15E89F2D735B51A84955E81A443545E9FF787BE
310
0FA700A76D136C27DA179A7C6E8939E01BE756E19CB292798063D8B97F44E8A27BCF3A614FEB8BE974A718E86F7EC99B53CA35FA24F61F2B07266684623A3D4CF073E511F3A10A8FDAFAF0078C577F4DF9D339FE7862E5FA47CF4344209E5BF76D783B1B48E152AD281B15FCB934DCDA49CEC5706B1EE8B460F435324A5CAD
310
154725E21AB8044B75A557A79F6C807B9340AA3D92503E866F4274412926C8C504E4D5EF8C0E68DD0B028781A6B4054F11CF18941F101C57CCC796773ABC8DED9CD91FE5788806C05E548895354AEAC96546D55B0E94A59F148D061F42AA398D822CDECA4CDE79E13469BDCC44FDC990F366BA5978C15F97ED80CBFD73B0CD
310
9B8B83A4F6845BDFBFAF034019473FB9A63BD55D3A4A7284757071574029A4D016DCCBE95DD679EF3C4880BF169422F8C89B68A988D2B13793CAED4F74DE7486C72DC94DF46B8E93D8E02EFCB1FF9B3BA10C8AE7F653DF94F4AF466CDDCEF5776687F7C4C14B63E4EED1719DC2EC482D7DBCC7AE518CDE3D5FF86D39000EC3
310
673C0044E1D308BF05F74D1B5F033A7D1BE7F74BC55BBE3E4A20F920946CA0271EB17BD2B80E5660ACB8A29A79F5E4BBA49D4D945B6EEF4A7EFEAA65E5555BBB57A7E15D2F83C69F30BBB978D2B39F1F26FC097424D39BB33CA3D87ABF64E307938B685BAD44F71556A30B7E712CA4FE600613C3E554B69ADE949A7CFE214D
310
F1FFF05CB82151EC6FC31950239F94CF7AD39DC473F6EA356E5EC2C4EFA04383CEFE985A127484366FBEE3C0EC4FEA363E4F6632AE781392FD45D67B63FB8DF70E82734F431FD3443172A0E30A83D60982D55FA6A2CF86DBA8382502ACC6CDEF3B907982EED1160E14863FA242F9757347E1544275CCDCF71ECD5F8621CBEA
310
326B8BA884AD7F825781923E66971F04010D574C541D8427A438A37EEF8AF88240EED7362C953F5A81DE2D56109CDE2524EA0F5D2F87308C0C47BD97AD605878AB8589E17CA83930CB5E0DCCD75853D68B1AB136594926DE426C367428E9334AFAFF90ECE221BB5DC9E5BB53D2CDEF954EAA9CD814F0E5725F1965DD458E5F
310
8487683AD86B9D0076BE3EE91EB1CECC5331A67A3F79D8B27587C12EC2A6A70474749F27B4C0BBAFB94B34189E88DC18964BE4121B9137FD516C7755356E50D6714E31ACD222621EBBCD1CFF81D87479056A9DA0E0B8EA19D24CF937DA89F78E8650CCBDC110AAB6C4E46DCBFD0446BA9E2060E81F314AC2031E88135E5476
310
AC0160EF5C0DD2EEF1B8B5CB2D198BE9A554A9093B5F7D7E4B5407DDFCA1D9C152FD97F55BFFFDFE802954DFEC8995B983E28AC92F1971E28F531DC407A1280EB125F64A72E617EFB27DFBCEDCDA2D6F2BDADA36873EE46B9BE1782998C63DA7182BC383FB6FD15DA472B175D7E8B4FC88F38D6E07FEAA3FA3CBB8F6B449EC
310
F14D2175E5C5CCA3A42ABF24CA6C9395AF74535F4DDB38CB84F56614B0FD32D7E19CA5CF988DB4449C40E23DF2B16772594554579094450F56F253CD25EA7F77366FB1CFE79696C428BB64D5A41E986189427E5E4D7E2DAE3D5BB4972B3DC44EAABDDDD63A2264ECFA5C786EB0EE1FDC5BE34FA0F08376869FD1E61EA06CAE
310
15191135445EE8F0394161C3266A596AA035572BB0C8876180D8B9C77D307DF9DCDF7365ABDA6F3A2366436457A4DFC1F259666569A9E4A79C817BDD5610E5200FCE894A358EC72858D50EF67545DA81C6FACE3D457BAF70367E1E6BDD9A952FB4F56247F58F523B97E640246051A72F79BE42FFA0B3187F63097F91C48B86
310
8586F714B0EBD5A00A8412C1236E1298F60C72BE6C96B82B404CADAA304AE9F303176B14BA53FBC2D5E86377E35542019E24D97B96A49B2C0E5006E7795954DEAF5DA58958839043C6C70BD3B1B33B6DC5C31316D8A6923F142E26F6711A2258AF977DDF1F970ECC4F1F2B434B96D81BEB6E89BF3BBB3C7C8CC80505070723
310
D6D7D7D3C8CA27CA164A26024FED94B12A86031867241DA53D929636DA600F050BC40CE48B8BA03D69224720DEE2ED2127390BDF5E6EA64527BBD4C4C63FA76BB801FEEC0E61218EC98A8A86CD8313781617877E66692839B9468CF4DB8E50A73986E558E309C0D6F676F921BE02F1185454DC75B111572FF9D27D85EA14C0
310
5AD7271225B391C4275659CA4A43759D0BA44639BE4C30A84DB7F67A41399FB95CBF923B1B1672ABC807C1590557FB18D811983FA97F5E609516D62281D38B1281F68FC75528C35E4CD7DF0F7DBB5E5DD69C414EBEA2F4A5B241B996BA77AE6C772E367408C633EA3E438B68563EA8BE7667F3A4C4FDEEA52ABD78A2820F44
310
3B7914A15F180018D231E64519C56A12F6CA7C8DAE18F06F6B769DBF92329EF6A5D18FBCE600F36BD8E8198DE5CDAA96181F3A756EBA5501CEE58F497EA4F418A2B82565B9BCC611713C0B708CCA1F398B78C5F7D03B3437CC18F13061F55C7BEDADD5ACB1DB0E36D3CE47FF6EA1A563A57E9649EA5D14D1A50EAA45746338
310
1C073777EF1600607BAF6428A7DDC079D47A204EF1E1F1F0589FB054D45E02CE623B3823C317C601E589E22B1E88B448524B86A82828E32345EC18AE17214B42F8C41C6D428016D9BA31DDCB47572561E5A402E5BA4FCE55F78AF7268524AA04130F3A20BA5D1E9F9948EA48FC8F5314FDB35E21898198060034ACE5E3E2BB
310
CA34092518F275190AF65F45867FF0900AA4B81F25427414C372BF51DC29AA855C5428EE1EEDD6B849AD60F6E73475C2D2523F8A2772C840A478DED18A8C5C91B085F255DC4F54EA7AA8947354FD17ECF8FB3B4A0DE7B483CAF3A1165EE05BBA413E5C1FEF3DE1D6B8F2F3F3251C17D9FCAB48A9AAF63AC773A0E413BBC46A
310
9ADF84A566FC920E4D8C52C9769EE3301CADEEEDD92B312E02E2A7E35B7F1E7D203FE5A7D75578B06E99D0E46FFADB8FDA17ED8880390DA29094202D6F645F76F6F96409CDA05495A96E84B04A00D1A6C6C81D7F3DE9376E828CCF144EE50E364ACCE7237EA0BFB5607ED1AC3CFE73794E5B61739D14DF1743441B1AC98F00
310
ECEDE9E7301FA29755FBEFA68C91EF2B314CF510537EF1ABFC9A762496280B546F5EDAAF8A5B387D469FC9A878A92828C88608453ACEC6094DCA54111E7AD5B2663DFE2DD151B7F123B9F4FEF8EE36AB125FD7AD52A59B1B765B3E3F73E3F73DEA93875004D2AFFE3CDE9493B87A9904DD052028949041A91DC0E1BA47BA71
310
4343FD5B25E0A6A09503AFC17C790058A836A324FE31D7893512E28230332F153181C1E018E1124EBE1BA262AA428A518237D1EA7275E48C5C561BD19ED6912EDD8367DA0F31E40EEAE9683DA9257525AEA7B632B97119E17145A90231768A4F3B9120FF32E8319B015E3CBE26F1A754177D8185345817C096B0CE443A955D
310
13AC15E1FB5DEEA0239EC32A3C92241A237B0B02FFCB4F93CF2B02570C8D192E2F2A68CEEB42F12E6F8CEEFF46C251E22B4341C56FB08CCE550E7A9D6F4D6564B9EA52A83D5BF2C6E03FA19D2775E15A8A7ACF30A13C259EE7F5EF2AC3BA354F1500E1A07FC63FB4686E2F12EC69719F9ECF5FE3F35598DF2CE944008CE78F
310
0911BA5BE5D0A34E0098FF038669C26030BA9B300303039852A8F6F496341737CA7E0D2E3AAA36DE0A70AA7D9CA0D54D9AD84B18A44C9E625475E1C97B93BEBB38DCE7D227E67A2D00F531436136355F243D1FC0D712C5765754FA22FCFFAE97919161F46D6E61ACB37D83777B385889770B50765B127768443A5C4D3A4E35
310
A3151111F146B7CA116F918A049F1C272F2CD7976C69A0068773451659A97E0F4A08FE604C3FF6CE7385DB19F4D3ABC8A0D80DA8A42096AC377DB49382B36E270B6FA7570188B4B7D1DDDDA82ACA487CCA5D38BD3BD039ADBAFA4ACFF27809239B722081E2EB9F145320553D183F28471C388BC8814E5045676767AB58A8E7
310
2D1CED2CA731379515D2E533E4CF0B39DFC625F97AC4836831A4DE330E87A8126FA17EBE583D614E71E22A8DBF2825599743E0640037303E8E1B1E8EA4E1ABFA4F62907B5E4E0E5DCFDAB417C36C6848A2B8D15F1E505434C0707E16B1CFC2A1C36A42BBF55734F8F4301DDC2A5110CEE8C0747F69519265012A2174BF4E95
310
5ECD4FDE095A3ABC70536B7AD0B9D7892F81287D667C108703C9B66A221E9A0929D030008F77FF6F5D2108EF5706FC87A3069B976F7C9FC3239D13D283CDEA83597461079FEEE049B0F392889898B7D87D31F8D60ED7B56B91823A8E4EDDB36C6172ECEE42BD42B12CD67994FA0F0DFAE9389356F4CD4425A4B8AA55CBF7EC
310
D585C6A2C2316791E43D5C06841ADBB226A87FD61515FFBB0167B74E56BD7F3E90A57A97FEDCBDF483A0D6699A8C0849CAEB4947FAA90D8E332D9DEBD9F4738C37DA0CAF9CF3DAA68BCB67C420459C7A64498D6E848E5CADE92BB6901F607AA331104A67F7CD650EE169B1DAE94D2C31C2F993632259B6957E246EFE4C5481
310
107B07118607700040E5812A2A2A38DA0076875258C753F60E0F2662C748EDD5F3F3686B8FC3BD6FE631ECCAA1E8B1C1E565AD117E54893E79F4672E32F9E46B2A183DFDCF3EECB4D4D077DBEA0DA254D256045109670050129E9B9B1A9E4A11344D61497A992778095151510C4BB7EF2009B63AA4360635312E4CF668B7E0
310
D3D85A8688E2BD83B569439892ADB63461930D428E0DE42E4AC57CE48DA5CC1449530D8BD3D6A0F08DF20C8E8F570F2CFFFCEA286E30969B4654D498A58D9DA782E19FE3F002181838925592C4A1EF0B332D88B61A92C644547BED490D3A42CFFAB70E36D961F694F6307F72FF15A1C79D5B1B5CEFD353D9E2B52566DEC8F8
310
F09CB3E8359C0F68EBBB7898243E34E12A015B2685AB303C04D3A9E00671FF3DFF0A184E4A2ABEB2B666AF5B3A209C73D8EF29DCDB069C9F391EEE9DD0F74C7BCDE16F8F02E3B8816122BBEB50665775B600549D8BB33A54A6BF940C028118BC6878C79958D6784F9DEAA6E26748386FFAF8D0D0101E2847B6563F5D8DC1D7
310
8F787BE00E2C941AE12148D4A81599FE8F68D4DA5CDED75530ADE138240300EE13B0FC13A1687FED6774662C05A2B7DFB186732F0D7A93545D8B0A6390AE5054D9CB582DA846D7A061B3358B45E2B52DDE63E114397EDB7E09233A579155D795BE76102CF277F4DF8B188C4F2879BEAE3C08347124BF9ED23B128259FE107D
310
31E34A652F090B30B39E0D9AF917B76A2806135621A8A60681F16AF216514BBD02711585B5B1AE823F4B2D0369EA5B6BCB863072727FFC871CA6C9AB79A814D989057E9470A3D238BC87CBB4A0EA49AFE2B86F22E499793CAA9047080450166BDC357524561E258C77CB697F1ABB32562CF87C3B7AA12F911EF19FB3E5C022
310
22E887D08202A60A17151F5E053A86B437771088B4FEE14D652C43E8D939995D34545E12E2FF93D4E366EAD25F10CB7DED141563C3D0C447AF06078A91135FD4B9611583CB4BF3BD167F2399CEAB0E0100F8FFC305F00F1711717173138B4B48C83022295DE657EFEDD97F238ECA80F528AFB4F8D67AD4E2594B9A3AA86D74
310
87EFC313BA95745C186F0CDD84CC12DC9CB0424B42203D351FD9C0A3AF10CC7F388E0329279087386421F194F4A29464C1DEF7EF8BE515E4A199DCD5B909342598D8FE6A231F71336248D5CEC5454455C7BE383B3BC7B260FED27F703FDC39A170F3827239102F59D4DEE7FEF82EAA1A5E4BA94DCC4CC44E7E2EDE20F24244
310
E4454369D2E87C3F823F193FD4FD27E1C23984B01898D15ABC20711A8A558054951A6AE280096BA36CBA439603B7B0B4C45F248C14B2383B4B5CD8ECECE4FF859AD4A6CA2326D020EF090F4041D28DB66E5256B56232CC52829DE8060BAE6BBF37D4B7469B822454FE93210A3E8D15E69FFCF01123222611C51C4FD0A041A0
310
CFA2471CF6BE38D2B20FA4C3525B5B8B586759475CF80ADFE67A284AC24651E52B8E683D24C2622642F27E7C3C22783BCF63648BC398BD6CD0D9C97E7E7E3EACB6126DB7A6C1FD9F1031302EE67ED96F22B77C7CA0239BB324207559B105E4693EB26EC46182A92C9C0DBD24F29B31C5C5AC1F84300E0E17CEEAC15F5736FA
310
4A98971E2F1423BFCD68D4BBD5F86E74B40A369F39507C88FCDB35D2DD8DEBEA4AF999E23CF2816D204200DF6E611781B9884C1AC8888B4DE397320472959434323A5A36B22A8E1F721A270DF3BD65E4A31C11FF048AFB0D8B7B6881423793963A23CFCE935FC189ED36FAE35C46DA3574C979E4394BE52084F3081837BE03
310
3396D2EBD80F1F691B273F660D2B32FA27A33B1DE4ADA5F0FA4651511102DFA410DDA86E065272CA314D5249DF91B06BB92807B28EFD54F08F7B525252782CD276DD02E6B0319B13DF87B1F6361AD6B28FC0D711CF445429B9E5A433CD493051C49A9E03DDB1B147D880253514A5DED88009018620EE229101C041950E2D8A
310
A8E1F5F5438E0C0C0C60EEDEE9E3E0C051948C69F84BB7B2A48A1F3C8EB9E6864687F4F4F6F6E2FA87608ADAF9C5E117B7C1A737E710769DA1D15ECE6A84502AA855398712D5FB51BE92E4EF824969CE18278798AC303C2C7980DD2500ADF8FB1E6D6C2FAAFF9987178923334A244758BAA01A9A1B70FA5097D01E1CC2A58D
310
AD0EC94CE6430AA9B0C10D75E3C6BAC670EFBADEE1607739CE0FC18A2587E3EC3058562014C64219C69BC269082D5C2F4A659278D585755912176D78A1B641719C2A394CED495A1AC5D583FD2F5EDD93308EA7EAE8A6DD396598BDBD3D4CFED62D18A5BDFDE0DD5C80D1A89BA62697B131AE7CE9A6594138582F1B37D68F17
310
49AC7CB67A70695D48A4A056AC1FBD4E82358CEAE38F54B95A9016F9000F9879C0D9D131768635CA798895F27D6F1614F11F2838A83611AA51C9A3DDB539D42979C29F10465655C17BEC3E2760B80DCBF609198C7B171A531905F3EC218D696025975E986C6B4C666666787271F202805577DD5A3EF0CAFAF91B62DC4B2DB4
310
217A7606282F31D8DDBC290593BAA93EA6353AFA9939B877978481E15CFC9F2755CDC00C538F63A4BA3E80AE009B73CA0185687D339A507D165B74290D6EE46D5C58148F020C3668ABE9EF2F7549170DC80DB41FFC1D678FF19AEB10C7133832B104B80F691B3138F97A92D26E551F1F110400D45AC71A9B9AC41A1A1B1DAE
310
ED0B0810638EFFB511D46B121C6FEA0F38CD00E03CFFEB9713FE1F9C263E4DDEC160D0497FA9A132BA608584057FB15380825DE6C7FC3C667EE947D488A09898D8E939C4953BF4EC9836344D2CC6B2971B2A21A572B06096F4982D2CC7232D46E8EA69DC83722E267754D777F97F96D5DA74E1E75178084D0E70F12AD33E5F
310
71EF2AFA599B2BEBF60A5BE475F444F240CBFE8143C334E7ED9150FEEFEF7EB020C4DBED388DD1D6A167A76F3CBF119B578AE8CFA7736ACAFA4440A1C47185638A0D2F3EB5BDDEFDA958FB13CE4AA4923D5BF840392D45544329525749734866684BF7F8D9D54D892E19BCA9F829A0F8BFCBEEA6CFDFC61D74EA1A645ED7A1
310
FF241739F15694BD835B66FEC5677E40FE69BD3F91AE402F036537218A401CB0828604AD189E575015C6F3F6BBC8AC79CF6C70653847254B31551EFCBEB5978B9DB85D58D0FA41A9DFE9C624834AA04949D24B5AE6D299E072D152D12097920F14AA92C31C3B97E28B6C2E6E9C23D63043ECBBC0A60FDF5BD0C33C127EA8A3
310
308B8B6AFFEB28B4455BF6E7AF4FC6222728357EB8E46E85053E6A8843AB23295BF838ABDA94658FEF3F832F147046B4ACD6F7D48E8FCC9618582961C898D1C7A253C91BFECBDA6BA18A1FCF70755DCCEE2222F41B76D23CA98D0CB3D95F0CF66D57FFF65E2A90F5DF40FC3187621E981BD0BC1D992787212688976B94A8F0
310
C6EF646624B570B78E068826F87CE27041A95C9A4871FF65CC17FCB1639629AD6A9517000D63AC231F3D741CB8430777E7ECF80CE7A3F73C0F162F7E56AA71F4DA80A33CD6ACEE78E2C11FAC03DAFCE929B106F8F6B3ED2DC71FF994BD9CEF4E9A94896EF1B6E2B7B4978168BCF0847A3D2A4F1B0500B926E634B174548E9F
310
BAD27153FB5FC36799B1E6C7C38A94E1F9E996796D7B485E635D5287A2AE76FBD11A341DB3F8F810385BB7296391973DC6C37C452A9305AEBBE0CDB6C566DB59FE60C8E94B1FD090354BF51439FFD1B48D725228FFA88C84F686F547107A7A235665A4593B7C34D748C1AC8D56DD5DA861EEFBADDECBBD65117E65851F9035
310
1AEB65F0EFCFF4BCFEF24CB7A5879699FAC437A7AF9099186CF006BB923A59E37D7A36A29FD8D2CBB914A5E9D0A8FD212FBF796AE9A67958FF1D5D8B85F78F96219D4714EB919929241B6C018AAE0C02069F8D919961EC5DDFBFB7573E3AC8E08BFB7C8534BE6DE045B3CD63DBD71F7638BA2309CAE398EA3A7D8F98BBBC7A
310
EB367EFA5CFA27A9F8F2F52FE878058E6209C026453F8E7E8A237DFC389E9590F6059B397CFD65183BBF936E86896612A5B5FEE49DAC8455D026218AFEBEC12B3523A45B57B82C9C97E02ACFA1184DB18E48CF615DBF39C3CC6F0B4AE6BBEEA2E39D944E290302FA3DE33FA7E40296E2EF7BF1CD855BBECFAD0FD622BEE974
310
6FC4FDFDE545AE6E3BC234CADF83A0FB76DFB145BF3828AE3436368AC24989454F8FF70A177672C711CAA1A76107218CF948CA01F873520E7A2B118EBB161ABAD432932029628B6761590C98AB590C8C8C79798CE9F715BA696E839E9131A4BB68BE923F1747FBFF165331FFDD4D05997ACD168F12CA75348DAC04C7F509FE
310
83898A8B421181AF492861CE81E4A2DD0A30850CFA95E05F097FF70F9E777310D584A75BA7018922E271DAB1D785671157685B7D383D3E074DDB4F1E44EF04B07BAAC75A062077C54B9752C738C9D804D402E02851F3F89605AF189738C18C021D2139EAF72513824E10DDD3047BACC8521ED7E98B257D1166903B1B08FA6F
310
918FD7E162913FEC7D0EF4787E29C35FBA8C6E2C9C20E9AB30AE42CA2A01A090E7D010C1B5BF9CEE2A304BF3A987FB40D836979B79E18D70F257DA61E808472DD85B82761825779D6B90CAEB0F23360C6F80A7D7D77545E95B3DFF0CF96A827F9B5BCECD2C9698718417EF80FEEDEE938AFF55859D0D540B7FE09435583A6F
310
04874A0C7E8CF234DF4879722000167F5872CEC6BF3EF7E5A8CC8121E6A359227C8A29C95212F9F735BC72A887D56B8F309FC525BFB4FD767AAEC4AEFF249CFBBD2DE1AB9969A6155C7D8DABC307E47324C1F916C7BCFF40ABA5644E9FFB9238D19ADADA49D9610F01ABBA57E4DFCBDCCBB2B93C8953206C91DE01B0E2651A
310
6D6C31721915B31F7B7CBCE55466F6D70402788FA91D73BE4ADCBA99A35F17D6B83383704917D6833F0FA3CD45C926ADB8BC17999A4A0AFBCE2541F7B8CF4C2F5FBA611B3E626D64407CB32C122DFF4EF8674D6EDBB86C8F7C6A16D50FA685E2CCA34F8F7D1D8265BB0042E9D7F1F666F7BE5FAA5184DF58E12122A42EF02F
310
461B3F369AC746F96528AD208512AB56844CF75B97F352DF7995024FB02855385854F3798670D01CAC771AC3E1889EC25F61A20C1F8CAB46898817F9C47E2CDA1F286BF2F358298709FE567C91133E2638C8B53975E753EA8BFD3578B5F7186B7BF084EBA3F77BAC3132A5779902EC22AF2D2E79F42D324E083386DAEE9810
310
D1B44A5DAA54513C7A71E52A4AB9257D975B621308FE4D2141CC3DCFE946C154A3C1DFCCA7629EC69ACFA831634ADDA93C0388D2A9A2DDAFCF957C6995BCE7FBB6DC4EBAE79E63EB08E9A25F52F67076F7093CA545CA3053B5BF576DEAD4E0017143C5F759F32B2D6F145B52B67B48909B7C7FCA6586EE385A2189C16932CB
310
6DDFD9152AE317C430492A578ED27B72D85D40C7C93C097939E1B50F4D67F05334FE9DC362C30B7FF561B95259138ECFD9274C8D695C31B14D4EAA9F3D7FA8DDF652F8C5DEFA23284C799B7D94416DEE81E05A866302DC70192A5368EA65E1CED8BF107A1E2D3119A71E85DC1A7B0C1E93274CE04DD0F2ABC8AC7C987FDB00
310
2B6F81757B43502EF7A0D92E416494FAEEA4C9C090CD9557AA4D532F4996A272B94355C5A0E4974EEA9627476F30809B94D8D8D860062E02204643BEC7D0438AF800FC7E2B26955D595421E83C69E1A07E0E3122285835F014AD538188CF9737CE76D464A353FA55A001AB2526B84E985083693BC76FE211CA1D000679C889
310
E3C009832C87E1AC2EDD05C302557422DF0800E316FCAC86978A371F025A6C7DAA9F333E7BD160403A1A06EA75AA9888FF01504B03041400060808005A579C4451464CB48900000043010000360000006662782F43373834384633332D323138462D344635462D383839372D3135433733344138434142322F646972656374
310
6F72792E786D6C9D8F310EC2300C45AF127987122606C71DD918B841D4B851A43646695A717C52A85029031293A5A76FBF6FACEF7DA7264E43906840EF0FA03836E242F406C6DCEE4EA06AC22492573150D1F66C60C640E8938CB705396EEDD86DE9B5042FE27813D640EA63BB001C722AF6E55CB61E4863F58284D5D3F53D
310
D715CE1C3985E63FD7F1B7EBDD617E9F1E504B03041400060808005A579C44DF26960938070000201C0000340000006662782F43373834384633332D323138462D344635462D383839372D3135433733344138434142322F6F626A656374732E786D6CDD596D6FE23810FE2B56EECBDD872484400BAB945581B242ABEE568B
310
F674DF22130CF5356FB29396DEAFBFB163872404487BBBD2EA5AA9A5AE339E7966E699F1C4FBB88F42F44C18A7497C633856CF40240E920D8D7737469E6DCD91813E4E90C79224ABEC33508C237263886563E2ED5892A76A6943B6380F9BAB8BE95F88072426060A42CCF98DC1834712610BE759B221FCC9DAE00C5BBBEDDE
310
72AC62635DEC8EE1F4B171548A1989335015D66390A23470EA7F8249F6C4B3C586DAB67EB76DEE996DB634BCAE288D7986E3E048AB869C7E37AD5C6730BFEB0FC7E6703070CDC155DF31A78BE9DC74AEDDDEEC6A361BDFDE8D0D34F1D64912960E4849BC012FBE1A13C7B3C57F4AF3150A6D7A07491C9340A1D9B66143945C
310
4A7813931AB08E34ADE290C2D6CA82DBD1F813DB3A815253A986B6364EFFAE466FB2FE1B40E05DA2947122A29C670C7CADB02FF2A1E7D9C56ACD2F94A3086784511CA290AE1966E020D85A38A82646648B10850466D28B5A5E555708ECCBB9D4A6E5360F4391BFC644669A0FF948322E35A3FF1076D0BE7A1AE804D6E634CE
310
46CAD8EC35051163CF968BC5FFDCBEFA670124DA867807D102668A4D6EBF81D74C70C1726E4C3E2FD6FB95E087F6C35396A4846522F26432ABBCD31EAC8416045F07500A5CEBBE3BA0F20DA0FF02C897BA200F3CC7E87EB01F68DB198EF93661117807F590D9831F3D243E1E7DF2ECF2E1094235AE3C8529A4ED0FC2B46646
310
EDEC0AA413EF19823E61AE326E15E01062FA9EC622CF21505098C012F0FD76BD37264B20535884A77008D6C3B7678B8F087E1572806F1A1E6AA3DF0E8ED209D3CCB383AF3E41CC301A94AEAAD9780ADFE10FC1F776BEFABCCAD91607E45E25F69C6C694C3328A6ED0AD540AFA5FCF7E517999147F6D4760570CE2E11C4D1E2
310
9795F20B928E0155441D2E5C2357EE29A47B18E298243957EB6D44152461C2FCF5AB5FE470EB597FEA20280E83FC1611D04A6650DD034653018A3151E6954C681D70123CA802705738D55FE3E049C0EB07C058EFD103A216B3A6D03C4A7D1C25792CE8FB38BC9BA6596E4F7E39CEB8DF1BF747E32B6D2C97E275F6686A2895
310
17E744383D71C8ACE62DC51A5A7291470360CB360B02E899F2CC4F521CD0AC3D161A46A80C05B0CFAABCA1DB6DCE81D45B6169686CB9CE10F52A3FCB43CE6BAF0EF1698477C4DF6251E15ACFAB01540AD716B422B30B13CE694CB8EC508E98AB814ACF022228E2564B6D0942CAFD8864F83DF1274B5E23FC18D9863EF45299
310
E8662F479F565055CF531245E796C4BEB4FFD5E7384AC3A24BBB8481D36F9CD08AAB505A1CF10CF1E6E3CCEF6D886CBA2F492F7941E3DB49FAF8DDE24FC0C3F04F87471F41A1F5861A79D9B38E3574C6E26B04A4723574DC6BED884B58E9A332D1838439744DC1ABFF42E8EEB11BA1753A879370EBD330CC23BFA8071989A0
310
05C359CE3AE5EBD5B077E47CC50B8D84A89CB4A52134C89D4953F61EBAFB00AB64F3718A342BC7805134863B5A27438EAC680D61E90B791F15D7AECBDE7FBBD4FFCC97D57BCA13797D49D8A655D37A1BA13B30DD3008BA5415AE8C232979E255932F921797CB380CB410C56FC52D41450823CF540C26E40DA8F5FEC05F7016
310
0091AEE46F730A19B1219B434F5113A7C61CC6040ED5D2749F5ABDE900D989F2516BBC96825023983660C1B3F7E243F80D83ABA1F3E3B6EA6AEC627D290A9B058395831E67647DFDB46A488195CE4F3F088CC84B43825A9D8946EE8CA8EFCB43BFDA90A02CFABE3CF378F69847EB185351194558E04DFAE1A3BC4BDED87051
310
B067D7A3C168E1BA66DF192DCCC162B83047A3F1B5E90C67D7EEE07634BB9DF66D467892B38070BB6FF77CDD3BA5F14E0746015D971B054C152E5FFD743C371DFC3FBE5184C91A9F8AC55FF54251B67BA2216BE462D70B452B51AFDFD6FD3B4744DD5EC4DED43917B3021DE0E7CB169091AEF7DD5B0B2D5A7712ED3A572AE2
310
1B0BEFC9DBCA4FAF3135426FAD0FB51D6D945FE762983DB554297DBB95BC361AF6E16BD833DDD9E8DA1CDC5D3BE6ED9D3334FBD3C160319ACEFB53775422AE6A61D7BAF24B70A856B632468369304F420A4379B2413B92C00D08A60E1DF8954584CB9B0D3400AA8CEB37021D9E7E2E66AA195E87FAE9E011C3603A5415390F
310
60280AB78E1B43ADA3DF600C2A26917238653D41E151D16EA09CD11B034220A3505FAC358CB3E4F0504A6F8C2BC16D38DE893B53F154F9F7E131810EC4CAC1AE724F175C9465B5E884E1402ADF1300DBE986E4FDA66B7510CEE0E33ACF4A630E0B076B1408FA8540611C4CFD9E14BC7B209EF3763996DC5383A4D364FE6C1C
310
1452CD0CB39D1CAF57F0BE9D3FD86232BEFC8AD230DF09779EABF73549A6E833C2BC1842791018CACC148B7BF8EC83FDC01278C514A105852040BFEF47577FD8B3248A92B858B26FD58B2AB47A84D74E1B5B8FFCA071E939435BF63D6AAC0F732B4E2CBCE14FB000AE6554CC460B886B0150D2532500B447842FE0B1DAFEE5
310
1CA922506961ABADAB8047CEF4112492789723D2A6BAA13280845C00AD8A396DF9412F78368321F8E45F504B03041400060808005A579C44656B3440DE000000530100003C0000006662782F43373834384633332D323138462D344635462D383839372D3135433733344138434142322F7265736F75726365732F322F636E
310
782E786D6C4D904B6E03211044AF82D80F30FE48238BC197C82A1B8B409B200FF4888F95DC3EE01029AB6E553DB5AA5A5EBFC2469E90B2C7B8D299094A201AB43EBA95D6729F164AAE4A26C4F20FA324EA002BED3255D225ACFB902CDC75DDBABAF9F818A2B8398890BCB9EDD15162369DF34AB3F984A099AE052DE407B3BA
310
6836B304196B32D04E141F609C300974014BD541CCA7499CA6C3F2368BCB79B99C8FEF927752C90FC46DF03E1648B813836D892D8F90BCDB4AD6E407D34B34E32F1C6BE1246FB692B9A4F6818195EFBD613E6807FC85FCBA4AF25EB18D57FF36FB3BD40F504B03041400060808005A579C44FF15A4A45D000000800000003A
310
0000006662782F43373834384633332D323138462D344635462D383839372D3135433733344138434142322F7265736F75726365732F636E782E786D6C4D8B3B0E80201005AF42B6F75B59F0390B113044D83508C6E30BC6C26AF226F3B8BA6360974DA7271430F523308B2B198F9B80925DB700539227A2FCCB80A18E5640
310
D320F996A81C9F32D6E9129A0D1EF74FCE750E6D57BC7165FBCA07504B03041400060808005A579C44634DD97B3F01000046050000300000006662782F43373834384633332D323138462D344635462D383839372D3135433733344138434142322F636E782E786D6CCD94416AC3301045AF22B4B765A70998202BD0454FD0
310
45E94E9627AE1A5B32D2A834B7AF942A694B49E92290ECC4E80FFC37F319BE799F46F206CE6B6B5A5A9715256094EDB5195A1A705B34946C0477D6E2371925464ED0D254A6820FCE8639977AD8CA30A6EAA8CD2E1725A2D35D40F094A8517ADF52AF5E6092A50C687BF0BBB29728CBBA74E06D700A623FEA0972BF7220117A
310
2A1655BD2CAA65B1681EEB6ABD6AD6ABBB67CE9252F0CEDA31EBB541707626CAC68789662ACED2B7E0C1E9AC4904547C392B3B6D388BFF82FBE8D60C5987FB39E9E679D44A621C13B30A018B28023971F629169C25DE1FD40FF74F4707A4D70E145AB7BFD200EA730338192B6312FEC77F10FE8D6DBBD7887BAD6D9F85CDB6
310
2E867A4CAB8F71FDBDFF98226986F1F6427F3276F9CCC753825ADD1EF2D1D78588D9E1E4C5A5A70B283E00504B03041400060808005A579C44AED581677E000000A30000000B0000006662782F636E782E786D6C4D8CD10AC22018465F45FE7B2BA7C33F708E25F81EA3B921390D9BD1E33763175D7D70F8CE51FD670DE4ED
310
F2CBA7D8013B5D80B8784F938F4B07659B2902E9B5CA296D7F3720715C5D071583564B4EE579A0C9CD630995061F1F073412055ACE69C3D052615B4B11AF92B2D6482E0634C3ADD98D7355F6F9F5F6AD79FD05504B03041400060808005A579C44A6D797065F0000008200000007000000636E782E786D6C4DCB3B0E802010
310
45D1AD90E9FD7516806B51190811670C8A61F982B1B0BAC9C97B72CA7B1037C6D3332918DA1E04D2CAC69353902EDB8C20262D23F3F59B81A079470595414B17391D1F19B4730A5583A7ED43BBE4025D9592775E5ADFFA01504B03041400060808005A579C44ECFD112DA800000026010000130000005B436F6E74656E745F
310
54797065735D2E786D6C7D4F4B0EC22010BD0A61DF525D18634ABB506FE00510A79458060253536F2FD89D5197F3FED3F68B9BD80362B21E25DFD40D6780DADF2C1AC9671AAA3D677DD75E9E0112CB5A4C928F44E12044D22338956A1F003333F8E814E5331A1194BE2B0362DB343BA13D122055543278D79E6050F344ECBC
310
6478EDCD76CE8EABAE5449AE4298AC56946789C28AAFBEABC53F3EAF09A84A1441B91F0101CD4780756578C173A578FFDDBD00504B03041400060808005A579C443DEE336E64000000790000001B0000006175746F6465736B2D64657369676E2D7061636B6167652E786D6C35CBC10E83200C00D05F21DCA56CA76D41FC96
310
062B120735B69A7DBE268BB7777961F8D5AF396893C2ADB70FE7ADA196782C2DF776D7A97B5933C430F15651E5469C55D70F80A4992A3ADC954792C525AE70A1E4D6AD9816CC044FEFDF01FE3FDE907802504B03041400060808005A579C4407946997F30000008E0100003D0000006662782F43373834384633332D323138
310
462D344635462D383839372D3135433733344138434142322F7265736F75726365732F322F636F72652E786D6C8550CB6EC32010FC156BEFD840ECDA893091DCB45FD0536F08888B1283C5A3EAE71762576A4F3DED6A76667677D8F96BB9579FDA07E3EC08A4C650692B9D32761E21C52B1AA03A73E69D8BBF685059B1E811
310
0A0C9CCDDEA57587A4B351DB825AA7F40E8A1074844ADE733342901F7A11B5483133C2AD5E85BC8959D7A4DE789CA564D42E352ABB99ABD11E38A513ED273221F23ABCA0160F3D3A12DAA34BFB3475C71693E7E3853545CC5934CBCF76E9B5885A653D262DC22DA2C31BC1A76E38758777D614266721FAFCF3BEB47C97E9AC
310
D9D03F6E6955FFBB2563E381EE6E9B220027F9B8C780B3A6A493CB23BA5C4B92FC1B504B03041400060808005A579C44F3EED44BF8000000960100003B0000006662782F43373834384633332D323138462D344635462D383839372D3135433733344138434142322F7265736F75726365732F636F72652E786D6C8550CB6E
310
C32010FC158B3B3610BB76224C2437ED17F4D41B828D8B1283C5A3EAE71762576A4F3DED6A76667677F8F96BB9579FE083717644B426A802AB9C36761E518A573CA0EA2CB8772EFEA2A1CACA0546546024F8EC5D5A7748391BC116D43A0D3B284380882A75CFCD8882FA8045D632C5CC08B77A95EA2667A869BDF1044FC9E8
310
5D6A74763357031E09C626D64F74C2F47578C12D197A7CA4ACC797F669EA8E2DA1CFC70B6F8A58F068969FEDCA838CA0B39ED0169316B3E18D9253379CBAC33B6F0A53F0107DFE795F5ABE43C24370C92B08BCD9A67F5CD3AAFF774DC6C603DB5D37454082E6231F03C19B92522E8F08732D898A6F504B0304140006080800
310
5A579C44E6789B76F1000000B1010000310000006662782F43373834384633332D323138462D344635462D383839372D3135433733344138434142322F636F72652E786D6C8D50CB6EC32010FC156BEFD8C60F99469828B5E42FE8A93704C44189C1E251F5F30BB12BB5B79C16CDCE30B343CFDFEBA3F852CE6B6B46C0650D
310
8532C24A6D961162B82202C59951676DF84383C2F0558D9061607471366E0724AC09CA64D458A90E907BAF0214E2911E237871532B2F790C89E1EFE5C6C59D2FAAC4E5CE6334E8F5572A9CE24149604D8D3B5477A8211FB83EF5E4D4B79FB4CA4C4663D4F2B0D232B9EBAB560ED834908ECC6D8B1A4C66D4CDFD8C08791B10
310
EEA7A1ED2E64BABC37B4CA62467D70E9E6E3937CDDABF25DF82F73DCE40B99B5096D7318EE0A0F0CA73CCF05A3552E308D67BB69E6B2D90F504B03041400060808005A579C44276E04C953010000DD0200000C0000006662782F636F72652E786D6C8D52CB6E833010FC15E43B0F13D290C838124DFB053DF5E618875A011B
310
191BE5F3BBE621CAA1698564ACD99DD9D991C9F9D136C1204C2FB52A108E121408C57525555D20676F618E823325466BFBA30D058AB5A2401E4694D446BB6E86B85656288F2A5D8919647D2F2C0A78039702F5FC4BB42C62CE42477F8F3AC6EFAC16118EA63E4A9C93D54C9515A8C99B1406D1342DD34389CB10BFE76F6196
310
E487F088D34378C95ECAFD314BF0EBF142624FA6C4CA7699CE8D605654C04F7016265998E61F3839EDF3D37EF74962DF49496F0DEC3C0FF5DB217ABB3E483CE11B3DD7557FEB39A9EC2E9DF526468F28067B638192D8E703BF31BC6D863018F2B3ECDA2C2BDC011A04B7DA6450A9B45B4B036B9C00E924183F124F55501E05
310
7ED3499FE83CD780A098AAC11AB370BD3AEBA76F3D75C284837D044A9B9635ABB9C9E27AAE83362B2D74AE1B6DFEC35E565DC28CFDC3A4DF504B03041400060808005A579C4472A12E2406010000B201000008000000636F72652E786D6C8D50CB6E842014FD15C21E0546AB4E9049ECB45FD055771418878C82119CB47F5F
310
1869D2EEBABAE43CEE395C76FA9C2770D7AB37CEF6901418026DA553C68E3DDCC205B5109C385B9D0BBF64105831EB1E26187236AE6E5B32249D0DDA26D43AA53328BCD7010239C5470FBDBCEA5914620B51E16FC522E44D8CBA20C5AEE32C98F9C72A572D825690534C2A842B44DB37828F757BAC0FEFAC4C4ACEB6CDA81C
310
65544C3717A3D768A1036D063220F2DABEA00AB70DEA086DD0B97A1AEAAEC2E4B93BB3329939F3618D7FCE4B62CF00BCB8A75C56EE14671FCE4D59104B29E0ECF40539666522FE94DE16F58FD2C68603CD0B7787879CC4420F2206A70BC6F1386F9CE9DAFC1B504B010214001400060808005A579C44000000000000000000
310
0000003700000000000000000000000000000000006662782F43373834384633332D323138462D344635462D383839372D3135433733344138434142322F617474726962757465732E62696E504B010214001400060808005A579C440000000000000000000000003500000000000000000000000000550000006662782F43
310
373834384633332D323138462D344635462D383839372D3135433733344138434142322F76657274696365732E62696E504B010214001400060808005A579C44F270F13306000000040000003600000000000000000000000000A80000006662782F43373834384633332D323138462D344635462D383839372D3135433733
310
344138434142322F747269616E676C65732E62696E504B010214001400060808005A579C4488E57597CD3F0000904100004200000000000000000000000000020100006662782F43373834384633332D323138462D344635462D383839372D3135433733344138434142322F7265736F75726365732F322F305F67656E6572
310
69632E706E67504B010214001400060808005A579C4451464CB4890000004301000036000000000000000000000000002F4100006662782F43373834384633332D323138462D344635462D383839372D3135433733344138434142322F6469726563746F72792E786D6C504B010214001400060808005A579C44DF26960938
310
070000201C000034000000000000000000000000000C4200006662782F43373834384633332D323138462D344635462D383839372D3135433733344138434142322F6F626A656374732E786D6C504B010214001400060808005A579C44656B3440DE000000530100003C00000000000000000000000000964900006662782F
310
43373834384633332D323138462D344635462D383839372D3135433733344138434142322F7265736F75726365732F322F636E782E786D6C504B010214001400060808005A579C44FF15A4A45D000000800000003A00000000000000000000000000CE4A00006662782F43373834384633332D323138462D344635462D3838
310
39372D3135433733344138434142322F7265736F75726365732F636E782E786D6C504B010214001400060808005A579C44634DD97B3F010000460500003000000000000000000000000000834B00006662782F43373834384633332D323138462D344635462D383839372D3135433733344138434142322F636E782E786D6C
310
504B010214001400060808005A579C44AED581677E000000A30000000B00000000000000000000000000104D00006662782F636E782E786D6C504B010214001400060808005A579C44A6D797065F000000820000000700000000000000000000000000B74D0000636E782E786D6C504B010214001400060808005A579C44EC
310
FD112DA80000002601000013000000000000000000000000003B4E00005B436F6E74656E745F54797065735D2E786D6C504B010214001400060808005A579C443DEE336E64000000790000001B00000000000000000000000000144F00006175746F6465736B2D64657369676E2D7061636B6167652E786D6C504B01021400
310
1400060808005A579C4407946997F30000008E0100003D00000000000000000000000000B14F00006662782F43373834384633332D323138462D344635462D383839372D3135433733344138434142322F7265736F75726365732F322F636F72652E786D6C504B010214001400060808005A579C44F3EED44BF80000009601
310
00003B00000000000000000000000000FF5000006662782F43373834384633332D323138462D344635462D383839372D3135433733344138434142322F7265736F75726365732F636F72652E786D6C504B010214001400060808005A579C44E6789B76F1000000B10100003100000000000000000000000000505200006662
310
782F43373834384633332D323138462D344635462D383839372D3135433733344138434142322F636F72652E786D6C504B010214001400060808005A579C44276E04C953010000DD0200000C00000000000000000000000000905300006662782F636F72652E786D6C504B010214001400060808005A579C4472A12E240601
310
0000B201000008000000000000000000000000000D550000636F72652E786D6C504B050600000000120012002D060000395600000000
  0
XRECORD
  5
10
102
{ACAD_REACTORS
330
C
102
}
330
C
100
AcDbXrecord
280
     1
270
     1
271
     1
  0
XRECORD
  5
11
102
{ACAD_REACTORS
330
C
102
}
330
C
100
AcDbXrecord
280
     1
270
     1
271
     1
  0
XRECORD
  5
12
102
{ACAD_REACTORS
330
C
102
}
330
C
100
AcDbXrecord
280
     1
270
     1
271
     1
  0
XRECORD
  5
13
102
{ACAD_REACTORS
330
C
102
}
330
C
100
AcDbXrecord
280
     1
270
     1
271
     1
  0
CELLSTYLEMAP
  5
3CF
102
{ACAD_REACTORS
330
3CE
102
}
330
3CE
100
AcDbCellStyleMap
 90
        3
300
CELLSTYLE
  1
TABLEFORMAT_BEGIN
 90
        5
170
     1
 91
        0
 92
    32768
 62
   257
 93
        1
300
CONTENTFORMAT
  1
CONTENTFORMAT_BEGIN
 90
        0
 91
        0
 92
      512
 93
        0
300

 40
0.0
140
1.0
 94
        5
 62
     0
340
25
144
0.25
309
CONTENTFORMAT_END
171
     0
 94
        0
309
TABLEFORMAT_END
  1
CELLSTYLE_BEGIN
 90
        1
 91
        1
300
_TITLE
309
CELLSTYLE_END
300
CELLSTYLE
  1
TABLEFORMAT_BEGIN
 90
        5
170
     1
 91
        0
 92
        0
 62
   257
 93
        1
300
CONTENTFORMAT
  1
CONTENTFORMAT_BEGIN
 90
        0
 91
        0
 92
      512
 93
        0
300

 40
0.0
140
1.0
 94
        5
 62
     0
340
25
144
0.18
309
CONTENTFORMAT_END
171
     0
 94
        0
309
TABLEFORMAT_END
  1
CELLSTYLE_BEGIN
 90
        2
 91
        1
300
_HEADER
309
CELLSTYLE_END
300
CELLSTYLE
  1
TABLEFORMAT_BEGIN
 90
        5
170
     1
 91
        0
 92
        0
 62
   257
 93
        1
300
CONTENTFORMAT
  1
CONTENTFORMAT_BEGIN
 90
        0
 91
        0
 92
      512
 93
        0
300

 40
0.0
140
1.0
 94
        2
 62
     0
340
25
144
0.18
309
CONTENTFORMAT_END
171
     0
 94
        0
309
TABLEFORMAT_END
  1
CELLSTYLE_BEGIN
 90
        3
 91
        2
300
_DATA
309
CELLSTYLE_END
  0
XRECORD
  5
3DA
102
{ACAD_REACTORS
330
3D9
102
}
330
3D9
100
AcDbXrecord
280
     1
102
RTVSPost2010Prop28
280
     1
102
RTVSPost2010PropOp28
 70
     1
102
RTVSPost2010Prop29
280
     1
102
RTVSPost2010PropOp29
 70
     1
102
RTVSPost2010Prop30
280
     0
102
RTVSPost2010PropOp30
 70
     1
102
RTVSPost2010Prop31
280
     0
102
RTVSPost2010PropOp31
 70
     1
102
RTVSPost2010Prop32
280
     0
102
RTVSPost2010PropOp32
 70
     1
102
RTVSPost2010Prop33
280
     0
102
RTVSPost2010PropOp33
 70
     1
102
RTVSPost2010Prop34
280
     0
102
RTVSPost2010PropOp34
 70
     1
102
RTVSPost2010Prop35
280
     0
102
RTVSPost2010PropOp35
 70
     1
102
RTVSPost2010Prop36
280
     0
102
RTVSPost2010PropOp36
 70
     1
102
RTVSPost2010Prop37
 90
       50
102
RTVSPost2010PropOp37
 70
     1
102
RTVSPost2010Prop38
140
0.0
102
RTVSPost2010PropOp38
 70
     1
102
RTVSPost2010Prop39
140
1.0
102
RTVSPost2010PropOp39
 70
     1
102
RTVSPost2010Prop40
 90
        0
102
RTVSPost2010PropOp40
 70
     1
102
RTVSPost2010Prop41ColorIndex
 90
       18
102
RTVSPost2010Prop41ColorRGB
 90
        0
102
RTVSPost2010PropOp41
 70
     1
102
RTVSPost2010Prop42
 90
       50
102
RTVSPost2010PropOp42
 70
     1
102
RTVSPost2010Prop43
 90
        3
102
RTVSPost2010PropOp43
 70
     1
102
RTVSPost2010Prop44ColorIndex
 90
        5
102
RTVSPost2010Prop44ColorRGB
 90
      255
102
RTVSPost2010PropOp44
 70
     1
102
RTVSPost2010Prop45
280
     0
102
RTVSPost2010PropOp45
 70
     1
102
RTVSPost2010Prop46
 90
       50
102
RTVSPost2010PropOp46
 70
     1
102
RTVSPost2010Prop47
 90
       50
102
RTVSPost2010PropOp47
 70
     1
102
RTVSPost2010Prop48
 90
       50
102
RTVSPost2010PropOp48
 70
     1
102
RTVSPost2010Prop49
280
     0
102
RTVSPost2010PropOp49
 70
     1
102
RTVSPost2010Prop50
 90
       50
102
RTVSPost2010PropOp50
 70
     1
102
RTVSPost2010Prop51ColorIndex
 90
      256
102
RTVSPost2010Prop51ColorRGB
 90
-16777216
102
RTVSPost2010PropOp51
 70
     0
102
RTVSPost2010Prop52
140
1.0
102
RTVSPost2010PropOp52
 70
     0
102
RTVSPost2010Prop53
 90
        2
102
RTVSPost2010PropOp53
 70
     1
102
RTVSPost2010Prop54
  1
strokes_ogs.tif
102
RTVSPost2010PropOp54
 70
     1
102
RTVSPost2010Prop55
280
     0
102
RTVSPost2010PropOp55
 70
     1
102
RTVSPost2010Prop56
140
1.0
102
RTVSPost2010PropOp56
 70
     1
102
RTVSPost2010Prop57
140
1.0
102
RTVSPost2010PropOp57
 70
     1
102
RTVSPropertyOp0
 70
     1
102
RTVSPropertyOp1
 70
     1
102
RTVSPropertyOp2
 70
     1
102
RTVSPropertyOp3
 70
     1
102
RTVSPropertyOp4
 70
     1
102
RTVSPropertyOp5
 70
     1
102
RTVSPropertyOp6
 70
     1
102
RTVSPropertyOp7
 70
     1
102
RTVSPropertyOp8
 70
     1
102
RTVSPropertyOp9
 70
     1
102
RTVSPropertyOp10
 70
     1
102
RTVSPropertyOp11
 70
     1
102
RTVSPropertyOp12
 70
     1
102
RTVSPropertyOp13
 70
     1
102
RTVSPropertyOp14
 70
     1
102
RTVSPropertyOp15
 70
     1
102
RTVSPropertyOp16
 70
     1
102
RTVSPropertyOp17
 70
     1
102
RTVSPropertyOp18
 70
     1
102
RTVSPropertyOp19
 70
     1
102
RTVSPropertyOp20
 70
     1
102
RTVSPropertyOp21
 70
     1
102
RTVSPropertyOp22
 70
     1
102
RTVSPropertyOp23
 70
     1
102
RTVSPropertyOp24
 70
     1
102
RTVSPropertyOp25
 70
     1
102
RTVSPropertyOp26
 70
     1
102
RTVSPropertyOp27
 70
     1
102
RTVSPropertyOp28
 70
     1
102
RTVSPropertyOp29
 70
     1
102
RTVSPropertyOp30
 70
     1
102
RTVSPropertyOp31
 70
     1
102
RTVSPropertyOp32
 70
     1
102
RTVSPropertyOp33
 70
     1
102
RTVSPropertyOp34
 70
     1
102
RTVSPropertyOp35
 70
     1
102
RTVSPropertyOp36
 70
     1
102
RTVSPropertyOp37
 70
     1
102
RTVSPropertyOp38
 70
     1
102
RTVSPropertyOp39
 70
     1
102
RTVSPropertyOp40
 70
     1
102
RTVSPropertyOp41
 70
     1
102
RTVSPropertyOp42
 70
     1
102
RTVSPropertyOp43
 70
     1
102
RTVSPropertyOp44
 70
     1
102
RTVSPropertyOp45
 70
     1
102
RTVSPropertyOp46
 70
     1
102
RTVSPropertyOp47
 70
     1
102
RTVSPropertyOp48
 70
     1
102
RTVSPropertyOp49
 70
     1
102
RTVSPropertyOp50
 70
     1
102
RTVSPropertyOp51
 70
     0
102
RTVSPropertyOp52
 70
     0
102
RTVSPropertyOp53
 70
     1
102
RTVSPropertyOp54
 70
     1
102
RTVSPropertyOp55
 70
     1
102
RTVSPropertyOp56
 70
     1
102
RTVSPropertyOp57
 70
     1
102
RTVSPropertyOp58
 70
     1
102
RTVSPropertyOp59
 70
     1
102
RTVSPropertyOp60
 70
     1
102
RTVSPropertyOp61
 70
     1
102
RTVSPropertyOp62
 70
     1
  0
XRECORD
  5
3DC
102
{ACAD_REACTORS
330
3DB
102
}
330
3DB
100
AcDbXrecord
280
     1
102
RTVSPost2010Prop28
280
     0
102
RTVSPost2010PropOp28
 70
     1
102
RTVSPost2010Prop29
280
     1
102
RTVSPost2010PropOp29
 70
     1
102
RTVSPost2010Prop30
280
     1
102
RTVSPost2010PropOp30
 70
     1
102
RTVSPost2010Prop31
280
     0
102
RTVSPost2010PropOp31
 70
     1
102
RTVSPost2010Prop32
280
     0
102
RTVSPost2010PropOp32
 70
     1
102
RTVSPost2010Prop33
280
     0
102
RTVSPost2010PropOp33
 70
     1
102
RTVSPost2010Prop34
280
     0
102
RTVSPost2010PropOp34
 70
     1
102
RTVSPost2010Prop35
280
     0
102
RTVSPost2010PropOp35
 70
     1
102
RTVSPost2010Prop36
280
     0
102
RTVSPost2010PropOp36
 70
     1
102
RTVSPost2010Prop37
 90
       50
102
RTVSPost2010PropOp37
 70
     1
102
RTVSPost2010Prop38
140
0.0
102
RTVSPost2010PropOp38
 70
     1
102
RTVSPost2010Prop39
140
1.0
102
RTVSPost2010PropOp39
 70
     1
102
RTVSPost2010Prop40
 90
        0
102
RTVSPost2010PropOp40
 70
     1
102
RTVSPost2010Prop41ColorIndex
 90
       18
102
RTVSPost2010Prop41ColorRGB
 90
        0
102
RTVSPost2010PropOp41
 70
     1
102
RTVSPost2010Prop42
 90
       50
102
RTVSPost2010PropOp42
 70
     1
102
RTVSPost2010Prop43
 90
        3
102
RTVSPost2010PropOp43
 70
     1
102
RTVSPost2010Prop44ColorIndex
 90
        5
102
RTVSPost2010Prop44ColorRGB
 90
      255
102
RTVSPost2010PropOp44
 70
     1
102
RTVSPost2010Prop45
280
     0
102
RTVSPost2010PropOp45
 70
     1
102
RTVSPost2010Prop46
 90
       50
102
RTVSPost2010PropOp46
 70
     1
102
RTVSPost2010Prop47
 90
       50
102
RTVSPost2010PropOp47
 70
     1
102
RTVSPost2010Prop48
 90
       50
102
RTVSPost2010PropOp48
 70
     1
102
RTVSPost2010Prop49
280
     0
102
RTVSPost2010PropOp49
 70
     1
102
RTVSPost2010Prop50
 90
       50
102
RTVSPost2010PropOp50
 70
     1
102
RTVSPost2010Prop51ColorIndex
 90
      256
102
RTVSPost2010Prop51ColorRGB
 90
-16777216
102
RTVSPost2010PropOp51
 70
     0
102
RTVSPost2010Prop52
140
1.0
102
RTVSPost2010PropOp52
 70
     0
102
RTVSPost2010Prop53
 90
        2
102
RTVSPost2010PropOp53
 70
     1
102
RTVSPost2010Prop54
  1
strokes_ogs.tif
102
RTVSPost2010PropOp54
 70
     1
102
RTVSPost2010Prop55
280
     0
102
RTVSPost2010PropOp55
 70
     1
102
RTVSPost2010Prop56
140
1.0
102
RTVSPost2010PropOp56
 70
     1
102
RTVSPost2010Prop57
140
1.0
102
RTVSPost2010PropOp57
 70
     1
102
RTVSPropertyOp0
 70
     1
102
RTVSPropertyOp1
 70
     1
102
RTVSPropertyOp2
 70
     1
102
RTVSPropertyOp3
 70
     1
102
RTVSPropertyOp4
 70
     1
102
RTVSPropertyOp5
 70
     1
102
RTVSPropertyOp6
 70
     1
102
RTVSPropertyOp7
 70
     1
102
RTVSPropertyOp8
 70
     1
102
RTVSPropertyOp9
 70
     1
102
RTVSPropertyOp10
 70
     1
102
RTVSPropertyOp11
 70
     1
102
RTVSPropertyOp12
 70
     1
102
RTVSPropertyOp13
 70
     1
102
RTVSPropertyOp14
 70
     1
102
RTVSPropertyOp15
 70
     1
102
RTVSPropertyOp16
 70
     1
102
RTVSPropertyOp17
 70
     1
102
RTVSPropertyOp18
 70
     1
102
RTVSPropertyOp19
 70
     1
102
RTVSPropertyOp20
 70
     1
102
RTVSPropertyOp21
 70
     1
102
RTVSPropertyOp22
 70
     1
102
RTVSPropertyOp23
 70
     1
102
RTVSPropertyOp24
 70
     1
102
RTVSPropertyOp25
 70
     1
102
RTVSPropertyOp26
 70
     1
102
RTVSPropertyOp27
 70
     1
102
RTVSPropertyOp28
 70
     1
102
RTVSPropertyOp29
 70
     1
102
RTVSPropertyOp30
 70
     1
102
RTVSPropertyOp31
 70
     1
102
RTVSPropertyOp32
 70
     1
102
RTVSPropertyOp33
 70
     1
102
RTVSPropertyOp34
 70
     1
102
RTVSPropertyOp35
 70
     1
102
RTVSPropertyOp36
 70
     1
102
RTVSPropertyOp37
 70
     1
102
RTVSPropertyOp38
 70
     1
102
RTVSPropertyOp39
 70
     1
102
RTVSPropertyOp40
 70
     1
102
RTVSPropertyOp41
 70
     1
102
RTVSPropertyOp42
 70
     1
102
RTVSPropertyOp43
 70
     1
102
RTVSPropertyOp44
 70
     1
102
RTVSPropertyOp45
 70
     1
102
RTVSPropertyOp46
 70
     1
102
RTVSPropertyOp47
 70
     1
102
RTVSPropertyOp48
 70
     1
102
RTVSPropertyOp49
 70
     1
102
RTVSPropertyOp50
 70
     1
102
RTVSPropertyOp51
 70
     0
102
RTVSPropertyOp52
 70
     0
102
RTVSPropertyOp53
 70
     1
102
RTVSPropertyOp54
 70
     1
102
RTVSPropertyOp55
 70
     1
102
RTVSPropertyOp56
 70
     1
102
RTVSPropertyOp57
 70
     1
102
RTVSPropertyOp58
 70
     1
102
RTVSPropertyOp59
 70
     1
102
RTVSPropertyOp60
 70
     1
102
RTVSPropertyOp61
 70
     1
102
RTVSPropertyOp62
 70
     1
  0
XRECORD
  5
3DE
102
{ACAD_REACTORS
330
3DD
102
}
330
3DD
100
AcDbXrecord
280
     1
102
RTVSPost2010Prop28
280
     0
102
RTVSPost2010PropOp28
 70
     1
102
RTVSPost2010Prop29
280
     1
102
RTVSPost2010PropOp29
 70
     1
102
RTVSPost2010Prop30
280
     1
102
RTVSPost2010PropOp30
 70
     1
102
RTVSPost2010Prop31
280
     0
102
RTVSPost2010PropOp31
 70
     1
102
RTVSPost2010Prop32
280
     0
102
RTVSPost2010PropOp32
 70
     1
102
RTVSPost2010Prop33
280
     0
102
RTVSPost2010PropOp33
 70
     1
102
RTVSPost2010Prop34
280
     0
102
RTVSPost2010PropOp34
 70
     1
102
RTVSPost2010Prop35
280
     0
102
RTVSPost2010PropOp35
 70
     1
102
RTVSPost2010Prop36
280
     0
102
RTVSPost2010PropOp36
 70
     1
102
RTVSPost2010Prop37
 90
       50
102
RTVSPost2010PropOp37
 70
     1
102
RTVSPost2010Prop38
140
0.0
102
RTVSPost2010PropOp38
 70
     1
102
RTVSPost2010Prop39
140
1.0
102
RTVSPost2010PropOp39
 70
     1
102
RTVSPost2010Prop40
 90
        0
102
RTVSPost2010PropOp40
 70
     1
102
RTVSPost2010Prop41ColorIndex
 90
       18
102
RTVSPost2010Prop41ColorRGB
 90
        0
102
RTVSPost2010PropOp41
 70
     1
102
RTVSPost2010Prop42
 90
       50
102
RTVSPost2010PropOp42
 70
     1
102
RTVSPost2010Prop43
 90
        3
102
RTVSPost2010PropOp43
 70
     1
102
RTVSPost2010Prop44ColorIndex
 90
        5
102
RTVSPost2010Prop44ColorRGB
 90
      255
102
RTVSPost2010PropOp44
 70
     1
102
RTVSPost2010Prop45
280
     0
102
RTVSPost2010PropOp45
 70
     1
102
RTVSPost2010Prop46
 90
       50
102
RTVSPost2010PropOp46
 70
     1
102
RTVSPost2010Prop47
 90
       50
102
RTVSPost2010PropOp47
 70
     1
102
RTVSPost2010Prop48
 90
       50
102
RTVSPost2010PropOp48
 70
     1
102
RTVSPost2010Prop49
280
     0
102
RTVSPost2010PropOp49
 70
     1
102
RTVSPost2010Prop50
 90
       50
102
RTVSPost2010PropOp50
 70
     1
102
RTVSPost2010Prop51ColorIndex
 90
      256
102
RTVSPost2010Prop51ColorRGB
 90
-16777216
102
RTVSPost2010PropOp51
 70
     0
102
RTVSPost2010Prop52
140
1.0
102
RTVSPost2010PropOp52
 70
     0
102
RTVSPost2010Prop53
 90
        2
102
RTVSPost2010PropOp53
 70
     1
102
RTVSPost2010Prop54
  1
strokes_ogs.tif
102
RTVSPost2010PropOp54
 70
     1
102
RTVSPost2010Prop55
280
     0
102
RTVSPost2010PropOp55
 70
     1
102
RTVSPost2010Prop56
140
1.0
102
RTVSPost2010PropOp56
 70
     1
102
RTVSPost2010Prop57
140
1.0
102
RTVSPost2010PropOp57
 70
     1
102
RTVSPropertyOp0
 70
     1
102
RTVSPropertyOp1
 70
     1
102
RTVSPropertyOp2
 70
     1
102
RTVSPropertyOp3
 70
     1
102
RTVSPropertyOp4
 70
     1
102
RTVSPropertyOp5
 70
     1
102
RTVSPropertyOp6
 70
     1
102
RTVSPropertyOp7
 70
     1
102
RTVSPropertyOp8
 70
     1
102
RTVSPropertyOp9
 70
     1
102
RTVSPropertyOp10
 70
     1
102
RTVSPropertyOp11
 70
     1
102
RTVSPropertyOp12
 70
     1
102
RTVSPropertyOp13
 70
     1
102
RTVSPropertyOp14
 70
     1
102
RTVSPropertyOp15
 70
     1
102
RTVSPropertyOp16
 70
     1
102
RTVSPropertyOp17
 70
     1
102
RTVSPropertyOp18
 70
     1
102
RTVSPropertyOp19
 70
     1
102
RTVSPropertyOp20
 70
     1
102
RTVSPropertyOp21
 70
     1
102
RTVSPropertyOp22
 70
     1
102
RTVSPropertyOp23
 70
     1
102
RTVSPropertyOp24
 70
     1
102
RTVSPropertyOp25
 70
     1
102
RTVSPropertyOp26
 70
     1
102
RTVSPropertyOp27
 70
     1
102
RTVSPropertyOp28
 70
     1
102
RTVSPropertyOp29
 70
     1
102
RTVSPropertyOp30
 70
     1
102
RTVSPropertyOp31
 70
     1
102
RTVSPropertyOp32
 70
     1
102
RTVSPropertyOp33
 70
     1
102
RTVSPropertyOp34
 70
     1
102
RTVSPropertyOp35
 70
     1
102
RTVSPropertyOp36
 70
     1
102
RTVSPropertyOp37
 70
     1
102
RTVSPropertyOp38
 70
     1
102
RTVSPropertyOp39
 70
     1
102
RTVSPropertyOp40
 70
     1
102
RTVSPropertyOp41
 70
     1
102
RTVSPropertyOp42
 70
     1
102
RTVSPropertyOp43
 70
     1
102
RTVSPropertyOp44
 70
     1
102
RTVSPropertyOp45
 70
     1
102
RTVSPropertyOp46
 70
     1
102
RTVSPropertyOp47
 70
     1
102
RTVSPropertyOp48
 70
     1
102
RTVSPropertyOp49
 70
     1
102
RTVSPropertyOp50
 70
     1
102
RTVSPropertyOp51
 70
     0
102
RTVSPropertyOp52
 70
     0
102
RTVSPropertyOp53
 70
     1
102
RTVSPropertyOp54
 70
     1
102
RTVSPropertyOp55
 70
     1
102
RTVSPropertyOp56
 70
     1
102
RTVSPropertyOp57
 70
     1
102
RTVSPropertyOp58
 70
     1
102
RTVSPropertyOp59
 70
     1
102
RTVSPropertyOp60
 70
     1
102
RTVSPropertyOp61
 70
     1
102
RTVSPropertyOp62
 70
     1
  0
ENDSEC
  0
EOF
